  0
SECTION
  2
HEADER
  9
$ACADVER
  1
AC1009
  9
$INSBASE
 10
0.0
 20
0.0
 30
0.0
  9
$EXTMIN
 10
0.0
 20
-1.4802182810368341
 30
0.0
  9
$EXTMAX
 10
130.0
 20
76.999999999999986
 30
0.0
  9
$LIMMIN
 10
0.0
 20
0.0
  9
$LIMMAX
 10
385.0
 20
270.0
  9
$ORTHOMODE
 70
     1
  9
$REGENMODE
 70
     1
  9
$FILLMODE
 70
     1
  9
$QTEXTMODE
 70
     0
  9
$MIRRTEXT
 70
     0
  9
$DRAGMODE
 70
     2
  9
$LTSCALE
 40
5.0
  9
$OSMODE
 70
    37
  9
$ATTMODE
 70
     1
  9
$TEXTSIZE
 40
4.000000000000048
  9
$TRACEWID
 40
0.05
  9
$TEXTSTYLE
  7
STANDARD
  9
$CLAYER
  8
0
  9
$CELTYPE
  6
BYLAYER
  9
$CECOLOR
 62
   256
  9
$DIMSCALE
 40
1.0
  9
$DIMASZ
 40
3.0
  9
$DIMEXO
 40
2.0
  9
$DIMDLI
 40
0.38
  9
$DIMRND
 40
0.0
  9
$DIMDLE
 40
0.0
  9
$DIMEXE
 40
2.0
  9
$DIMTP
 40
0.0
  9
$DIMTM
 40
0.0
  9
$DIMTXT
 40
3.0
  9
$DIMCEN
 40
0.0
  9
$DIMTSZ
 40
0.0
  9
$DIMTOL
 70
     0
  9
$DIMLIM
 70
     0
  9
$DIMTIH
 70
     0
  9
$DIMTOH
 70
     0
  9
$DIMSE1
 70
     0
  9
$DIMSE2
 70
     0
  9
$DIMTAD
 70
     1
  9
$DIMZIN
 70
     0
  9
$DIMBLK
  1

  9
$DIMASO
 70
     0
  9
$DIMSHO
 70
     0
  9
$DIMPOST
  1

  9
$DIMAPOST
  1

  9
$DIMALT
 70
     0
  9
$DIMALTD
 70
     2
  9
$DIMALTF
 40
25.399999999999999
  9
$DIMLFAC
 40
1.0
  9
$DIMTOFL
 70
     1
  9
$DIMTVP
 40
1.6000000000000001
  9
$DIMTIX
 70
     1
  9
$DIMSOXD
 70
     0
  9
$DIMSAH
 70
     0
  9
$DIMBLK1
  1

  9
$DIMBLK2
  1

  9
$DIMSTYLE
  2
STANDARD
  9
$DIMCLRD
 70
     0
  9
$DIMCLRE
 70
     0
  9
$DIMCLRT
 70
     0
  9
$DIMTFAC
 40
1.0
  9
$DIMGAP
 40
1.0
  9
$LUNITS
 70
     2
  9
$LUPREC
 70
     4
  9
$SKETCHINC
 40
0.1
  9
$FILLETRAD
 40
0.0
  9
$AUNITS
 70
     0
  9
$AUPREC
 70
     4
  9
$MENU
  1
E:\r13\win\SUPPORT\ACAD
  9
$ELEVATION
 40
0.0
  9
$PELEVATION
 40
0.0
  9
$THICKNESS
 40
0.0
  9
$LIMCHECK
 70
     0
  9
$BLIPMODE
 70
     0
  9
$CHAMFERA
 40
0.0
  9
$CHAMFERB
 40
0.0
  9
$SKPOLY
 70
     0
  9
$TDCREATE
 40
2450280.598206134
  9
$TDUPDATE
 40
2458249.592265937
  9
$TDINDWG
 40
0.1043546759
  9
$TDUSRTIMER
 40
0.1043546759
  9
$USRTIMER
 70
     1
  9
$ANGBASE
 50
0.0
  9
$ANGDIR
 70
     0
  9
$PDMODE
 70
     0
  9
$PDSIZE
 40
0.0
  9
$PLINEWID
 40
0.0
  9
$COORDS
 70
     1
  9
$SPLFRAME
 70
     0
  9
$SPLINETYPE
 70
     6
  9
$SPLINESEGS
 70
     8
  9
$ATTDIA
 70
     0
  9
$ATTREQ
 70
     1
  9
$HANDLING
 70
     1
  9
$HANDSEED
  5
D5E
  9
$SURFTAB1
 70
     6
  9
$SURFTAB2
 70
     6
  9
$SURFTYPE
 70
     6
  9
$SURFU
 70
     6
  9
$SURFV
 70
     6
  9
$UCSNAME
  2

  9
$UCSORG
 10
0.0
 20
0.0
 30
0.0
  9
$UCSXDIR
 10
1.0
 20
0.0
 30
0.0
  9
$UCSYDIR
 10
0.0
 20
1.0
 30
0.0
  9
$PUCSNAME
  2

  9
$PUCSORG
 10
0.0
 20
0.0
 30
0.0
  9
$PUCSXDIR
 10
1.0
 20
0.0
 30
0.0
  9
$PUCSYDIR
 10
0.0
 20
1.0
 30
0.0
  9
$USERI1
 70
     3
  9
$USERI2
 70
     1
  9
$USERI3
 70
     1
  9
$USERI4
 70
     0
  9
$USERI5
 70
     0
  9
$USERR1
 40
1.0
  9
$USERR2
 40
3.0
  9
$USERR3
 40
3.0
  9
$USERR4
 40
3.0
  9
$USERR5
 40
10.0
  9
$WORLDVIEW
 70
     1
  9
$SHADEDGE
 70
     3
  9
$SHADEDIF
 70
    70
  9
$TILEMODE
 70
     1
  9
$MAXACTVP
 70
    16
  9
$PLIMCHECK
 70
     0
  9
$PEXTMIN
 10
1.0000000000000000E+020
 20
1.0000000000000000E+020
 30
1.0000000000000000E+020
  9
$PEXTMAX
 10
-1.0000000000000000E+020
 20
-1.0000000000000000E+020
 30
-1.0000000000000000E+020
  9
$PLIMMIN
 10
0.0
 20
0.0
  9
$PLIMMAX
 10
12.0
 20
9.0
  9
$UNITMODE
 70
     0
  9
$VISRETAIN
 70
     0
  9
$PLINEGEN
 70
     0
  9
$PSLTSCALE
 70
     0
  0
ENDSEC
  0
SECTION
  2
TABLES
  0
TABLE
  2
VPORT
 70
     1
  0
VPORT
  2
*ACTIVE
 70
     0
 10
0.0
 20
0.0
 11
1.0
 21
1.0
 12
64.99919288340881
 22
38.005711305879593
 13
0.0
 23
0.0
 14
5.0
 24
5.0
 15
10.0
 25
10.0
 16
0.0
 26
0.0
 36
1.0
 17
0.0
 27
0.0
 37
0.0
 40
80.12092806489494
 41
2.0984455958549222
 42
50.0
 43
0.0
 44
0.0
 50
0.0
 51
0.0
 71
     0
 72
   500
 73
     1
 74
     0
 75
     0
 76
     0
 77
     0
 78
     2
  0
ENDTAB
  0
TABLE
  2
LTYPE
 70
     4
  0
LTYPE
  2
CONTINUOUS
 70
     0
  3
Solid Line
 72
    65
 73
     0
 40
0.0
  0
LTYPE
  2
CENTER
 70
     0
  3
____ _ ____ _ ____ _ ____ _ ____ _ ____ _ ____
 72
    65
 73
     4
 40
2.0
 49
1.25
 49
-0.25
 49
0.25
 49
-0.25
  0
LTYPE
  2
HIDDEN
 70
     0
  3
_ _ _ _ _ _ _ _ _ _ _ _ _ _ _ _ _ _ _ _ _ _ _
 72
    65
 73
     2
 40
0.375
 49
0.25
 49
-0.125
  0
LTYPE
  2
PHANTOM2
 70
     0
  3
___ _ _ ___ _ _ ___ _ _ ___ _ _
 72
    65
 73
     6
 40
1.25
 49
0.625
 49
-0.125
 49
0.125
 49
-0.125
 49
0.125
 49
-0.125
  0
ENDTAB
  0
TABLE
  2
LAYER
 70
     4
  0
LAYER
  2
0
 70
     0
 62
     7
  6
CONTINUOUS
  0
LAYER
  2
1
 70
     0
 62
     1
  6
CENTER
  0
LAYER
  2
3
 70
     0
 62
     3
  6
CONTINUOUS
  0
LAYER
  2
2
 70
     0
 62
     2
  6
HIDDEN
  0
ENDTAB
  0
TABLE
  2
STYLE
 70
     2
  0
STYLE
  2
STANDARD
 70
     0
 40
0.0
 41
1.0
 50
0.0
 71
     0
 42
4.000000000000048
  3
SIMPLEX
  4
BIGFONT
  0
STYLE
  2
STANDARD1
 70
     0
 40
0.0
 41
1.0
 50
0.0
 71
     0
 42
3.0
  3
txt
  4

  0
ENDTAB
  0
TABLE
  2
VIEW
 70
     0
  0
ENDTAB
  0
TABLE
  2
UCS
 70
     0
  0
ENDTAB
  0
TABLE
  2
APPID
 70
     4
  0
APPID
  2
ACAD
 70
     0
  0
APPID
  2
ACAD_MLEADERVER
 70
     0
  0
APPID
  2
ACAD_EXEMPT_FROM_CAD_STANDARDS
 70
     0
  0
APPID
  2
ACAD_NAV_VCDISPLAY
 70
     0
  0
ENDTAB
  0
TABLE
  2
DIMSTYLE
 70
     2
  0
DIMSTYLE
  2
STANDARD
 70
     0
  3

  4

  5

  6

  7

 40
1.0
 41
0.18
 42
0.0625
 43
0.38
 44
0.18
 45
0.0
 46
0.0
 47
0.0
 48
0.0
140
0.18
141
0.09
142
0.0
143
25.399999999999999
144
1.0
145
0.0
146
1.0
147
0.09
 71
     0
 72
     0
 73
     1
 74
     1
 75
     0
 76
     0
 77
     0
 78
     0
170
     0
171
     2
172
     0
173
     0
174
     0
175
     0
176
     0
177
     0
178
     0
  0
DIMSTYLE
  2
ISO-25
 70
     0
  3

  4

  5

  6

  7

 40
1.0
 41
2.5
 42
0.625
 43
3.75
 44
1.25
 45
0.0
 46
0.0
 47
0.0
 48
0.0
140
2.5
141
2.5
142
0.0
143
0.0393700787
144
1.0
145
0.0
146
1.0
147
0.625
 71
     0
 72
     0
 73
     0
 74
     0
 75
     0
 76
     0
 77
     1
 78
     8
170
     0
171
     3
172
     1
173
     0
174
     0
175
     0
176
     0
177
     0
178
     0
  0
ENDTAB
  0
ENDSEC
  0
SECTION
  2
BLOCKS
  0
BLOCK
  8
0
  2
$MODEL_SPACE
 70
     0
 10
0.0
 20
0.0
 30
0.0
  3
$MODEL_SPACE
  1

  0
ENDBLK
  5
175
  8
0
  0
BLOCK
 67
     1
  8
0
  2
$PAPER_SPACE
 70
     0
 10
0.0
 20
0.0
 30
0.0
  3
$PAPER_SPACE
  1

  0
ENDBLK
  5
173
 67
     1
  8
0
  0
ENDSEC
  0
SECTION
  2
ENTITIES
  0
TEXT
  5
6AC
  8
0
 62
     3
 10
0.0
 20
0.0
 30
0.0
 40
5.0
  1
NDXC8-5AW
  7
STANDARD1
  0
LINE
  5
82D
  8
0
 10
88.799999999999955
 20
76.999999999999986
 30
0.0
 11
84.670854238599986
 21
73.999999999999986
 31
0.0
  0
LINE
  5
82E
  8
0
 10
84.670854238599986
 20
66.0
 30
0.0
 11
88.799999999999955
 21
63.0
 31
0.0
  0
LINE
  5
82F
  8
0
 10
89.199999999999989
 20
76.999999999999986
 30
0.0
 11
88.799999999999955
 21
76.999999999999986
 31
0.0
  0
LINE
  5
830
  8
0
 10
88.799999999999955
 20
63.0
 30
0.0
 11
89.199999999999989
 21
63.0
 31
0.0
  0
ARC
  5
831
  8
0
 10
89.199999999999989
 20
63.79999999999999
 30
0.0
 40
0.7999999999999972
 50
270.0
 51
0.0
  0
ARC
  5
832
  8
0
 10
89.199999999999989
 20
76.199999999999974
 30
0.0
 40
0.7999999999999972
 50
0.0
 51
90.0
  0
LINE
  5
833
  8
0
 10
84.670854238599986
 20
73.999999999999986
 30
0.0
 11
79.299999999999955
 21
73.999999999999986
 31
0.0
  0
LINE
  5
834
  8
0
 10
79.299999999999955
 20
66.0
 30
0.0
 11
84.670854238599986
 21
66.0
 31
0.0
  0
LINE
  5
835
  8
0
 10
79.299999999999955
 20
73.999999999999986
 30
0.0
 11
78.999999999999943
 21
73.699999999999974
 31
0.0
  0
LINE
  5
836
  8
0
 10
78.999999999999943
 20
66.299999999899995
 30
0.0
 11
79.299999999999955
 21
65.999999999899984
 31
0.0
  0
LINE
  5
837
  8
0
 10
78.999999999999943
 20
73.999999999999986
 30
0.0
 11
65.499999999999943
 21
73.999999999999986
 31
0.0
  0
LINE
  5
838
  8
0
 10
65.499999999999943
 20
66.0
 30
0.0
 11
78.999999999999943
 21
66.0
 31
0.0
  0
LINE
  5
839
  8
0
 10
61.49999999999995
 20
73.999999999999986
 30
0.0
 11
55.966999999999949
 21
73.999999999999986
 31
0.0
  0
LINE
  5
83A
  8
0
 10
55.966999999999949
 20
66.0
 30
0.0
 11
61.49999999999995
 21
66.0
 31
0.0
  0
LINE
  5
83B
  8
0
 10
55.966999999999949
 20
73.999999999999986
 30
0.0
 11
54.999999999999943
 21
73.23299999999999
 31
0.0
  0
LINE
  5
83C
  8
0
 10
54.999999999999943
 20
66.766999999899994
 30
0.0
 11
55.966999999999949
 21
66.0
 31
0.0
  0
ARC
  5
840
  8
0
 10
55.284957802399958
 20
73.397888319999979
 30
0.0
 40
10.21611266838975
 50
340.57328435909892
 51
359.17055803709877
  0
ARC
  5
842
  8
0
 10
55.270752211399952
 20
66.599574101400023
 30
0.0
 40
10.230353770547699
 50
0.8425006512998059
 51
19.413657501698779
  0
LINE
  5
843
  8
0
 10
64.919443411599957
 20
70.000000014400015
 30
0.0
 11
62.08055658359995
 21
69.999999999999986
 31
0.0
  0
ARC
  5
844
  8
0
 10
55.284957802399958
 20
66.897888319999964
 30
0.0
 40
10.216112668389259
 50
340.57328435909892
 51
359.17055803709877
  0
ARC
  5
846
  8
0
 10
71.71504227709994
 20
66.897888329899999
 30
0.0
 40
10.21611274805303
 50
180.82944201160001
 51
199.42671598809949
  0
ARC
  5
847
  8
0
 10
71.729247758099973
 20
66.599574105299993
 30
0.0
 40
10.230353739960609
 50
160.58634263239989
 51
179.15749936799929
  0
ARC
  5
849
  8
0
 10
55.270752211399952
 20
73.099574101400023
 30
0.0
 40
10.230353770547151
 50
0.8425006512998059
 51
19.413657501698779
  0
ARC
  5
84A
  8
0
 10
71.71504227709994
 20
73.397888329899999
 30
0.0
 40
10.216112748054091
 50
180.82944201160001
 51
199.42671598809949
  0
ARC
  5
84B
  8
0
 10
71.729247758099973
 20
73.099574105299993
 30
0.0
 40
10.230353739998611
 50
160.58634263239989
 51
179.1574993678984
  0
LINE
  5
84D
  8
0
 10
84.670854238599986
 20
73.999999999999986
 30
0.0
 11
84.670854238599986
 21
66.0
 31
0.0
  0
LINE
  5
84E
  8
0
 10
88.799999999999955
 20
63.0
 30
0.0
 11
88.799999999999955
 21
76.999999999999986
 31
0.0
  0
LINE
  5
84F
  8
0
 10
89.999999999999943
 20
76.199999999999974
 30
0.0
 11
89.999999999999943
 21
63.79999999999999
 31
0.0
  0
LINE
  5
850
  8
0
 10
61.49999999999995
 20
76.499999999999986
 30
0.0
 11
65.499999999999943
 21
76.499999999999986
 31
0.0
  0
LINE
  5
855
  8
0
 10
65.499999999999943
 20
76.499999999999986
 30
0.0
 11
65.499999999999943
 21
63.5
 31
0.0
  0
LINE
  5
856
  8
0
 10
65.499999999999943
 20
63.5
 30
0.0
 11
61.49999999999995
 21
63.5
 31
0.0
  0
LINE
  5
857
  8
0
 10
61.49999999999995
 20
76.499999999999986
 30
0.0
 11
61.49999999999995
 21
63.5
 31
0.0
  0
LINE
  5
859
  8
0
 10
71.999999999999943
 20
73.109053650599989
 30
0.0
 11
72.241795510999964
 21
73.999999924999983
 31
0.0
  0
LINE
  5
85B
  8
0
 10
78.999999999999943
 20
73.109053650599989
 30
0.0
 11
78.804709339599981
 21
74.00000003320001
 31
0.0
  0
LINE
  5
85D
  8
0
 10
78.999999999999943
 20
70.890946349299995
 30
0.0
 11
78.804709369699992
 21
70.000000078500008
 31
0.0
  0
LINE
  5
85E
  8
0
 10
78.804709359099945
 20
70.000000039200003
 30
0.0
 11
72.241795532199944
 21
70.000000011499978
 31
0.0
  0
LINE
  5
85F
  8
0
 10
72.241795528399962
 20
70.000000023100014
 30
0.0
 11
71.999999999999943
 21
70.890946349299995
 31
0.0
  0
LINE
  5
862
  8
0
 10
71.999999999999943
 20
69.109053650599989
 30
0.0
 11
72.241795528399962
 21
69.999999976900014
 31
0.0
  0
LINE
  5
863
  8
0
 10
78.999999999999943
 20
69.109053650599989
 30
0.0
 11
78.804709339599981
 21
70.00000003320001
 31
0.0
  0
LINE
  5
865
  8
0
 10
78.999999999999943
 20
66.890946349299995
 30
0.0
 11
78.804709369699992
 21
66.000000078499994
 31
0.0
  0
LINE
  5
867
  8
0
 10
72.241795545699972
 20
65.99999997110001
 30
0.0
 11
71.999999999999943
 21
66.890946349299995
 31
0.0
  0
LINE
  5
86B
  8
0
 10
79.299999999999955
 20
73.999999999999986
 30
0.0
 11
79.299999999999955
 21
66.0
 31
0.0
  0
LINE
  5
86C
  8
0
 10
55.966999999999949
 20
73.999999999999986
 30
0.0
 11
55.966999999999949
 21
66.0
 31
0.0
  0
LINE
  5
86D
  8
0
 10
54.999999999999943
 20
66.766999999899994
 30
0.0
 11
54.999999999999943
 21
73.23299999999999
 31
0.0
  0
LINE
  5
86F
  8
0
 10
78.999999999999943
 20
73.999999999999986
 30
0.0
 11
78.999999999999943
 21
66.0
 31
0.0
  0
LINE
  5
873
  8
0
 10
71.999999999999943
 20
66.0
 30
0.0
 11
71.999999999999943
 21
73.999999999999986
 31
0.0
  0
LINE
  5
878
  8
0
 10
89.199999999999989
 20
63.0
 30
0.0
 11
89.199999999999989
 21
76.999999999999986
 31
0.0
  0
CIRCLE
  5
87A
  8
0
 10
120.0
 20
30.0
 30
0.0
 40
7.0
  0
LINE
  5
87C
  8
0
 10
120.0000000231
 20
22.494446513799971
 30
0.0
 11
121.0488773071
 21
23.100016096099971
 31
0.0
  0
LINE
  5
87D
  8
0
 10
118.9802407831
 20
23.0832047588999
 30
0.0
 11
119.9999999769
 21
22.494446513799971
 31
0.0
  0
LINE
  5
87E
  8
0
 10
126.5
 20
26.24722321689995
 30
0.0
 11
126.5
 21
27.44780757049994
 31
0.0
  0
LINE
  5
87F
  8
0
 10
125.49031438999999
 20
25.664280991499929
 30
0.0
 11
126.499999925
 21
26.247223206899999
 31
0.0
  0
LINE
  5
880
  8
0
 10
113.5
 20
27.460019711699939
 30
0.0
 11
113.5
 21
26.247223336899982
 31
0.0
  0
LINE
  5
881
  8
0
 10
113.4999999711
 20
26.24722326689993
 30
0.0
 11
114.5546729517999
 21
25.638307537599982
 31
0.0
  0
LINE
  5
882
  8
0
 10
114.5375900567999
 20
34.351829648399978
 30
0.0
 11
113.500000075
 21
33.752776792999953
 31
0.0
  0
LINE
  5
883
  8
0
 10
113.5
 20
33.752776782999938
 30
0.0
 11
113.5
 21
32.592719679299982
 31
0.0
  0
LINE
  5
884
  8
0
 10
126.5000000287999
 20
33.752776733099942
 30
0.0
 11
125.4670421287999
 21
34.349155254699951
 31
0.0
  0
LINE
  5
885
  8
0
 10
126.5
 20
32.540892996899963
 30
0.0
 11
126.5
 21
33.752776663099937
 31
0.0
  0
LINE
  5
886
  8
0
 10
121.0360184845
 20
36.907407948599932
 30
0.0
 11
120.000000075
 21
37.50555345609996
 31
0.0
  0
LINE
  5
887
  8
0
 10
120.0000000287999
 20
37.505553516099951
 30
0.0
 11
118.9492762833999
 21
36.898917878799921
 31
0.0
  0
CIRCLE
  5
888
  8
0
 10
20.0
 20
30.0
 30
0.0
 40
2.5000000000000062
  0
CIRCLE
  5
88A
  8
0
 10
20.0
 20
30.0
 30
0.0
 40
4.0000000000000062
  0
ARC
  5
89D
  8
0
 10
20.0
 20
30.0
 30
0.0
 40
7.0000000000000044
 50
98.383838772499217
 51
141.3053762814977
  0
ARC
  5
89E
  8
0
 10
20.0
 20
30.0
 30
0.0
 40
6.9999999999999831
 50
158.6587939260005
 51
201.7452210031023
  0
ARC
  5
89F
  8
0
 10
20.0
 20
30.0
 30
0.0
 40
7.0000000000000044
 50
218.53990334820151
 51
261.34281057279929
  0
ARC
  5
8A0
  8
0
 10
20.0
 20
30.0
 30
0.0
 40
7.0000000000000071
 50
278.53398496519839
 51
321.49303629479959
  0
ARC
  5
8A1
  8
0
 10
20.0
 20
30.0
 30
0.0
 40
7.0000000000000231
 50
338.6462838199991
 51
21.441121924499608
  0
ARC
  5
8A2
  8
0
 10
20.0
 20
30.0
 30
0.0
 40
7.0000000000000133
 50
38.299934462799442
 51
81.35355642729985
  0
LINE
  5
8A3
  8
0
 10
89.199999999999989
 20
36.999999999999972
 30
0.0
 11
88.799999999999898
 21
36.999999999999972
 31
0.0
  0
LINE
  5
8A4
  8
0
 10
88.799999999999898
 20
23.000000000000028
 30
0.0
 11
89.199999999999989
 21
23.000000000000028
 31
0.0
  0
LINE
  5
8A5
  8
0
 10
88.799999999999898
 20
36.999999999999972
 30
0.0
 11
84.670854238599929
 21
33.999999999999972
 31
0.0
  0
LINE
  5
8A6
  8
0
 10
84.670854238599929
 20
26.000000000000028
 30
0.0
 11
88.799999999999898
 21
23.000000000000028
 31
0.0
  0
ARC
  5
8A7
  8
0
 10
89.199999999999989
 20
23.79999999999999
 30
0.0
 40
0.7999999999999972
 50
270.0
 51
0.0
  0
ARC
  5
8A8
  8
0
 10
89.199999999999989
 20
36.19999999999996
 30
0.0
 40
0.8000000000000113
 50
0.0
 51
90.0
  0
LINE
  5
8A9
  8
0
 10
84.670854238599929
 20
33.999999999999972
 30
0.0
 11
79.299999999999883
 21
33.999999999999972
 31
0.0
  0
LINE
  5
8AA
  8
0
 10
79.299999999999883
 20
26.000000000000028
 30
0.0
 11
84.670854238599929
 21
26.000000000000028
 31
0.0
  0
LINE
  5
8AB
  8
0
 10
79.299999999999883
 20
33.999999999999972
 30
0.0
 11
78.999999999999943
 21
33.69999999999996
 31
0.0
  0
LINE
  5
8AC
  8
0
 10
78.999999999999943
 20
26.29999999999999
 30
0.0
 11
79.299999999999883
 21
26.000000000000028
 31
0.0
  0
LINE
  5
8AD
  8
0
 10
71.999999999999943
 20
33.999999999999972
 30
0.0
 11
65.499999999999943
 21
33.999999999999972
 31
0.0
  0
LINE
  5
8AE
  8
0
 10
65.499999999999943
 20
26.000000000000028
 30
0.0
 11
71.999999999999943
 21
26.000000000000028
 31
0.0
  0
LINE
  5
8AF
  8
0
 10
61.49999999999995
 20
33.999999999999972
 30
0.0
 11
55.966999999999949
 21
33.999999999999972
 31
0.0
  0
LINE
  5
8B0
  8
0
 10
55.966999999999949
 20
26.000000000000028
 30
0.0
 11
61.49999999999995
 21
26.000000000000028
 31
0.0
  0
LINE
  5
8B1
  8
0
 10
55.966999999999949
 20
33.999999999999972
 30
0.0
 11
54.999999999999943
 21
33.232999999999947
 31
0.0
  0
LINE
  5
8B2
  8
0
 10
54.999999999999943
 20
26.766999999999971
 30
0.0
 11
55.966999999999949
 21
26.000000000000028
 31
0.0
  0
LINE
  5
8B3
  8
0
 10
62.08055658359995
 20
37.505553499499968
 30
0.0
 11
61.49999999999995
 21
36.499999999999972
 31
0.0
  0
LINE
  5
8B4
  8
0
 10
64.919443420199968
 20
22.494446507200021
 30
0.0
 11
65.499999999999943
 21
23.500000000000028
 31
0.0
  0
LINE
  5
8B5
  8
0
 10
65.499999999999943
 20
36.499999999999972
 30
0.0
 11
64.919443411599957
 21
37.505553507799959
 31
0.0
  0
LINE
  5
8B6
  8
0
 10
61.49999999999995
 20
23.500000000000028
 30
0.0
 11
62.08055658359995
 21
22.4944465005
 31
0.0
  0
ARC
  5
8B7
  8
0
 10
54.999999999999943
 20
29.999999999999972
 30
0.0
 40
4.9999999999998934
 50
156.58123504463529
 51
203.41876495536471
  0
LINE
  5
8B8
  8
0
 10
54.999999999999943
 20
32.499999999999972
 30
0.0
 11
51.30000000000004
 21
32.499999999999993
 31
0.0
  0
LINE
  5
8B9
  8
0
 10
51.299999999999898
 20
27.500000000000028
 30
0.0
 11
54.999999999999943
 21
27.500000000000028
 31
0.0
  0
LINE
  5
8BA
  8
0
 10
78.804709351599911
 20
25.381197852999971
 30
0.0
 11
78.999999999999943
 21
25.799999999999979
 31
0.0
  0
LINE
  5
8BB
  8
0
 10
78.999999999999943
 20
34.19999999999996
 30
0.0
 11
78.804709359099945
 21
34.618802130899951
 31
0.0
  0
LINE
  5
8BC
  8
0
 10
71.999999999999943
 20
25.799999999999979
 30
0.0
 11
72.241795540899943
 21
25.381197838199999
 31
0.0
  0
LINE
  5
8BD
  8
0
 10
72.241795532199887
 20
34.618802146899952
 30
0.0
 11
71.999999999999943
 21
34.19999999999996
 31
0.0
  0
LINE
  5
8BE
  8
0
 10
88.799999999999898
 20
23.000000000000028
 30
0.0
 11
88.799999999999898
 21
36.999999999999972
 31
0.0
  0
LINE
  5
8BF
  8
0
 10
84.670854238599929
 20
33.999999999999972
 30
0.0
 11
84.670854238599929
 21
26.000000000000028
 31
0.0
  0
LINE
  5
8C0
  8
0
 10
89.999999999999943
 20
23.79999999999999
 30
0.0
 11
89.999999999999943
 21
36.19999999999996
 31
0.0
  0
LINE
  5
8C1
  8
0
 10
64.919443411599957
 20
26.24722325860003
 30
0.0
 11
62.08055658359995
 21
26.247223250299982
 31
0.0
  0
ARC
  5
8C2
  8
0
 10
61.728736986099932
 20
24.232008643199979
 30
0.0
 40
3.7738173567841962
 50
2.1081974933990031
 51
32.276050223402109
  0
ARC
  5
8C3
  8
0
 10
61.737050482299942
 20
24.507088905799979
 30
0.0
 40
3.7654155459683141
 50
327.68949080629937
 51
357.92626192469822
  0
LINE
  5
8C4
  8
0
 10
64.919443420199968
 20
22.494446507200021
 30
0.0
 11
62.08055658359995
 21
22.4944465005
 31
0.0
  0
ARC
  5
8C5
  8
0
 10
65.262949530999947
 20
24.507088908599972
 30
0.0
 40
3.7654155592454082
 50
182.0737381107013
 51
212.310509356301
  0
ARC
  5
8C6
  8
0
 10
65.271262997399958
 20
24.232008646799979
 30
0.0
 40
3.7738173401600821
 50
147.72394998119799
 51
177.89180255209789
  0
ARC
  5
8C7
  8
0
 10
52.07397391989997
 20
30.155718884599938
 30
0.0
 40
13.426929085766281
 50
343.0765495898994
 51
359.33549698219821
  0
LINE
  5
8C9
  8
0
 10
62.08055658359995
 20
33.752776749699962
 30
0.0
 11
64.919443411599957
 21
33.752776766399961
 31
0.0
  0
ARC
  5
8CA
  8
0
 10
52.054971575799946
 20
29.841341448899961
 30
0.0
 40
13.44596451960471
 50
0.6760895665992497
 51
16.911864340600729
  0
ARC
  5
8CB
  8
0
 10
74.926026177699953
 20
30.15571889499995
 30
0.0
 40
13.426929183505671
 50
180.66450305740159
 51
196.9234507160015
  0
ARC
  5
8CC
  8
0
 10
74.945028386799947
 20
29.841341452999959
 30
0.0
 40
13.445964482181649
 50
163.08813577769911
 51
179.32391044899899
  0
ARC
  5
8CE
  8
0
 10
61.737050511699977
 20
35.76541914859996
 30
0.0
 40
3.765415516336108
 50
327.68949117460232
 51
357.92626200429982
  0
ARC
  5
8D1
  8
0
 10
65.262949530899959
 20
35.765419157699966
 30
0.0
 40
3.7654155592443721
 50
182.07373811060029
 51
212.310509356301
  0
LINE
  5
8D2
  8
0
 10
64.919443411599957
 20
37.505553507799959
 30
0.0
 11
62.08055658359995
 21
37.505553499499968
 31
0.0
  0
ARC
  5
8D3
  8
0
 10
61.728736986099932
 20
35.490338892399961
 30
0.0
 40
3.773817356784618
 50
2.1081974933990031
 51
32.276050223402109
  0
ARC
  5
8D4
  8
0
 10
65.271262997399958
 20
35.49033889599994
 30
0.0
 40
3.7738173402161301
 50
147.72394998140081
 51
177.8918025518991
  0
LINE
  5
8D6
  8
0
 10
71.999999999999943
 20
31.280624847499951
 30
0.0
 11
72.241795510999907
 21
32.309400990199983
 31
0.0
  0
LINE
  5
8D7
  8
0
 10
72.241795540899943
 20
32.30940106839995
 30
0.0
 11
78.804709344099933
 21
32.309401095899972
 31
0.0
  0
LINE
  5
8D8
  8
0
 10
78.804709339599924
 20
32.309401115099938
 30
0.0
 11
78.999999999999943
 21
31.280624847499951
 31
0.0
  0
LINE
  5
8DA
  8
0
 10
78.999999999999943
 20
28.719375152499961
 30
0.0
 11
78.804709369699935
 21
27.69059901389997
 31
0.0
  0
LINE
  5
8DB
  8
0
 10
78.804709359099945
 20
27.690598968599971
 30
0.0
 11
72.241795528399905
 21
27.69059888489997
 31
0.0
  0
LINE
  5
8DC
  8
0
 10
71.999999999999943
 20
28.719375152499961
 30
0.0
 11
72.241795545699972
 21
27.690598889900031
 31
0.0
  0
LINE
  5
8DF
  8
0
 10
72.241795545699972
 20
32.30940106009993
 30
0.0
 11
71.999999999999943
 21
32.82378919139996
 31
0.0
  0
LINE
  5
8E2
  8
0
 10
78.804709359099945
 20
34.618802130899951
 30
0.0
 11
72.241795532199887
 21
34.618802146899952
 31
0.0
  0
LINE
  5
8E5
  8
0
 10
78.999999999999943
 20
32.82378919139996
 30
0.0
 11
78.804709369699935
 21
32.309401122099963
 31
0.0
  0
LINE
  5
8E8
  8
0
 10
71.999999999999943
 20
27.176210808600018
 30
0.0
 11
72.241795511099951
 21
27.690598879999961
 31
0.0
  0
LINE
  5
8E9
  8
0
 10
78.999999999999943
 20
27.176210808600018
 30
0.0
 11
78.804709339599924
 21
27.690598942400051
 31
0.0
  0
LINE
  5
8EC
  8
0
 10
78.804709351599911
 20
25.381197852999971
 30
0.0
 11
72.241795540899943
 21
25.381197838199999
 31
0.0
  0
LINE
  5
8EF
  8
0
 10
79.299999999999883
 20
33.999999999999972
 30
0.0
 11
79.299999999999883
 21
26.000000000000028
 31
0.0
  0
LINE
  5
8F0
  8
0
 10
55.966999999999949
 20
33.999999999999972
 30
0.0
 11
55.966999999999949
 21
26.000000000000028
 31
0.0
  0
LINE
  5
8F1
  8
0
 10
54.999999999999943
 20
26.766999999999971
 30
0.0
 11
54.999999999999943
 21
33.232999999999947
 31
0.0
  0
LINE
  5
8F6
  8
0
 10
65.499999999999943
 20
36.499999999999972
 30
0.0
 11
65.499999999999943
 21
23.500000000000028
 31
0.0
  0
LINE
  5
8F8
  8
0
 10
61.49999999999995
 20
36.499999999999972
 30
0.0
 11
61.49999999999995
 21
23.500000000000028
 31
0.0
  0
LINE
  5
8F9
  8
0
 10
51.30000000000004
 20
32.499999999999957
 30
0.0
 11
51.30000000000004
 21
27.500000000000028
 31
0.0
  0
LINE
  5
8FA
  8
0
 10
78.999999999999943
 20
34.19999999999996
 30
0.0
 11
78.999999999999943
 21
25.799999999999979
 31
0.0
  0
LINE
  5
8FC
  8
0
 10
71.999999999999943
 20
25.799999999999979
 30
0.0
 11
71.999999999999943
 21
34.19999999999996
 31
0.0
  0
LINE
  5
8FE
  8
0
 10
89.199999999999989
 20
23.000000000000028
 30
0.0
 11
89.199999999999989
 21
36.999999999999972
 31
0.0
  0
LINE
  5
946
  8
1
 10
110.0
 20
30.0
 30
0.0
 11
130.0
 21
30.0
 31
0.0
  0
LINE
  5
947
  8
1
 10
120.0
 20
19.999999999999989
 30
0.0
 11
120.0
 21
40.0
 31
0.0
  0
LINE
  5
94A
  8
1
 10
92.999999999999943
 20
30.0
 30
0.0
 11
47.00000000000005
 21
29.999999999999989
 31
0.0
  0
LINE
  5
94C
  8
1
 10
92.999999999999943
 20
69.999999999999986
 30
0.0
 11
47.00000000000005
 21
69.999999999999986
 31
0.0
  0
LINE
  5
962
  8
1
 10
10.0
 20
30.0
 30
0.0
 11
30.0
 21
30.0
 31
0.0
  0
LINE
  5
963
  8
1
 10
20.0
 20
20.0
 30
0.0
 11
20.0
 21
40.0
 31
0.0
  0
LINE
  5
964
  8
0
 10
69.999999999999943
 20
65.999999999999986
 30
0.0
 11
69.999999999999886
 21
73.999999999999986
 31
0.0
  0
LINE
  5
965
  8
3
 10
69.999999999999829
 20
73.323500000000067
 30
0.0
 11
71.17173237131999
 21
73.999999999999986
 31
0.0
  0
LINE
  5
966
  8
3
 10
69.999999999999716
 20
66.676499999999905
 30
0.0
 11
71.171732371319877
 21
66.0
 31
0.0
  0
LINE
  5
967
  8
3
 10
69.999999999999829
 20
73.323500000000067
 30
0.0
 11
65.499999999999943
 21
73.323500000000067
 31
0.0
  0
LINE
  5
968
  8
3
 10
69.999999999999829
 20
66.676499999999834
 30
0.0
 11
65.499999999999943
 21
66.676499999999834
 31
0.0
  0
LINE
  5
969
  8
0
 10
69.999999999999943
 20
25.999999999999972
 30
0.0
 11
69.999999999999886
 21
33.999999999999972
 31
0.0
  0
LINE
  5
96A
  8
3
 10
69.999999999999829
 20
33.323500000000053
 30
0.0
 11
71.17173237131999
 21
33.999999999999972
 31
0.0
  0
LINE
  5
96B
  8
3
 10
69.999999999999716
 20
26.676499999999891
 30
0.0
 11
71.171732371319877
 21
25.999999999999989
 31
0.0
  0
LINE
  5
96C
  8
3
 10
69.999999999999829
 20
33.323500000000053
 30
0.0
 11
65.499999999999943
 21
33.323500000000067
 31
0.0
  0
LINE
  5
96D
  8
3
 10
69.999999999999829
 20
26.676499999999841
 30
0.0
 11
65.499999999999943
 21
26.676499999999852
 31
0.0
  0
CIRCLE
  5
96E
  8
3
 10
20.0
 20
30.0
 30
0.0
 40
3.3235000000001089
  0
LINE
  5
9BA
  8
0
 10
51.30000000000004
 20
32.499999999999972
 30
0.0
 11
50.411877467706091
 21
31.987242216906711
 31
0.0
  0
LINE
  5
9BB
  8
0
 10
51.300000000000011
 20
27.499999999999961
 30
0.0
 11
50.411877467706091
 21
28.012757783093221
 31
0.0
  0
LINE
  5
9BC
  8
0
 10
50.411877467706091
 20
31.987242216906711
 30
0.0
 11
50.41187746770612
 21
28.01275778309321
 31
0.0
  0
ARC
  5
A00
  8
0
 10
54.999999999999943
 20
69.999999999949992
 30
0.0
 40
4.9999999999998934
 50
156.58123504463529
 51
203.41876495536471
  0
LINE
  5
A01
  8
0
 10
54.999999999999943
 20
72.499999999949992
 30
0.0
 11
51.30000000000004
 21
72.499999999949992
 31
0.0
  0
LINE
  5
A02
  8
0
 10
51.299999999999898
 20
67.499999999950035
 30
0.0
 11
54.999999999999943
 21
67.499999999950035
 31
0.0
  0
LINE
  5
A03
  8
0
 10
51.30000000000004
 20
72.499999999949964
 30
0.0
 11
51.30000000000004
 21
67.499999999950035
 31
0.0
  0
LINE
  5
A04
  8
0
 10
51.30000000000004
 20
72.499999999949992
 30
0.0
 11
50.411877467706091
 21
71.987242216856714
 31
0.0
  0
LINE
  5
A05
  8
0
 10
51.300000000000011
 20
67.499999999949964
 30
0.0
 11
50.411877467706091
 21
68.012757783043213
 31
0.0
  0
LINE
  5
A06
  8
0
 10
50.411877467706091
 20
71.987242216856714
 30
0.0
 11
50.41187746770612
 21
68.012757783043199
 31
0.0
  0
CIRCLE
  5
A07
  8
0
 10
20.0
 20
30.0
 30
0.0
 40
1.9872422169067501
  0
CIRCLE
  5
A08
  8
0
 10
20.0
 20
30.0
 30
0.0
 40
6.4999999999800053
  0
LINE
  5
A97
  8
3
 10
61.49999999999995
 20
33.323500000000081
 30
0.0
 11
55.114098435462893
 21
33.323500000000067
 31
0.0
  0
LINE
  5
A98
  8
3
 10
61.49999999999995
 20
26.676499999999859
 30
0.0
 11
55.114098435462978
 21
26.676499999999852
 31
0.0
  0
LINE
  5
A99
  8
3
 10
61.49999999999995
 20
73.323500000000067
 30
0.0
 11
55.114098435462893
 21
73.323500000000067
 31
0.0
  0
LINE
  5
A9A
  8
3
 10
61.49999999999995
 20
66.676499999999834
 30
0.0
 11
55.114098435351757
 21
66.676499999999876
 31
0.0
  0
LINE
  5
C83
  8
0
 10
20.0
 20
37.505553499400008
 30
0.0
 11
13.500000000056399
 21
33.752776749699997
 31
0.0
  0
LINE
  5
C84
  8
0
 10
13.500000000056399
 20
33.752776749699997
 30
0.0
 11
13.500000000056399
 21
26.247223250299999
 31
0.0
  0
LINE
  5
C85
  8
0
 10
13.500000000056399
 20
26.247223250299999
 30
0.0
 11
19.999999999999989
 21
22.494446500599992
 31
0.0
  0
LINE
  5
C86
  8
0
 10
19.999999999999989
 20
22.494446500599992
 30
0.0
 11
26.499999999943601
 21
26.247223250299982
 31
0.0
  0
LINE
  5
C87
  8
0
 10
26.499999999943601
 20
26.247223250299982
 30
0.0
 11
26.499999999943601
 21
33.75277674969999
 31
0.0
  0
LINE
  5
C88
  8
0
 10
26.499999999943601
 20
33.75277674969999
 30
0.0
 11
20.0
 21
37.505553499400008
 31
0.0
  0
LINE
  5
C89
  8
2
 10
19.999999999699991
 20
34.618802138899952
 30
0.0
 11
16.00000000579702
 21
32.30940106531515
 31
0.0
  0
LINE
  5
C8A
  8
2
 10
16.00000000579702
 20
32.30940106531515
 30
0.0
 11
16.000000006097011
 21
27.69059891866516
 31
0.0
  0
LINE
  5
C8B
  8
2
 10
16.000000006097011
 20
27.69059891866516
 30
0.0
 11
20.000000000299998
 21
25.381197845599988
 31
0.0
  0
LINE
  5
C8C
  8
2
 10
20.000000000299998
 20
25.381197845599988
 30
0.0
 11
23.99999999420298
 21
27.690598919184779
 31
0.0
  0
LINE
  5
C8D
  8
2
 10
23.99999999420298
 20
27.690598919184779
 30
0.0
 11
23.999999993902989
 21
32.30940106583477
 31
0.0
  0
LINE
  5
C8E
  8
2
 10
23.999999993902989
 20
32.30940106583477
 30
0.0
 11
19.999999999699991
 21
34.618802138899952
 31
0.0
  0
ENDSEC
  0
EOF
