  0
SECTION
  2
HEADER
  9
$ACADVER
  1
AC1009
  9
$INSBASE
 10
0.0
 20
0.0
 30
0.0
  9
$EXTMIN
 10
0.0
 20
-1.4802182810368341
 30
0.0
  9
$EXTMAX
 10
151.0000000158235
 20
86.00000000791178
 30
0.0
  9
$LIMMIN
 10
0.0
 20
0.0
  9
$LIMMAX
 10
187.5
 20
135.0
  9
$ORTHOMODE
 70
     1
  9
$REGENMODE
 70
     1
  9
$FILLMODE
 70
     1
  9
$QTEXTMODE
 70
     0
  9
$MIRRTEXT
 70
     0
  9
$DRAGMODE
 70
     2
  9
$LTSCALE
 40
5.0
  9
$OSMODE
 70
    37
  9
$ATTMODE
 70
     1
  9
$TEXTSIZE
 40
4.0
  9
$TRACEWID
 40
0.05
  9
$TEXTSTYLE
  7
STANDARD
  9
$CLAYER
  8
0
  9
$CELTYPE
  6
BYLAYER
  9
$CECOLOR
 62
   256
  9
$DIMSCALE
 40
0.5
  9
$DIMASZ
 40
3.0
  9
$DIMEXO
 40
2.0
  9
$DIMDLI
 40
0.38
  9
$DIMRND
 40
0.0
  9
$DIMDLE
 40
0.0
  9
$DIMEXE
 40
2.0
  9
$DIMTP
 40
0.0
  9
$DIMTM
 40
0.0
  9
$DIMTXT
 40
3.0
  9
$DIMCEN
 40
0.0
  9
$DIMTSZ
 40
0.0
  9
$DIMTOL
 70
     0
  9
$DIMLIM
 70
     0
  9
$DIMTIH
 70
     0
  9
$DIMTOH
 70
     0
  9
$DIMSE1
 70
     0
  9
$DIMSE2
 70
     0
  9
$DIMTAD
 70
     1
  9
$DIMZIN
 70
     0
  9
$DIMBLK
  1

  9
$DIMASO
 70
     0
  9
$DIMSHO
 70
     0
  9
$DIMPOST
  1

  9
$DIMAPOST
  1

  9
$DIMALT
 70
     0
  9
$DIMALTD
 70
     2
  9
$DIMALTF
 40
25.399999999999999
  9
$DIMLFAC
 40
1.0
  9
$DIMTOFL
 70
     0
  9
$DIMTVP
 40
1.6000000000000001
  9
$DIMTIX
 70
     1
  9
$DIMSOXD
 70
     0
  9
$DIMSAH
 70
     0
  9
$DIMBLK1
  1

  9
$DIMBLK2
  1

  9
$DIMSTYLE
  2
STANDARD
  9
$DIMCLRD
 70
     0
  9
$DIMCLRE
 70
     0
  9
$DIMCLRT
 70
     0
  9
$DIMTFAC
 40
1.0
  9
$DIMGAP
 40
0.09
  9
$LUNITS
 70
     2
  9
$LUPREC
 70
     4
  9
$SKETCHINC
 40
0.1
  9
$FILLETRAD
 40
1.0
  9
$AUNITS
 70
     0
  9
$AUPREC
 70
     0
  9
$MENU
  1
E:\r13\win\SUPPORT\ACAD
  9
$ELEVATION
 40
0.0
  9
$PELEVATION
 40
0.0
  9
$THICKNESS
 40
0.0
  9
$LIMCHECK
 70
     0
  9
$BLIPMODE
 70
     0
  9
$CHAMFERA
 40
0.0
  9
$CHAMFERB
 40
0.0
  9
$SKPOLY
 70
     0
  9
$TDCREATE
 40
2449840.6143865739
  9
$TDUPDATE
 40
2458249.5923558101
  9
$TDINDWG
 40
0.2472818287
  9
$TDUSRTIMER
 40
0.2472818287
  9
$USRTIMER
 70
     1
  9
$ANGBASE
 50
0.0
  9
$ANGDIR
 70
     0
  9
$PDMODE
 70
     0
  9
$PDSIZE
 40
0.0
  9
$PLINEWID
 40
0.0
  9
$COORDS
 70
     1
  9
$SPLFRAME
 70
     0
  9
$SPLINETYPE
 70
     6
  9
$SPLINESEGS
 70
     8
  9
$ATTDIA
 70
     0
  9
$ATTREQ
 70
     1
  9
$HANDLING
 70
     1
  9
$HANDSEED
  5
1BA8
  9
$SURFTAB1
 70
     6
  9
$SURFTAB2
 70
     6
  9
$SURFTYPE
 70
     6
  9
$SURFU
 70
     6
  9
$SURFV
 70
     6
  9
$UCSNAME
  2

  9
$UCSORG
 10
0.0
 20
0.0
 30
0.0
  9
$UCSXDIR
 10
1.0
 20
0.0
 30
0.0
  9
$UCSYDIR
 10
0.0
 20
1.0
 30
0.0
  9
$PUCSNAME
  2

  9
$PUCSORG
 10
0.0
 20
0.0
 30
0.0
  9
$PUCSXDIR
 10
1.0
 20
0.0
 30
0.0
  9
$PUCSYDIR
 10
0.0
 20
1.0
 30
0.0
  9
$USERI1
 70
     0
  9
$USERI2
 70
     1
  9
$USERI3
 70
     1
  9
$USERI4
 70
     0
  9
$USERI5
 70
     0
  9
$USERR1
 40
0.0
  9
$USERR2
 40
0.0
  9
$USERR3
 40
0.0
  9
$USERR4
 40
0.0
  9
$USERR5
 40
0.0
  9
$WORLDVIEW
 70
     1
  9
$SHADEDGE
 70
     3
  9
$SHADEDIF
 70
    70
  9
$TILEMODE
 70
     1
  9
$MAXACTVP
 70
    16
  9
$PLIMCHECK
 70
     0
  9
$PEXTMIN
 10
1.0000000000000000E+020
 20
1.0000000000000000E+020
 30
1.0000000000000000E+020
  9
$PEXTMAX
 10
-1.0000000000000000E+020
 20
-1.0000000000000000E+020
 30
-1.0000000000000000E+020
  9
$PLIMMIN
 10
0.0
 20
0.0
  9
$PLIMMAX
 10
12.0
 20
9.0
  9
$UNITMODE
 70
     0
  9
$VISRETAIN
 70
     0
  9
$PLINEGEN
 70
     0
  9
$PSLTSCALE
 70
     0
  0
ENDSEC
  0
SECTION
  2
TABLES
  0
TABLE
  2
VPORT
 70
     1
  0
VPORT
  2
*ACTIVE
 70
     0
 10
0.0
 20
0.0
 11
1.0
 21
1.0
 12
80.403209345170509
 22
42.258376690141759
 13
0.0
 23
0.0
 14
5.0
 24
5.0
 15
5.0
 25
5.0
 16
0.0
 26
0.0
 36
1.0
 17
0.0
 27
0.0
 37
0.0
 40
88.750997063311743
 41
2.0984455958549222
 42
50.0
 43
0.0
 44
0.0
 50
0.0
 51
0.0
 71
     0
 72
   100
 73
     1
 74
     0
 75
     0
 76
     0
 77
     0
 78
     0
  0
ENDTAB
  0
TABLE
  2
LTYPE
 70
     4
  0
LTYPE
  2
CONTINUOUS
 70
     0
  3
Solid Line
 72
    65
 73
     0
 40
0.0
  0
LTYPE
  2
CENTER
 70
     0
  3
____ _ ____ _ ____ _ ____ _ ____ _ ____ _ ____
 72
    65
 73
     4
 40
2.0
 49
1.25
 49
-0.25
 49
0.25
 49
-0.25
  0
LTYPE
  2
HIDDEN
 70
     0
  3
_ _ _ _ _ _ _ _ _ _ _ _ _ _ _ _ _ _ _ _ _ _ _
 72
    65
 73
     2
 40
0.375
 49
0.25
 49
-0.125
  0
LTYPE
  2
PHANTOM2
 70
     0
  3
___ _ _ ___ _ _ ___ _ _ ___ _ _
 72
    65
 73
     6
 40
1.25
 49
0.625
 49
-0.125
 49
0.125
 49
-0.125
 49
0.125
 49
-0.125
  0
ENDTAB
  0
TABLE
  2
LAYER
 70
     4
  0
LAYER
  2
0
 70
     0
 62
     7
  6
CONTINUOUS
  0
LAYER
  2
1
 70
     0
 62
     1
  6
CENTER
  0
LAYER
  2
3
 70
     0
 62
     3
  6
CONTINUOUS
  0
LAYER
  2
2
 70
     0
 62
     2
  6
HIDDEN
  0
ENDTAB
  0
TABLE
  2
STYLE
 70
     2
  0
STYLE
  2
STANDARD
 70
     0
 40
0.0
 41
1.0
 50
0.0
 71
     0
 42
4.0
  3
TXT
  4
BIGFONT
  0
STYLE
  2
STANDARD1
 70
     0
 40
0.0
 41
1.0
 50
0.0
 71
     0
 42
3.0
  3
txt
  4

  0
ENDTAB
  0
TABLE
  2
VIEW
 70
     1
  0
VIEW
  2
ALL
 70
     0
 40
179.66152299999999
 10
141.903918
 20
89.830760999999995
 41
0.0
 11
0.0
 21
0.0
 31
1.0
 12
0.0
 22
0.0
 32
0.0
 42
0.0
 43
0.0
 44
0.0
 50
0.0
 71
     0
  0
ENDTAB
  0
TABLE
  2
UCS
 70
     0
  0
ENDTAB
  0
TABLE
  2
APPID
 70
     5
  0
APPID
  2
ACAD
 70
     0
  0
APPID
  2
DCO15
 70
     0
  0
APPID
  2
ACAD_MLEADERVER
 70
     0
  0
APPID
  2
ACAD_EXEMPT_FROM_CAD_STANDARDS
 70
     0
  0
APPID
  2
ACAD_NAV_VCDISPLAY
 70
     0
  0
ENDTAB
  0
TABLE
  2
DIMSTYLE
 70
     1
  0
DIMSTYLE
  2
STANDARD
 70
     0
  3

  4

  5

  6

  7

 40
1.0
 41
0.18
 42
0.0625
 43
0.38
 44
0.18
 45
0.0
 46
0.0
 47
0.0
 48
0.0
140
0.18
141
0.09
142
0.0
143
25.399999999999999
144
1.0
145
0.0
146
1.0
147
0.09
 71
     0
 72
     0
 73
     1
 74
     1
 75
     0
 76
     0
 77
     0
 78
     0
170
     0
171
     2
172
     0
173
     0
174
     0
175
     0
176
     0
177
     0
178
     0
  0
ENDTAB
  0
ENDSEC
  0
SECTION
  2
BLOCKS
  0
BLOCK
  8
0
  2
$MODEL_SPACE
 70
     0
 10
0.0
 20
0.0
 30
0.0
  3
$MODEL_SPACE
  1

  0
ENDBLK
  5
1BD
  8
0
  0
BLOCK
 67
     1
  8
0
  2
$PAPER_SPACE
 70
     0
 10
0.0
 20
0.0
 30
0.0
  3
$PAPER_SPACE
  1

  0
ENDBLK
  5
1BB
 67
     1
  8
0
  0
BLOCK
  8
0
  2
MN-M10-L
 70
     0
 10
0.0
 20
0.0
 30
0.0
  3
MN-M10-L
  1

  0
LINE
  5
18EE
  8
0
 10
5.0
 20
0.0
 30
0.0
 11
5.0
 21
10.0
 31
0.0
  0
LINE
  5
18EF
  8
3
 10
4.1880000000000868
 20
0.0
 30
0.0
 11
4.1880000000000868
 21
10.0
 31
0.0
  0
LINE
  5
18F0
  8
3
 10
-4.1880000000000868
 20
0.0
 30
0.0
 11
-4.1880000000000868
 21
10.0
 31
0.0
  0
LINE
  5
18F1
  8
0
 10
-5.0
 20
0.0
 30
0.0
 11
-5.0
 21
10.0
 31
0.0
  0
ENDBLK
  5
18F3
  8
0
  0
ENDSEC
  0
SECTION
  2
ENTITIES
  0
LINE
  5
13B3
  8
1
 10
102.75000000791169
 20
70.5
 30
0.0
 11
58.250000007911737
 21
70.5
 31
0.0
  0
LINE
  5
13B6
  8
0
 10
82.669443424310984
 20
78.005553499465123
 30
0.0
 11
76.250000007911737
 21
78.005553499465179
 31
0.0
  0
POLYLINE
  5
13B7
  8
0
 66
     1
 10
0.0
 20
0.0
 30
0.0
  0
VERTEX
  5
1A80
  8
0
 10
83.250000007911737
 20
76.129165124598842
 30
0.0
  0
VERTEX
  5
1A81
  8
0
 10
83.249539975954576
 20
76.180054755875574
 30
0.0
  0
VERTEX
  5
1A82
  8
0
 10
83.245882123694614
 20
76.281457501131285
 30
0.0
  0
VERTEX
  5
1A83
  8
0
 10
83.238617678770879
 20
76.382483458516731
 30
0.0
  0
VERTEX
  5
1A84
  8
0
 10
83.233646784975363
 20
76.432901133582902
 30
0.0
  0
VERTEX
  5
1A85
  8
0
 10
83.227789448760703
 20
76.483279352884324
 30
0.0
  0
VERTEX
  5
1A86
  8
0
 10
83.213429524108065
 20
76.583988543335693
 30
0.0
  0
VERTEX
  5
1A87
  8
0
 10
83.195559662081536
 20
76.68475176011043
 30
0.0
  0
VERTEX
  5
1A88
  8
0
 10
83.174191589708258
 20
76.785707804936521
 30
0.0
  0
VERTEX
  5
1A89
  8
0
 10
83.149327230828916
 20
76.886994222605324
 30
0.0
  0
VERTEX
  5
1A8A
  8
0
 10
83.120958861290745
 20
76.988747950938489
 30
0.0
  0
VERTEX
  5
1A8B
  8
0
 10
83.105455643224275
 20
77.039842840192136
 30
0.0
  0
VERTEX
  5
1A8C
  8
0
 10
83.089069195272103
 20
77.0911059558494
 30
0.0
  0
VERTEX
  5
1A8D
  8
0
 10
83.053631404782706
 20
77.194205857867416
 30
0.0
  0
VERTEX
  5
1A8E
  8
0
 10
83.014609073491314
 20
77.298186556263659
 30
0.0
  0
VERTEX
  5
1A8F
  8
0
 10
82.971956085174384
 20
77.403188856798579
 30
0.0
  0
VERTEX
  5
1A90
  8
0
 10
82.925616446239232
 20
77.509356109090675
 30
0.0
  0
VERTEX
  5
1A91
  8
0
 10
82.875524040934096
 20
77.616834859685866
 30
0.0
  0
VERTEX
  5
1A92
  8
0
 10
82.849047046057635
 20
77.671112882367709
 30
0.0
  0
VERTEX
  5
1A93
  8
0
 10
82.821602316999815
 20
77.725775527084068
 30
0.0
  0
VERTEX
  5
1A94
  8
0
 10
82.763763898622955
 20
77.836333105264814
 30
0.0
  0
VERTEX
  5
1A95
  8
0
 10
82.701910122604062
 20
77.948667902640636
 30
0.0
  0
VERTEX
  5
1A96
  8
0
 10
82.66944342431097
 20
78.005553499465123
 30
0.0
  0
SEQEND
  5
1A97
  8
0
  0
POLYLINE
  5
13B8
  8
0
 66
     1
 10
0.0
 20
0.0
 30
0.0
  0
VERTEX
  5
1A98
  8
0
 10
82.66944342431097
 20
74.252776749732561
 30
0.0
  0
VERTEX
  5
1A99
  8
0
 10
82.701910122604062
 20
74.309662346557047
 30
0.0
  0
VERTEX
  5
1A9A
  8
0
 10
82.763763898622955
 20
74.421997143932856
 30
0.0
  0
VERTEX
  5
1A9B
  8
0
 10
82.821602316999815
 20
74.532554722113616
 30
0.0
  0
VERTEX
  5
1A9C
  8
0
 10
82.849047046057635
 20
74.587217366829975
 30
0.0
  0
VERTEX
  5
1A9D
  8
0
 10
82.875524040934096
 20
74.641495389511874
 30
0.0
  0
VERTEX
  5
1A9E
  8
0
 10
82.925616446239232
 20
74.748974140107009
 30
0.0
  0
VERTEX
  5
1A9F
  8
0
 10
82.971956085174384
 20
74.855141392399162
 30
0.0
  0
VERTEX
  5
1AA0
  8
0
 10
83.014609073491314
 20
74.960143692934025
 30
0.0
  0
VERTEX
  5
1AA1
  8
0
 10
83.053631404782706
 20
75.064124391330253
 30
0.0
  0
VERTEX
  5
1AA2
  8
0
 10
83.089069195272103
 20
75.167224293348283
 30
0.0
  0
VERTEX
  5
1AA3
  8
0
 10
83.105455643224275
 20
75.218487409005604
 30
0.0
  0
VERTEX
  5
1AA4
  8
0
 10
83.120958861290745
 20
75.269582298259195
 30
0.0
  0
VERTEX
  5
1AA5
  8
0
 10
83.149327230828916
 20
75.37133602659236
 30
0.0
  0
VERTEX
  5
1AA6
  8
0
 10
83.174191589708258
 20
75.472622444261205
 30
0.0
  0
VERTEX
  5
1AA7
  8
0
 10
83.195559662081536
 20
75.573578489087254
 30
0.0
  0
VERTEX
  5
1AA8
  8
0
 10
83.213429524108065
 20
75.674341705861991
 30
0.0
  0
VERTEX
  5
1AA9
  8
0
 10
83.227789448760703
 20
75.77505089631336
 30
0.0
  0
VERTEX
  5
1AAA
  8
0
 10
83.233646784975363
 20
75.825429115614838
 30
0.0
  0
VERTEX
  5
1AAB
  8
0
 10
83.238617678770879
 20
75.875846790680953
 30
0.0
  0
VERTEX
  5
1AAC
  8
0
 10
83.245882123694614
 20
75.976872748066398
 30
0.0
  0
VERTEX
  5
1AAD
  8
0
 10
83.249539975954576
 20
76.078275493322167
 30
0.0
  0
VERTEX
  5
1AAE
  8
0
 10
83.250000007911737
 20
76.129165124598842
 30
0.0
  0
SEQEND
  5
1AAF
  8
0
  0
POLYLINE
  5
13B9
  8
0
 66
     1
 10
0.0
 20
0.0
 30
0.0
  0
VERTEX
  5
1AB0
  8
0
 10
83.250000007911737
 20
64.870834875401144
 30
0.0
  0
VERTEX
  5
1AB1
  8
0
 10
83.249539975954576
 20
64.921724506677833
 30
0.0
  0
VERTEX
  5
1AB2
  8
0
 10
83.245882123694614
 20
65.023127251933602
 30
0.0
  0
VERTEX
  5
1AB3
  8
0
 10
83.238617678770879
 20
65.124153209319033
 30
0.0
  0
VERTEX
  5
1AB4
  8
0
 10
83.233646784975363
 20
65.174570884385162
 30
0.0
  0
VERTEX
  5
1AB5
  8
0
 10
83.227789448760703
 20
65.22494910368664
 30
0.0
  0
VERTEX
  5
1AB6
  8
0
 10
83.213429524108065
 20
65.325658294138009
 30
0.0
  0
VERTEX
  5
1AB7
  8
0
 10
83.195559662081536
 20
65.426421510912746
 30
0.0
  0
VERTEX
  5
1AB8
  8
0
 10
83.174191589708258
 20
65.527377555738781
 30
0.0
  0
VERTEX
  5
1AB9
  8
0
 10
83.149327230828902
 20
65.62866397340764
 30
0.0
  0
VERTEX
  5
1ABA
  8
0
 10
83.120958861290745
 20
65.730417701740805
 30
0.0
  0
VERTEX
  5
1ABB
  8
0
 10
83.105455643224275
 20
65.781512590994396
 30
0.0
  0
VERTEX
  5
1ABC
  8
0
 10
83.089069195272103
 20
65.832775706651717
 30
0.0
  0
VERTEX
  5
1ABD
  8
0
 10
83.053631404782706
 20
65.935875608669733
 30
0.0
  0
VERTEX
  5
1ABE
  8
0
 10
83.014609073491314
 20
66.039856307065975
 30
0.0
  0
VERTEX
  5
1ABF
  8
0
 10
82.971956085174384
 20
66.144858607600824
 30
0.0
  0
VERTEX
  5
1AC0
  8
0
 10
82.925616446239232
 20
66.251025859892991
 30
0.0
  0
VERTEX
  5
1AC1
  8
0
 10
82.875524040934096
 20
66.358504610488126
 30
0.0
  0
VERTEX
  5
1AC2
  8
0
 10
82.849047046057635
 20
66.412782633170025
 30
0.0
  0
VERTEX
  5
1AC3
  8
0
 10
82.821602316999815
 20
66.467445277886384
 30
0.0
  0
VERTEX
  5
1AC4
  8
0
 10
82.763763898622955
 20
66.578002856067144
 30
0.0
  0
VERTEX
  5
1AC5
  8
0
 10
82.701910122604062
 20
66.690337653442953
 30
0.0
  0
VERTEX
  5
1AC6
  8
0
 10
82.66944342431097
 20
66.747223250267439
 30
0.0
  0
SEQEND
  5
1AC7
  8
0
  0
POLYLINE
  5
13BA
  8
0
 66
     1
 10
0.0
 20
0.0
 30
0.0
  0
VERTEX
  5
1AC8
  8
0
 10
82.66944342431097
 20
62.99444650053487
 30
0.0
  0
VERTEX
  5
1AC9
  8
0
 10
82.701910122604062
 20
63.051332097359357
 30
0.0
  0
VERTEX
  5
1ACA
  8
0
 10
82.763763898622955
 20
63.163666894735172
 30
0.0
  0
VERTEX
  5
1ACB
  8
0
 10
82.821602316999815
 20
63.274224472915932
 30
0.0
  0
VERTEX
  5
1ACC
  8
0
 10
82.849047046057635
 20
63.328887117632291
 30
0.0
  0
VERTEX
  5
1ACD
  8
0
 10
82.875524040934096
 20
63.383165140314127
 30
0.0
  0
VERTEX
  5
1ACE
  8
0
 10
82.925616446239232
 20
63.490643890909332
 30
0.0
  0
VERTEX
  5
1ACF
  8
0
 10
82.971956085174384
 20
63.596811143201421
 30
0.0
  0
VERTEX
  5
1AD0
  8
0
 10
83.014609073491314
 20
63.701813443736341
 30
0.0
  0
VERTEX
  5
1AD1
  8
0
 10
83.053631404782706
 20
63.805794142132576
 30
0.0
  0
VERTEX
  5
1AD2
  8
0
 10
83.089069195272103
 20
63.9088940441506
 30
0.0
  0
VERTEX
  5
1AD3
  8
0
 10
83.105455643224275
 20
63.960157159807864
 30
0.0
  0
VERTEX
  5
1AD4
  8
0
 10
83.120958861290745
 20
64.011252049061511
 30
0.0
  0
VERTEX
  5
1AD5
  8
0
 10
83.149327230828916
 20
64.113005777394676
 30
0.0
  0
VERTEX
  5
1AD6
  8
0
 10
83.174191589708258
 20
64.214292195063479
 30
0.0
  0
VERTEX
  5
1AD7
  8
0
 10
83.195559662081536
 20
64.31524823988957
 30
0.0
  0
VERTEX
  5
1AD8
  8
0
 10
83.213429524108065
 20
64.416011456664307
 30
0.0
  0
VERTEX
  5
1AD9
  8
0
 10
83.227789448760703
 20
64.516720647115619
 30
0.0
  0
VERTEX
  5
1ADA
  8
0
 10
83.233646784975363
 20
64.567098866417098
 30
0.0
  0
VERTEX
  5
1ADB
  8
0
 10
83.238617678770879
 20
64.617516541483269
 30
0.0
  0
VERTEX
  5
1ADC
  8
0
 10
83.245882123694614
 20
64.718542498868715
 30
0.0
  0
VERTEX
  5
1ADD
  8
0
 10
83.249539975954576
 20
64.819945244124426
 30
0.0
  0
VERTEX
  5
1ADE
  8
0
 10
83.250000007911737
 20
64.870834875401144
 30
0.0
  0
SEQEND
  5
1ADF
  8
0
  0
LINE
  5
13BB
  8
0
 10
82.669443424310984
 20
62.99444650053487
 30
0.0
 11
76.250000007911737
 21
62.99444650053487
 31
0.0
  0
POLYLINE
  5
13BC
  8
0
 66
     1
 10
0.0
 20
0.0
 30
0.0
  0
VERTEX
  5
1AE0
  8
0
 10
83.250000007911737
 20
70.5
 30
0.0
  0
VERTEX
  5
1AE1
  8
0
 10
83.249539975954576
 20
70.601779262553407
 30
0.0
  0
VERTEX
  5
1AE2
  8
0
 10
83.245882123694614
 20
70.804584753064887
 30
0.0
  0
VERTEX
  5
1AE3
  8
0
 10
83.238617678770879
 20
71.006636667835778
 30
0.0
  0
VERTEX
  5
1AE4
  8
0
 10
83.233646784975363
 20
71.107472017968064
 30
0.0
  0
VERTEX
  5
1AE5
  8
0
 10
83.227789448760703
 20
71.208228456571021
 30
0.0
  0
VERTEX
  5
1AE6
  8
0
 10
83.213429524108065
 20
71.409646837473701
 30
0.0
  0
VERTEX
  5
1AE7
  8
0
 10
83.195559662081536
 20
71.611173271023176
 30
0.0
  0
VERTEX
  5
1AE8
  8
0
 10
83.174191589708258
 20
71.813085360675302
 30
0.0
  0
VERTEX
  5
1AE9
  8
0
 10
83.149327230828916
 20
72.015658196013021
 30
0.0
  0
VERTEX
  5
1AEA
  8
0
 10
83.120958861290745
 20
72.219165652679294
 30
0.0
  0
VERTEX
  5
1AEB
  8
0
 10
83.105455643224275
 20
72.321355431186532
 30
0.0
  0
VERTEX
  5
1AEC
  8
0
 10
83.089069195272103
 20
72.423881662501117
 30
0.0
  0
VERTEX
  5
1AED
  8
0
 10
83.053631404782706
 20
72.630081466537149
 30
0.0
  0
VERTEX
  5
1AEE
  8
0
 10
83.014609073491314
 20
72.838042863329633
 30
0.0
  0
VERTEX
  5
1AEF
  8
0
 10
82.971956085174384
 20
73.048047464399417
 30
0.0
  0
VERTEX
  5
1AF0
  8
0
 10
82.925616446239232
 20
73.260381968983666
 30
0.0
  0
VERTEX
  5
1AF1
  8
0
 10
82.875524040934096
 20
73.475339470173992
 30
0.0
  0
VERTEX
  5
1AF2
  8
0
 10
82.849047046057635
 20
73.583895515537733
 30
0.0
  0
VERTEX
  5
1AF3
  8
0
 10
82.821602316999815
 20
73.693220804970451
 30
0.0
  0
VERTEX
  5
1AF4
  8
0
 10
82.763763898622955
 20
73.914335961332029
 30
0.0
  0
VERTEX
  5
1AF5
  8
0
 10
82.701910122604062
 20
74.139005556083589
 30
0.0
  0
VERTEX
  5
1AF6
  8
0
 10
82.66944342431097
 20
74.252776749732561
 30
0.0
  0
SEQEND
  5
1AF7
  8
0
  0
POLYLINE
  5
13BD
  8
0
 66
     1
 10
0.0
 20
0.0
 30
0.0
  0
VERTEX
  5
1AF8
  8
0
 10
82.66944342431097
 20
66.747223250267439
 30
0.0
  0
VERTEX
  5
1AF9
  8
0
 10
82.701910122604062
 20
66.860994443916411
 30
0.0
  0
VERTEX
  5
1AFA
  8
0
 10
82.763763898622955
 20
67.085664038667971
 30
0.0
  0
VERTEX
  5
1AFB
  8
0
 10
82.821602316999815
 20
67.306779195029549
 30
0.0
  0
VERTEX
  5
1AFC
  8
0
 10
82.849047046057635
 20
67.416104484462267
 30
0.0
  0
VERTEX
  5
1AFD
  8
0
 10
82.875524040934096
 20
67.524660529826008
 30
0.0
  0
VERTEX
  5
1AFE
  8
0
 10
82.925616446239232
 20
67.739618031016334
 30
0.0
  0
VERTEX
  5
1AFF
  8
0
 10
82.971956085174384
 20
67.951952535600583
 30
0.0
  0
VERTEX
  5
1B00
  8
0
 10
83.014609073491314
 20
68.161957136670367
 30
0.0
  0
VERTEX
  5
1B01
  8
0
 10
83.053631404782706
 20
68.369918533462851
 30
0.0
  0
VERTEX
  5
1B02
  8
0
 10
83.089069195272103
 20
68.576118337498883
 30
0.0
  0
VERTEX
  5
1B03
  8
0
 10
83.105455643224275
 20
68.678644568813453
 30
0.0
  0
VERTEX
  5
1B04
  8
0
 10
83.120958861290745
 20
68.780834347320706
 30
0.0
  0
VERTEX
  5
1B05
  8
0
 10
83.149327230828916
 20
68.984341803986979
 30
0.0
  0
VERTEX
  5
1B06
  8
0
 10
83.174191589708258
 20
69.186914639324698
 30
0.0
  0
VERTEX
  5
1B07
  8
0
 10
83.195559662081536
 20
69.388826728976824
 30
0.0
  0
VERTEX
  5
1B08
  8
0
 10
83.213429524108065
 20
69.590353162526355
 30
0.0
  0
VERTEX
  5
1B09
  8
0
 10
83.227789448760703
 20
69.791771543428979
 30
0.0
  0
VERTEX
  5
1B0A
  8
0
 10
83.233646784975363
 20
69.892527982031936
 30
0.0
  0
VERTEX
  5
1B0B
  8
0
 10
83.238617678770879
 20
69.993363332164222
 30
0.0
  0
VERTEX
  5
1B0C
  8
0
 10
83.245882123694614
 20
70.195415246935113
 30
0.0
  0
VERTEX
  5
1B0D
  8
0
 10
83.249539975954576
 20
70.398220737446593
 30
0.0
  0
VERTEX
  5
1B0E
  8
0
 10
83.250000007911737
 20
70.5
 30
0.0
  0
SEQEND
  5
1B0F
  8
0
  0
LINE
  5
13BE
  8
0
 10
76.250000007911737
 20
62.99444650053487
 30
0.0
 11
76.250000007911737
 21
78.005553499465179
 31
0.0
  0
LINE
  5
13BF
  8
0
 10
82.669443424310984
 20
66.747223250267439
 30
0.0
 11
76.250000007911737
 21
66.747223250267439
 31
0.0
  0
LINE
  5
13C0
  8
0
 10
82.669443424310984
 20
74.252776749732561
 30
0.0
 11
76.250000007911737
 21
74.252776749732561
 31
0.0
  0
LINE
  5
13C1
  8
0
 10
83.250000007911737
 20
77.0
 30
0.0
 11
83.250000007911737
 21
64.0
 31
0.0
  0
LINE
  5
13C2
  8
0
 10
68.250000007911737
 20
74.886500000000012
 30
0.0
 11
68.250000007911737
 21
66.113499999999974
 31
0.0
  0
LINE
  5
13C3
  8
0
 10
68.863500007911725
 20
75.5
 30
0.0
 11
68.863500007911725
 21
65.5
 31
0.0
  0
LINE
  5
13C5
  8
0
 10
64.550000007911748
 20
73.0
 30
0.0
 11
64.550000007911748
 21
68.0
 31
0.0
  0
LINE
  5
13C6
  8
0
 10
83.603553398505014
 20
77.0
 30
0.0
 11
83.603553398505014
 21
64.0
 31
0.0
  0
LINE
  5
13C7
  8
0
 10
90.450000007911726
 20
77.0
 30
0.0
 11
90.450000007911726
 21
64.0
 31
0.0
  0
LINE
  5
13C8
  8
0
 10
95.955527689796426
 20
81.0
 30
0.0
 11
95.955527689796426
 21
60.0
 31
0.0
  0
LINE
  5
13C9
  8
0
 10
96.335762557804884
 20
81.0
 30
0.0
 11
96.335762557804884
 21
60.0
 31
0.0
  0
LINE
  5
13CA
  8
0
 10
97.750000007911737
 20
80.0
 30
0.0
 11
97.750000007911737
 21
61.0
 31
0.0
  0
LINE
  5
13CB
  8
0
 10
83.250000007911737
 20
77.0
 30
0.0
 11
82.669443424310984
 21
78.005553499465123
 31
0.0
  0
LINE
  5
13CC
  8
0
 10
82.669443424310984
 20
62.99444650053487
 30
0.0
 11
83.250000007911737
 21
64.0
 31
0.0
  0
LINE
  5
13CD
  8
0
 10
68.863500007911725
 20
75.5
 30
0.0
 11
68.250000007911737
 21
74.886500000000012
 31
0.0
  0
LINE
  5
13CE
  8
0
 10
68.250000007911737
 20
66.113499999999974
 30
0.0
 11
68.863500007911725
 21
65.5
 31
0.0
  0
LINE
  5
13CF
  8
0
 10
73.750000007911737
 20
75.5
 30
0.0
 11
68.863500007911725
 21
75.5
 31
0.0
  0
LINE
  5
13D0
  8
0
 10
68.863500007911725
 20
65.5
 30
0.0
 11
73.750000007911737
 21
65.5
 31
0.0
  0
LINE
  5
13D1
  8
0
 10
64.550000007911748
 20
73.0
 30
0.0
 11
63.661877475617729
 21
72.487242216906679
 31
0.0
  0
LINE
  5
13D2
  8
0
 10
63.661877475617729
 20
68.512757783093335
 30
0.0
 11
64.550000007911748
 21
68.0
 31
0.0
  0
LINE
  5
13D3
  8
0
 10
68.250000007911737
 20
73.0
 30
0.0
 11
64.550000007911748
 21
73.0
 31
0.0
  0
LINE
  5
13D4
  8
0
 10
64.550000007911748
 20
68.0
 30
0.0
 11
68.250000007911737
 21
68.0
 31
0.0
  0
LINE
  5
13D5
  8
0
 10
83.603553398505014
 20
77.0
 30
0.0
 11
83.250000007911723
 21
76.646446609406695
 31
0.0
  0
LINE
  5
13D6
  8
0
 10
83.250000007911723
 20
64.353553390593319
 30
0.0
 11
83.603553398505014
 21
64.0
 31
0.0
  0
LINE
  5
13D7
  8
0
 10
90.450000007911726
 20
77.0
 30
0.0
 11
83.603553398505014
 21
77.0
 31
0.0
  0
LINE
  5
13D8
  8
0
 10
83.603553398505014
 20
64.0
 30
0.0
 11
90.450000007911726
 21
64.0
 31
0.0
  0
LINE
  5
13D9
  8
0
 10
95.955527689796426
 20
81.0
 30
0.0
 11
90.450000007911726
 21
77.0
 31
0.0
  0
LINE
  5
13DA
  8
0
 10
90.450000007911726
 20
64.0
 30
0.0
 11
95.955527689796426
 21
60.0
 31
0.0
  0
LINE
  5
13DB
  8
0
 10
96.335762557804884
 20
81.0
 30
0.0
 11
95.955527689796426
 21
81.0
 31
0.0
  0
LINE
  5
13DC
  8
0
 10
95.955527689796426
 20
60.0
 30
0.0
 11
96.335762557804884
 21
60.0
 31
0.0
  0
ARC
  5
13DD
  8
0
 10
96.335916610953674
 20
61.499815914910023
 30
0.0
 40
1.499815922821756
 50
269.99411488090612
 51
340.53375205062008
  0
ARC
  5
13DE
  8
0
 10
96.335916610953674
 20
79.500184085089984
 30
0.0
 40
1.4998159228217589
 50
19.466247949380779
 51
90.005885119093904
  0
ARC
  5
13DF
  8
2
 10
108.8500000079117
 20
70.5
 30
0.0
 40
14.00000000000005
 50
142.45332336004881
 51
217.5466766399511
  0
CIRCLE
  5
13E0
  8
0
 10
135.50000000791169
 20
70.500000000000057
 30
0.0
 40
9.5000000000000018
  0
CIRCLE
  5
13E1
  8
0
 10
135.50000000791169
 20
70.500000000000057
 30
0.0
 40
8.5317055739166197
  0
CIRCLE
  5
13E2
  8
0
 10
135.50000000791169
 20
70.500000000000057
 30
0.0
 40
10.50000000791176
  0
CIRCLE
  5
13E3
  8
0
 10
25.500000007911719
 20
70.500000000000028
 30
0.0
 40
10.50000000791176
  0
CIRCLE
  5
13E5
  8
0
 10
25.500000007911719
 20
70.500000000000028
 30
0.0
 40
5.0
  0
CIRCLE
  5
13E6
  8
0
 10
25.500000007911719
 20
70.500000000000028
 30
0.0
 40
2.5
  0
CIRCLE
  5
13E7
  8
3
 10
25.500000007911719
 20
70.500000000000028
 30
0.0
 40
4.3865000000000052
  0
LINE
  5
13E8
  8
1
 10
25.500000007911719
 20
86.00000000791178
 30
0.0
 11
25.500000007911719
 21
54.99999999208822
 31
0.0
  0
LINE
  5
13E9
  8
1
 10
10.0
 20
70.500000000000028
 30
0.0
 11
41.000000015823503
 21
70.499999999999972
 31
0.0
  0
LINE
  5
13EA
  8
1
 10
119.9999999999999
 20
70.5
 30
0.0
 11
151.0000000158235
 21
70.5
 31
0.0
  0
LINE
  5
13EB
  8
1
 10
135.50000000791169
 20
86.000000007911737
 30
0.0
 11
135.50000000791169
 21
54.999999992088242
 31
0.0
  0
ARC
  5
13EC
  8
2
 10
108.8500000079117
 20
30.5
 30
0.0
 40
14.00000000000005
 50
142.45332336004881
 51
217.5466766399511
  0
ARC
  5
13ED
  8
0
 10
96.33591661095366
 20
39.500184085089991
 30
0.0
 40
1.4998159228217589
 50
19.466247949380779
 51
90.005885119093904
  0
ARC
  5
13EE
  8
0
 10
96.33591661095366
 20
21.49981591491002
 30
0.0
 40
1.499815922821756
 50
269.99411488090612
 51
340.53375205062008
  0
LINE
  5
13EF
  8
0
 10
95.955527689796426
 20
20.0
 30
0.0
 11
96.335762557804884
 21
20.0
 31
0.0
  0
LINE
  5
13F0
  8
0
 10
96.335762557804884
 20
41.0
 30
0.0
 11
95.955527689796426
 21
41.0
 31
0.0
  0
LINE
  5
13F1
  8
0
 10
90.450000007911711
 20
24.0
 30
0.0
 11
95.955527689796426
 21
20.0
 31
0.0
  0
LINE
  5
13F2
  8
0
 10
95.955527689796426
 20
41.0
 30
0.0
 11
90.450000007911711
 21
37.0
 31
0.0
  0
LINE
  5
13F3
  8
0
 10
83.603553398504985
 20
24.0
 30
0.0
 11
90.450000007911711
 21
24.0
 31
0.0
  0
LINE
  5
13F4
  8
0
 10
90.450000007911711
 20
37.0
 30
0.0
 11
83.603553398504985
 21
37.0
 31
0.0
  0
LINE
  5
13F5
  8
0
 10
83.250000007911694
 20
24.353553390593291
 30
0.0
 11
83.603553398504985
 21
24.0
 31
0.0
  0
LINE
  5
13F6
  8
0
 10
83.603553398504985
 20
37.0
 30
0.0
 11
83.250000007911694
 21
36.646446609406709
 31
0.0
  0
LINE
  5
13FB
  8
0
 10
68.250000007911723
 20
26.113499999999991
 30
0.0
 11
68.863500007911711
 21
25.5
 31
0.0
  0
LINE
  5
13FC
  8
0
 10
68.863500007911711
 20
35.5
 30
0.0
 11
68.250000007911723
 21
34.886500000000019
 31
0.0
  0
LINE
  5
13FD
  8
0
 10
97.750000007911737
 20
40.0
 30
0.0
 11
97.750000007911737
 21
21.0
 31
0.0
  0
LINE
  5
13FE
  8
0
 10
96.335762557804884
 20
41.0
 30
0.0
 11
96.335762557804884
 21
20.0
 31
0.0
  0
LINE
  5
13FF
  8
0
 10
95.955527689796426
 20
41.0
 30
0.0
 11
95.955527689796426
 21
20.0
 31
0.0
  0
LINE
  5
1400
  8
0
 10
90.450000007911711
 20
37.0
 30
0.0
 11
90.450000007911711
 21
24.0
 31
0.0
  0
LINE
  5
1401
  8
0
 10
83.603553398504985
 20
37.0
 30
0.0
 11
83.603553398504985
 21
24.0
 31
0.0
  0
LINE
  5
1404
  8
0
 10
68.863500007911711
 20
35.5
 30
0.0
 11
68.863500007911711
 21
25.5
 31
0.0
  0
LINE
  5
1405
  8
0
 10
68.250000007911723
 20
34.886500000000019
 30
0.0
 11
68.250000007911723
 21
26.113499999999991
 31
0.0
  0
LINE
  5
1406
  8
1
 10
102.75000000791169
 20
30.5
 30
0.0
 11
58.250000007911723
 21
30.5
 31
0.0
  0
LINE
  5
1407
  8
0
 10
83.250000007911723
 20
37.0
 30
0.0
 11
83.250000007911723
 21
24.0
 31
0.0
  0
POLYLINE
  5
1408
  8
0
 66
     1
 10
0.0
 20
0.0
 30
0.0
  0
VERTEX
  5
1B10
  8
0
 10
82.669443424310984
 20
30.5
 30
0.0
  0
VERTEX
  5
1B11
  8
0
 10
82.701910122604033
 20
30.401471256081098
 30
0.0
  0
VERTEX
  5
1B12
  8
0
 10
82.763763898622969
 20
30.206901679568261
 30
0.0
  0
VERTEX
  5
1B13
  8
0
 10
82.821602316999815
 20
30.01541033699738
 30
0.0
  0
VERTEX
  5
1B14
  8
0
 10
82.849047046057635
 20
29.920731859072589
 30
0.0
  0
VERTEX
  5
1B15
  8
0
 10
82.875524040934096
 20
29.82671956605321
 30
0.0
  0
VERTEX
  5
1B16
  8
0
 10
82.925616446239232
 20
29.640560909288411
 30
0.0
  0
VERTEX
  5
1B17
  8
0
 10
82.971956085174384
 20
29.45667383421841
 30
0.0
  0
VERTEX
  5
1B18
  8
0
 10
83.014609073491314
 20
29.274804514780389
 30
0.0
  0
VERTEX
  5
1B19
  8
0
 10
83.053631404782706
 20
29.094704662151571
 30
0.0
  0
VERTEX
  5
1B1A
  8
0
 10
83.089069195272103
 20
28.916130393601009
 30
0.0
  0
VERTEX
  5
1B1B
  8
0
 10
83.105455643224261
 20
28.827340072728301
 30
0.0
  0
VERTEX
  5
1B1C
  8
0
 10
83.120958861290774
 20
28.73884112853392
 30
0.0
  0
VERTEX
  5
1B1D
  8
0
 10
83.149327230828916
 20
28.562598501201371
 30
0.0
  0
VERTEX
  5
1B1E
  8
0
 10
83.174191589708258
 20
28.387165279682218
 30
0.0
  0
VERTEX
  5
1B1F
  8
0
 10
83.195559662081521
 20
28.212304280712321
 30
0.0
  0
VERTEX
  5
1B20
  8
0
 10
83.213429524108093
 20
28.037777269724359
 30
0.0
  0
VERTEX
  5
1B21
  8
0
 10
83.227789448760703
 20
27.863343835073518
 30
0.0
  0
VERTEX
  5
1B22
  8
0
 10
83.233646784975363
 20
27.776086199648489
 30
0.0
  0
VERTEX
  5
1B23
  8
0
 10
83.238617678770865
 20
27.688760224834478
 30
0.0
  0
VERTEX
  5
1B24
  8
0
 10
83.245882123694614
 20
27.513778133759619
 30
0.0
  0
VERTEX
  5
1B25
  8
0
 10
83.24953997595459
 20
27.338143426949671
 30
0.0
  0
VERTEX
  5
1B26
  8
0
 10
83.250000007911737
 20
27.25
 30
0.0
  0
SEQEND
  5
1B27
  8
0
  0
POLYLINE
  5
1409
  8
0
 66
     1
 10
0.0
 20
0.0
 30
0.0
  0
VERTEX
  5
1B28
  8
0
 10
83.250000007911737
 20
27.25
 30
0.0
  0
VERTEX
  5
1B29
  8
0
 10
83.24953997595459
 20
27.161856573050329
 30
0.0
  0
VERTEX
  5
1B2A
  8
0
 10
83.245882123694614
 20
26.986221866240388
 30
0.0
  0
VERTEX
  5
1B2B
  8
0
 10
83.238617678770865
 20
26.811239775165522
 30
0.0
  0
VERTEX
  5
1B2C
  8
0
 10
83.233646784975363
 20
26.723913800351461
 30
0.0
  0
VERTEX
  5
1B2D
  8
0
 10
83.227789448760703
 20
26.636656164926482
 30
0.0
  0
VERTEX
  5
1B2E
  8
0
 10
83.213429524108093
 20
26.462222730275592
 30
0.0
  0
VERTEX
  5
1B2F
  8
0
 10
83.195559662081521
 20
26.287695719287679
 30
0.0
  0
VERTEX
  5
1B30
  8
0
 10
83.174191589708258
 20
26.112834720317721
 30
0.0
  0
VERTEX
  5
1B31
  8
0
 10
83.149327230828916
 20
25.937401498798639
 30
0.0
  0
VERTEX
  5
1B32
  8
0
 10
83.120958861290774
 20
25.76115887146608
 30
0.0
  0
VERTEX
  5
1B33
  8
0
 10
83.105455643224261
 20
25.672659927271699
 30
0.0
  0
VERTEX
  5
1B34
  8
0
 10
83.089069195272103
 20
25.583869606398991
 30
0.0
  0
VERTEX
  5
1B35
  8
0
 10
83.053631404782706
 20
25.405295337848429
 30
0.0
  0
VERTEX
  5
1B36
  8
0
 10
83.014609073491314
 20
25.225195485219619
 30
0.0
  0
VERTEX
  5
1B37
  8
0
 10
82.971956085174384
 20
25.04332616578159
 30
0.0
  0
VERTEX
  5
1B38
  8
0
 10
82.925616446239232
 20
24.859439090711589
 30
0.0
  0
VERTEX
  5
1B39
  8
0
 10
82.875524040934096
 20
24.67328043394679
 30
0.0
  0
VERTEX
  5
1B3A
  8
0
 10
82.849047046057635
 20
24.579268140927411
 30
0.0
  0
VERTEX
  5
1B3B
  8
0
 10
82.821602316999815
 20
24.48458966300257
 30
0.0
  0
VERTEX
  5
1B3C
  8
0
 10
82.763763898622969
 20
24.293098320431739
 30
0.0
  0
VERTEX
  5
1B3D
  8
0
 10
82.701910122604033
 20
24.098528743918909
 30
0.0
  0
VERTEX
  5
1B3E
  8
0
 10
82.669443424310984
 20
24.0
 30
0.0
  0
SEQEND
  5
1B3F
  8
0
  0
LINE
  5
140A
  8
0
 10
76.250000007911723
 20
24.0
 30
0.0
 11
76.250000007911723
 21
37.0
 31
0.0
  0
LINE
  5
140B
  8
0
 10
83.250000007911723
 20
24.00000000000006
 30
0.0
 11
76.250000007911723
 21
24.0
 31
0.0
  0
POLYLINE
  5
140C
  8
0
 66
     1
 10
0.0
 20
0.0
 30
0.0
  0
VERTEX
  5
1B40
  8
0
 10
82.669443424310984
 20
30.5
 30
0.0
  0
VERTEX
  5
1B41
  8
0
 10
82.701910122604033
 20
30.598528743918909
 30
0.0
  0
VERTEX
  5
1B42
  8
0
 10
82.763763898622969
 20
30.793098320431739
 30
0.0
  0
VERTEX
  5
1B43
  8
0
 10
82.821602316999815
 20
30.98458966300262
 30
0.0
  0
VERTEX
  5
1B44
  8
0
 10
82.849047046057635
 20
31.079268140927411
 30
0.0
  0
VERTEX
  5
1B45
  8
0
 10
82.875524040934096
 20
31.173280433946839
 30
0.0
  0
VERTEX
  5
1B46
  8
0
 10
82.925616446239232
 20
31.35943909071165
 30
0.0
  0
VERTEX
  5
1B47
  8
0
 10
82.971956085174384
 20
31.54332616578159
 30
0.0
  0
VERTEX
  5
1B48
  8
0
 10
83.014609073491314
 20
31.725195485219611
 30
0.0
  0
VERTEX
  5
1B49
  8
0
 10
83.053631404782706
 20
31.905295337848429
 30
0.0
  0
VERTEX
  5
1B4A
  8
0
 10
83.089069195272103
 20
32.083869606398991
 30
0.0
  0
VERTEX
  5
1B4B
  8
0
 10
83.105455643224261
 20
32.172659927271702
 30
0.0
  0
VERTEX
  5
1B4C
  8
0
 10
83.120958861290774
 20
32.26115887146608
 30
0.0
  0
VERTEX
  5
1B4D
  8
0
 10
83.149327230828916
 20
32.437401498798643
 30
0.0
  0
VERTEX
  5
1B4E
  8
0
 10
83.174191589708258
 20
32.612834720317778
 30
0.0
  0
VERTEX
  5
1B4F
  8
0
 10
83.195559662081521
 20
32.787695719287683
 30
0.0
  0
VERTEX
  5
1B50
  8
0
 10
83.213429524108093
 20
32.962222730275641
 30
0.0
  0
VERTEX
  5
1B51
  8
0
 10
83.227789448760703
 20
33.136656164926478
 30
0.0
  0
VERTEX
  5
1B52
  8
0
 10
83.233646784975363
 20
33.223913800351511
 30
0.0
  0
VERTEX
  5
1B53
  8
0
 10
83.238617678770865
 20
33.311239775165518
 30
0.0
  0
VERTEX
  5
1B54
  8
0
 10
83.245882123694614
 20
33.486221866240392
 30
0.0
  0
VERTEX
  5
1B55
  8
0
 10
83.24953997595459
 20
33.661856573050329
 30
0.0
  0
VERTEX
  5
1B56
  8
0
 10
83.250000007911737
 20
33.75
 30
0.0
  0
SEQEND
  5
1B57
  8
0
  0
POLYLINE
  5
140D
  8
0
 66
     1
 10
0.0
 20
0.0
 30
0.0
  0
VERTEX
  5
1B58
  8
0
 10
83.250000007911737
 20
33.75
 30
0.0
  0
VERTEX
  5
1B59
  8
0
 10
83.24953997595459
 20
33.838143426949671
 30
0.0
  0
VERTEX
  5
1B5A
  8
0
 10
83.245882123694614
 20
34.013778133759622
 30
0.0
  0
VERTEX
  5
1B5B
  8
0
 10
83.238617678770865
 20
34.188760224834482
 30
0.0
  0
VERTEX
  5
1B5C
  8
0
 10
83.233646784975363
 20
34.276086199648553
 30
0.0
  0
VERTEX
  5
1B5D
  8
0
 10
83.227789448760703
 20
34.363343835073522
 30
0.0
  0
VERTEX
  5
1B5E
  8
0
 10
83.213429524108093
 20
34.537777269724359
 30
0.0
  0
VERTEX
  5
1B5F
  8
0
 10
83.195559662081521
 20
34.712304280712317
 30
0.0
  0
VERTEX
  5
1B60
  8
0
 10
83.174191589708258
 20
34.887165279682222
 30
0.0
  0
VERTEX
  5
1B61
  8
0
 10
83.149327230828916
 20
35.062598501201357
 30
0.0
  0
VERTEX
  5
1B62
  8
0
 10
83.120958861290774
 20
35.23884112853392
 30
0.0
  0
VERTEX
  5
1B63
  8
0
 10
83.105455643224261
 20
35.327340072728312
 30
0.0
  0
VERTEX
  5
1B64
  8
0
 10
83.089069195272103
 20
35.416130393601009
 30
0.0
  0
VERTEX
  5
1B65
  8
0
 10
83.053631404782706
 20
35.594704662151571
 30
0.0
  0
VERTEX
  5
1B66
  8
0
 10
83.014609073491314
 20
35.774804514780378
 30
0.0
  0
VERTEX
  5
1B67
  8
0
 10
82.971956085174384
 20
35.956673834218407
 30
0.0
  0
VERTEX
  5
1B68
  8
0
 10
82.925616446239232
 20
36.140560909288411
 30
0.0
  0
VERTEX
  5
1B69
  8
0
 10
82.875524040934096
 20
36.326719566053207
 30
0.0
  0
VERTEX
  5
1B6A
  8
0
 10
82.849047046057635
 20
36.420731859072589
 30
0.0
  0
VERTEX
  5
1B6B
  8
0
 10
82.821602316999815
 20
36.515410336997377
 30
0.0
  0
VERTEX
  5
1B6C
  8
0
 10
82.763763898622969
 20
36.706901679568261
 30
0.0
  0
VERTEX
  5
1B6D
  8
0
 10
82.701910122604033
 20
36.901471256081102
 30
0.0
  0
VERTEX
  5
1B6E
  8
0
 10
82.669443424310984
 20
37.0
 30
0.0
  0
SEQEND
  5
1B6F
  8
0
  0
LINE
  5
140E
  8
0
 10
83.250000007911723
 20
37.0
 30
0.0
 11
76.250000007911723
 21
37.0
 31
0.0
  0
LINE
  5
140F
  8
0
 10
82.66944342431097
 20
30.5
 30
0.0
 11
76.250000007911723
 21
30.5
 31
0.0
  0
LINE
  5
1490
  8
0
 10
75.850000007911746
 20
74.5
 30
0.0
 11
74.558290384777209
 21
74.499999999999943
 31
0.0
  0
LINE
  5
1491
  8
0
 10
73.750000007911737
 20
75.5
 30
0.0
 11
73.750000007911737
 21
65.5
 31
0.0
  0
LINE
  5
1492
  8
0
 10
73.750000007911737
 20
75.5
 30
0.0
 11
74.211880223263435
 21
74.699999999999974
 31
0.0
  0
ARC
  5
1493
  8
0
 10
75.850000007911731
 20
74.900000000000034
 30
0.0
 40
0.4
 50
270.00000000000142
 51
0.0
  0
ARC
  5
1494
  8
0
 10
74.558290384777209
 20
74.899999999999977
 30
0.0
 40
0.4
 50
210.00000000000091
 51
270.0
  0
ARC
  5
1495
  8
0
 10
74.558290384777209
 20
66.10000000000008
 30
0.0
 40
0.4
 50
90.0
 51
149.99999999999901
  0
ARC
  5
1496
  8
0
 10
75.850000007911731
 20
66.100000000000023
 30
0.0
 40
0.4
 50
0.0
 51
89.999999999998565
  0
LINE
  5
1497
  8
0
 10
73.750000007911737
 20
65.500000000000057
 30
0.0
 11
74.211880223263435
 21
66.300000000000054
 31
0.0
  0
LINE
  5
1498
  8
0
 10
75.850000007911746
 20
66.500000000000057
 30
0.0
 11
74.558290384777209
 21
66.500000000000057
 31
0.0
  0
LINE
  5
1499
  8
0
 10
75.850000007911717
 20
26.5
 30
0.0
 11
74.558290384777166
 21
26.50000000000006
 31
0.0
  0
LINE
  5
149A
  8
0
 10
73.750000007911723
 20
25.5
 30
0.0
 11
74.211880223263421
 21
26.300000000000011
 31
0.0
  0
ARC
  5
149B
  8
0
 10
75.850000007911675
 20
26.099999999999969
 30
0.0
 40
0.4
 50
0.0
 51
89.999999999998565
  0
ARC
  5
149C
  8
0
 10
74.558290384777166
 20
26.100000000000019
 30
0.0
 40
0.4
 50
90.0
 51
149.99999999999901
  0
LINE
  5
149D
  8
0
 10
73.750000007911723
 20
35.499999999999943
 30
0.0
 11
73.750000007911723
 21
25.49999999999994
 31
0.0
  0
LINE
  5
149E
  8
0
 10
68.863500007911711
 20
25.49999999999994
 30
0.0
 11
73.750000007911723
 21
25.49999999999994
 31
0.0
  0
ARC
  5
14A0
  8
0
 10
74.558290384777166
 20
34.89999999999992
 30
0.0
 40
0.4
 50
210.00000000000091
 51
270.0
  0
ARC
  5
14A1
  8
0
 10
75.850000007911675
 20
34.899999999999977
 30
0.0
 40
0.4
 50
270.00000000000142
 51
0.0
  0
LINE
  5
14A2
  8
0
 10
73.750000007911723
 20
35.499999999999943
 30
0.0
 11
74.211880223263421
 21
34.699999999999932
 31
0.0
  0
LINE
  5
14A3
  8
0
 10
75.850000007911717
 20
34.499999999999943
 30
0.0
 11
74.558290384777166
 21
34.499999999999943
 31
0.0
  0
LINE
  5
14A4
  8
0
 10
73.750000007911723
 20
35.499999999999943
 30
0.0
 11
68.863500007911711
 21
35.499999999999943
 31
0.0
  0
LINE
  5
15D8
  8
0
 10
32.000000002622528
 20
74.252776746679871
 30
0.0
 11
32.000000002622528
 21
66.74722324721543
 31
0.0
  0
LINE
  5
15D9
  8
0
 10
32.000000002615252
 20
66.747223253320868
 30
0.0
 11
25.500000002622532
 21
62.994446503586829
 31
0.0
  0
LINE
  5
15DA
  8
0
 10
25.500000007912149
 20
62.994446506646369
 30
0.0
 11
19.000000007912149
 21
66.74722325637768
 31
0.0
  0
LINE
  5
15DB
  8
0
 10
19.000000013209039
 20
66.747223253324506
 30
0.0
 11
19.000000013209039
 21
74.252776752788947
 31
0.0
  0
LINE
  5
15DC
  8
0
 10
19.000000013209039
 20
74.252776746678961
 30
0.0
 11
25.50000001320905
 21
78.005553496413
 31
0.0
  0
LINE
  5
15DD
  8
0
 10
25.500000007912149
 20
78.00555349335346
 30
0.0
 11
32.000000007912149
 21
74.25277674362215
 31
0.0
  0
ARC
  5
17E5
  8
0
 10
68.250000007911737
 20
70.5
 30
0.0
 40
5.0
 50
156.5812350446366
 51
203.4187649553634
  0
LINE
  5
17E7
  8
0
 10
63.661877475617743
 20
72.487242216906679
 30
0.0
 11
63.661877475617743
 21
68.512757783093321
 31
0.0
  0
CIRCLE
  5
17E9
  8
0
 10
25.500000007911719
 20
70.5
 30
0.0
 40
1.987242216906665
  0
LINE
  5
17EA
  8
0
 10
63.661877475617729
 20
32.487242216906672
 30
0.0
 11
63.661877475617729
 21
28.51275778309331
 31
0.0
  0
ARC
  5
17EB
  8
0
 10
68.250000007911723
 20
30.499999999999989
 30
0.0
 40
5.0
 50
156.5812350446366
 51
203.4187649553634
  0
LINE
  5
17EC
  8
0
 10
64.550000007911734
 20
27.999999999999989
 30
0.0
 11
68.250000007911723
 21
27.999999999999989
 31
0.0
  0
LINE
  5
17ED
  8
0
 10
63.661877475617707
 20
28.512757783093321
 30
0.0
 11
64.550000007911734
 21
27.999999999999989
 31
0.0
  0
LINE
  5
17EE
  8
0
 10
64.550000007911734
 20
32.999999999999993
 30
0.0
 11
64.550000007911734
 21
27.999999999999989
 31
0.0
  0
LINE
  5
17EF
  8
0
 10
68.250000007911723
 20
32.999999999999993
 30
0.0
 11
64.550000007911734
 21
32.999999999999993
 31
0.0
  0
LINE
  5
17F0
  8
0
 10
64.550000007911734
 20
32.999999999999993
 30
0.0
 11
63.661877475617707
 21
32.487242216906672
 31
0.0
  0
TEXT
  5
18A1
  8
0
 62
     3
 10
0.0
 20
0.0
 30
0.0
 40
5.0
  1
NDXCS10A
  7
STANDARD1
  0
LINE
  5
18F6
  8
3
 10
74.219091328174684
 20
74.688000000000073
 30
0.0
 11
68.250000007911737
 21
74.688000000000073
 31
0.0
  0
LINE
  5
18F7
  8
3
 10
74.219091328174642
 20
66.311999999999912
 30
0.0
 11
68.250000007911737
 21
66.311999999999912
 31
0.0
  0
LINE
  5
18FB
  8
3
 10
74.21909132817467
 20
34.688000000000073
 30
0.0
 11
68.250000007911723
 21
34.688000000000088
 31
0.0
  0
LINE
  5
18FC
  8
3
 10
74.219091328174628
 20
26.311999999999909
 30
0.0
 11
68.250000007911723
 21
26.311999999999909
 31
0.0
  0
ENDSEC
  0
EOF
