  0
SECTION
  2
HEADER
  9
$ACADVER
  1
AC1009
  9
$INSBASE
 10
0.0
 20
0.0
 30
0.0
  9
$EXTMIN
 10
0.0
 20
-1.4802182810368341
 30
0.0
  9
$EXTMAX
 10
175.02898618701909
 20
100.0144930935096
 30
0.0
  9
$LIMMIN
 10
0.0
 20
0.0
  9
$LIMMAX
 10
187.5
 20
135.0
  9
$ORTHOMODE
 70
     1
  9
$REGENMODE
 70
     1
  9
$FILLMODE
 70
     1
  9
$QTEXTMODE
 70
     0
  9
$MIRRTEXT
 70
     0
  9
$DRAGMODE
 70
     2
  9
$LTSCALE
 40
5.0
  9
$OSMODE
 70
    37
  9
$ATTMODE
 70
     1
  9
$TEXTSIZE
 40
4.0
  9
$TRACEWID
 40
0.05
  9
$TEXTSTYLE
  7
STANDARD
  9
$CLAYER
  8
0
  9
$CELTYPE
  6
BYLAYER
  9
$CECOLOR
 62
   256
  9
$DIMSCALE
 40
0.5
  9
$DIMASZ
 40
3.0
  9
$DIMEXO
 40
2.0
  9
$DIMDLI
 40
0.38
  9
$DIMRND
 40
0.0
  9
$DIMDLE
 40
0.0
  9
$DIMEXE
 40
2.0
  9
$DIMTP
 40
0.0
  9
$DIMTM
 40
0.0
  9
$DIMTXT
 40
3.0
  9
$DIMCEN
 40
0.0
  9
$DIMTSZ
 40
0.0
  9
$DIMTOL
 70
     0
  9
$DIMLIM
 70
     0
  9
$DIMTIH
 70
     0
  9
$DIMTOH
 70
     0
  9
$DIMSE1
 70
     0
  9
$DIMSE2
 70
     0
  9
$DIMTAD
 70
     1
  9
$DIMZIN
 70
     0
  9
$DIMBLK
  1

  9
$DIMASO
 70
     0
  9
$DIMSHO
 70
     0
  9
$DIMPOST
  1

  9
$DIMAPOST
  1

  9
$DIMALT
 70
     0
  9
$DIMALTD
 70
     2
  9
$DIMALTF
 40
25.399999999999999
  9
$DIMLFAC
 40
1.0
  9
$DIMTOFL
 70
     0
  9
$DIMTVP
 40
1.6000000000000001
  9
$DIMTIX
 70
     1
  9
$DIMSOXD
 70
     0
  9
$DIMSAH
 70
     0
  9
$DIMBLK1
  1

  9
$DIMBLK2
  1

  9
$DIMSTYLE
  2
STANDARD
  9
$DIMCLRD
 70
     0
  9
$DIMCLRE
 70
     0
  9
$DIMCLRT
 70
     0
  9
$DIMTFAC
 40
1.0
  9
$DIMGAP
 40
0.09
  9
$LUNITS
 70
     2
  9
$LUPREC
 70
     4
  9
$SKETCHINC
 40
0.1
  9
$FILLETRAD
 40
1.0
  9
$AUNITS
 70
     0
  9
$AUPREC
 70
     0
  9
$MENU
  1
E:\r13\win\SUPPORT\ACAD
  9
$ELEVATION
 40
0.0
  9
$PELEVATION
 40
0.0
  9
$THICKNESS
 40
0.0
  9
$LIMCHECK
 70
     0
  9
$BLIPMODE
 70
     0
  9
$CHAMFERA
 40
0.0
  9
$CHAMFERB
 40
0.0
  9
$SKPOLY
 70
     0
  9
$TDCREATE
 40
2449840.6143865739
  9
$TDUPDATE
 40
2458249.59236184
  9
$TDINDWG
 40
0.2450633796
  9
$TDUSRTIMER
 40
0.2450633796
  9
$USRTIMER
 70
     1
  9
$ANGBASE
 50
0.0
  9
$ANGDIR
 70
     0
  9
$PDMODE
 70
     0
  9
$PDSIZE
 40
0.0
  9
$PLINEWID
 40
0.0
  9
$COORDS
 70
     1
  9
$SPLFRAME
 70
     0
  9
$SPLINETYPE
 70
     6
  9
$SPLINESEGS
 70
     8
  9
$ATTDIA
 70
     0
  9
$ATTREQ
 70
     1
  9
$HANDLING
 70
     1
  9
$HANDSEED
  5
20AC
  9
$SURFTAB1
 70
     6
  9
$SURFTAB2
 70
     6
  9
$SURFTYPE
 70
     6
  9
$SURFU
 70
     6
  9
$SURFV
 70
     6
  9
$UCSNAME
  2

  9
$UCSORG
 10
0.0
 20
0.0
 30
0.0
  9
$UCSXDIR
 10
1.0
 20
0.0
 30
0.0
  9
$UCSYDIR
 10
0.0
 20
1.0
 30
0.0
  9
$PUCSNAME
  2

  9
$PUCSORG
 10
0.0
 20
0.0
 30
0.0
  9
$PUCSXDIR
 10
1.0
 20
0.0
 30
0.0
  9
$PUCSYDIR
 10
0.0
 20
1.0
 30
0.0
  9
$USERI1
 70
     0
  9
$USERI2
 70
     1
  9
$USERI3
 70
     1
  9
$USERI4
 70
     0
  9
$USERI5
 70
     0
  9
$USERR1
 40
0.0
  9
$USERR2
 40
0.0
  9
$USERR3
 40
0.0
  9
$USERR4
 40
0.0
  9
$USERR5
 40
0.0
  9
$WORLDVIEW
 70
     1
  9
$SHADEDGE
 70
     3
  9
$SHADEDIF
 70
    70
  9
$TILEMODE
 70
     1
  9
$MAXACTVP
 70
    16
  9
$PLIMCHECK
 70
     0
  9
$PEXTMIN
 10
1.0000000000000000E+020
 20
1.0000000000000000E+020
 30
1.0000000000000000E+020
  9
$PEXTMAX
 10
-1.0000000000000000E+020
 20
-1.0000000000000000E+020
 30
-1.0000000000000000E+020
  9
$PLIMMIN
 10
0.0
 20
0.0
  9
$PLIMMAX
 10
12.0
 20
9.0
  9
$UNITMODE
 70
     0
  9
$VISRETAIN
 70
     0
  9
$PLINEGEN
 70
     0
  9
$PSLTSCALE
 70
     0
  0
ENDSEC
  0
SECTION
  2
TABLES
  0
TABLE
  2
VPORT
 70
     1
  0
VPORT
  2
*ACTIVE
 70
     0
 10
0.0
 20
0.0
 11
1.0
 21
1.0
 12
93.204307139099754
 22
49.265900519714279
 13
0.0
 23
0.0
 14
5.0
 24
5.0
 15
5.0
 25
5.0
 16
0.0
 26
0.0
 36
1.0
 17
0.0
 27
0.0
 37
0.0
 40
102.9767874710037
 41
2.0984455958549222
 42
50.0
 43
0.0
 44
0.0
 50
0.0
 51
0.0
 71
     0
 72
   100
 73
     1
 74
     0
 75
     0
 76
     0
 77
     0
 78
     0
  0
ENDTAB
  0
TABLE
  2
LTYPE
 70
     4
  0
LTYPE
  2
CONTINUOUS
 70
     0
  3
Solid Line
 72
    65
 73
     0
 40
0.0
  0
LTYPE
  2
CENTER
 70
     0
  3
____ _ ____ _ ____ _ ____ _ ____ _ ____ _ ____
 72
    65
 73
     4
 40
2.0
 49
1.25
 49
-0.25
 49
0.25
 49
-0.25
  0
LTYPE
  2
HIDDEN
 70
     0
  3
_ _ _ _ _ _ _ _ _ _ _ _ _ _ _ _ _ _ _ _ _ _ _
 72
    65
 73
     2
 40
0.375
 49
0.25
 49
-0.125
  0
LTYPE
  2
PHANTOM2
 70
     0
  3
___ _ _ ___ _ _ ___ _ _ ___ _ _
 72
    65
 73
     6
 40
1.25
 49
0.625
 49
-0.125
 49
0.125
 49
-0.125
 49
0.125
 49
-0.125
  0
ENDTAB
  0
TABLE
  2
LAYER
 70
     4
  0
LAYER
  2
0
 70
     0
 62
     7
  6
CONTINUOUS
  0
LAYER
  2
1
 70
     0
 62
     1
  6
CENTER
  0
LAYER
  2
3
 70
     0
 62
     3
  6
CONTINUOUS
  0
LAYER
  2
2
 70
     0
 62
     2
  6
HIDDEN
  0
ENDTAB
  0
TABLE
  2
STYLE
 70
     2
  0
STYLE
  2
STANDARD
 70
     0
 40
0.0
 41
1.0
 50
0.0
 71
     0
 42
4.0
  3
TXT
  4
BIGFONT
  0
STYLE
  2
STANDARD1
 70
     0
 40
0.0
 41
1.0
 50
0.0
 71
     0
 42
3.0
  3
txt
  4

  0
ENDTAB
  0
TABLE
  2
VIEW
 70
     1
  0
VIEW
  2
ALL
 70
     0
 40
179.66152299999999
 10
141.903918
 20
89.830760999999995
 41
0.0
 11
0.0
 21
0.0
 31
1.0
 12
0.0
 22
0.0
 32
0.0
 42
0.0
 43
0.0
 44
0.0
 50
0.0
 71
     0
  0
ENDTAB
  0
TABLE
  2
UCS
 70
     0
  0
ENDTAB
  0
TABLE
  2
APPID
 70
     5
  0
APPID
  2
ACAD
 70
     0
  0
APPID
  2
DCO15
 70
     0
  0
APPID
  2
ACAD_MLEADERVER
 70
     0
  0
APPID
  2
ACAD_NAV_VCDISPLAY
 70
     0
  0
APPID
  2
ACAD_EXEMPT_FROM_CAD_STANDARDS
 70
     0
  0
ENDTAB
  0
TABLE
  2
DIMSTYLE
 70
     1
  0
DIMSTYLE
  2
STANDARD
 70
     0
  3

  4

  5

  6

  7

 40
1.0
 41
0.18
 42
0.0625
 43
0.38
 44
0.18
 45
0.0
 46
0.0
 47
0.0
 48
0.0
140
0.18
141
0.09
142
0.0
143
25.399999999999999
144
1.0
145
0.0
146
1.0
147
0.09
 71
     0
 72
     0
 73
     1
 74
     1
 75
     0
 76
     0
 77
     0
 78
     0
170
     0
171
     2
172
     0
173
     0
174
     0
175
     0
176
     0
177
     0
178
     0
  0
ENDTAB
  0
ENDSEC
  0
SECTION
  2
BLOCKS
  0
BLOCK
  8
0
  2
$MODEL_SPACE
 70
     0
 10
0.0
 20
0.0
 30
0.0
  3
$MODEL_SPACE
  1

  0
ENDBLK
  5
1BD
  8
0
  0
BLOCK
 67
     1
  8
0
  2
$PAPER_SPACE
 70
     0
 10
0.0
 20
0.0
 30
0.0
  3
$PAPER_SPACE
  1

  0
ENDBLK
  5
1BB
 67
     1
  8
0
  0
BLOCK
  8
0
  2
MN-M12-L
 70
     0
 10
0.0
 20
0.0
 30
0.0
  3
MN-M12-L
  1

  0
LINE
  5
1DF0
  8
0
 10
6.0
 20
0.0
 30
0.0
 11
6.0
 21
10.0
 31
0.0
  0
LINE
  5
1DF1
  8
3
 10
5.0530000000000248
 20
0.0
 30
0.0
 11
5.0530000000000248
 21
10.0
 31
0.0
  0
LINE
  5
1DF2
  8
3
 10
-5.0530000000000248
 20
0.0
 30
0.0
 11
-5.0530000000000248
 21
10.0
 31
0.0
  0
LINE
  5
1DF3
  8
0
 10
-6.0
 20
0.0
 30
0.0
 11
-6.0
 21
10.0
 31
0.0
  0
ENDBLK
  5
1DF5
  8
0
  0
ENDSEC
  0
SECTION
  2
ENTITIES
  0
ARC
  5
17EE
  8
2
 10
126.0644930935096
 20
82.499999999999943
 30
0.0
 40
16.00000000000005
 50
142.53734892745379
 51
217.4626510725459
  0
ARC
  5
17EF
  8
0
 10
111.62415515584929
 20
93.001087999026481
 30
0.0
 40
2.0000000000000129
 50
29.521719295186209
 51
91.889977246716896
  0
ARC
  5
17F0
  8
0
 10
111.62415515584929
 20
71.998912000973405
 30
0.0
 40
2.0000000000000071
 50
268.11002275325859
 51
330.47828070481381
  0
LINE
  5
17F1
  8
0
 10
111.38381721818899
 20
70.0
 30
0.0
 11
111.55819446782731
 21
70.0
 31
0.0
  0
LINE
  5
17F2
  8
0
 10
111.55819446782731
 20
95.0
 30
0.0
 11
111.38381721818899
 21
95.0
 31
0.0
  0
LINE
  5
17F3
  8
0
 10
96.018046484102854
 20
75.5
 30
0.0
 11
104.36449309350949
 21
75.5
 31
0.0
  0
LINE
  5
17F4
  8
0
 10
104.36449309350949
 20
89.500000000000014
 30
0.0
 11
96.018046484102854
 21
89.500000000000014
 31
0.0
  0
LINE
  5
17F5
  8
0
 10
95.664493093509563
 20
75.85355339059322
 30
0.0
 11
96.018046484102854
 21
75.5
 31
0.0
  0
LINE
  5
17F6
  8
0
 10
96.018046484102854
 20
89.500000000000014
 30
0.0
 11
95.664493093509563
 21
89.146446609406667
 31
0.0
  0
LINE
  5
17F7
  8
0
 10
73.464493093509574
 20
79.5
 30
0.0
 11
77.664493093509563
 21
79.5
 31
0.0
  0
LINE
  5
17F8
  8
0
 10
77.664493093509563
 20
85.5
 30
0.0
 11
73.464493093509574
 21
85.5
 31
0.0
  0
LINE
  5
17F9
  8
0
 10
72.08341848831175
 20
80.297363795081907
 30
0.0
 11
73.464493093509574
 21
79.5
 31
0.0
  0
LINE
  5
17FA
  8
0
 10
73.464493093509574
 20
85.5
 30
0.0
 11
72.083418488311722
 21
84.702636204918036
 31
0.0
  0
LINE
  5
17FB
  8
0
 10
78.584493093509593
 20
76.5
 30
0.0
 11
83.864493093509566
 21
76.5
 31
0.0
  0
LINE
  5
17FC
  8
0
 10
83.864493093509566
 20
88.499999999999986
 30
0.0
 11
78.584493093509593
 21
88.499999999999986
 31
0.0
  0
LINE
  5
17FD
  8
0
 10
77.664493093509563
 20
77.419999999999959
 30
0.0
 11
78.584493093509593
 21
76.5
 31
0.0
  0
LINE
  5
17FE
  8
0
 10
78.584493093509593
 20
88.499999999999986
 30
0.0
 11
77.664493093509563
 21
87.579999999999927
 31
0.0
  0
LINE
  5
17FF
  8
0
 10
95.039278311170278
 20
74.417096231345226
 30
0.0
 11
95.664493093509563
 21
75.5
 31
0.0
  0
LINE
  5
1800
  8
0
 10
95.664493093509563
 20
89.500000000000014
 30
0.0
 11
95.039278311170278
 21
90.582903768654774
 31
0.0
  0
LINE
  5
1801
  8
0
 10
113.36449309350949
 20
93.986594905516995
 30
0.0
 11
113.36449309350949
 21
71.013405094482948
 31
0.0
  0
LINE
  5
1802
  8
0
 10
111.38381721818899
 20
95.0
 30
0.0
 11
111.38381721818899
 21
70.0
 31
0.0
  0
LINE
  5
1803
  8
0
 10
111.55819446782731
 20
95.0
 30
0.0
 11
111.55819446782731
 21
70.0
 31
0.0
  0
LINE
  5
1804
  8
0
 10
104.36449309350949
 20
89.500000000000014
 30
0.0
 11
104.36449309350949
 21
75.5
 31
0.0
  0
LINE
  5
1805
  8
0
 10
96.018046484102854
 20
89.500000000000014
 30
0.0
 11
96.018046484102854
 21
75.5
 31
0.0
  0
LINE
  5
1806
  8
0
 10
73.464493093509574
 20
85.5
 30
0.0
 11
73.464493093509574
 21
79.5
 31
0.0
  0
LINE
  5
1808
  8
0
 10
78.584493093509593
 20
88.499999999999986
 30
0.0
 11
78.584493093509593
 21
76.5
 31
0.0
  0
LINE
  5
1809
  8
0
 10
77.664493093509563
 20
87.579999999999927
 30
0.0
 11
77.664493093509563
 21
77.419999999999959
 31
0.0
  0
LINE
  5
180A
  8
0
 10
95.664493093509563
 20
89.500000000000014
 30
0.0
 11
95.664493093509563
 21
75.5
 31
0.0
  0
POLYLINE
  5
180B
  8
0
 66
     1
 10
0.0
 20
0.0
 30
0.0
  0
VERTEX
  5
1F84
  8
0
 10
95.039278311170278
 20
90.582903768654774
 30
0.0
  0
VERTEX
  5
1F85
  8
0
 10
95.074303125130257
 20
90.521534784477012
 30
0.0
  0
VERTEX
  5
1F86
  8
0
 10
95.141014883348575
 20
90.400367173559005
 30
0.0
  0
VERTEX
  5
1F87
  8
0
 10
95.203376594487835
 20
90.281143077754564
 30
0.0
  0
VERTEX
  5
1F88
  8
0
 10
95.232960814017247
 20
90.222205084501127
 30
0.0
  0
VERTEX
  5
1F89
  8
0
 10
95.261497516040663
 20
90.163688029549618
 30
0.0
  0
VERTEX
  5
1F8A
  8
0
 10
95.315474564947351
 20
90.047833518380799
 30
0.0
  0
VERTEX
  5
1F8B
  8
0
 10
95.365392843991117
 20
89.933416179212827
 30
0.0
  0
VERTEX
  5
1F8C
  8
0
 10
95.411326083546442
 20
89.820277021863845
 30
0.0
  0
VERTEX
  5
1F8D
  8
0
 10
95.453337003452475
 20
89.708260693411546
 30
0.0
  0
VERTEX
  5
1F8E
  8
0
 10
95.491477598733468
 20
89.597214766481784
 30
0.0
  0
VERTEX
  5
1F8F
  8
0
 10
95.509109894238861
 20
89.542008699238934
 30
0.0
  0
VERTEX
  5
1F90
  8
0
 10
95.525789351903583
 20
89.48698904656078
 30
0.0
  0
VERTEX
  5
1F91
  8
0
 10
95.556303373652554
 20
89.377434891706329
 30
0.0
  0
VERTEX
  5
1F92
  8
0
 10
95.583040472795858
 20
89.268404538153959
 30
0.0
  0
VERTEX
  5
1F93
  8
0
 10
95.606011155463989
 20
89.159750425325925
 30
0.0
  0
VERTEX
  5
1F94
  8
0
 10
95.625215552587861
 20
89.051324513661882
 30
0.0
  0
VERTEX
  5
1F95
  8
0
 10
95.640643273784235
 20
88.942977588479721
 30
0.0
  0
VERTEX
  5
1F96
  8
0
 10
95.646934703838895
 20
88.888786618957496
 30
0.0
  0
VERTEX
  5
1F97
  8
0
 10
95.652273184743422
 20
88.834558542753143
 30
0.0
  0
VERTEX
  5
1F98
  8
0
 10
95.660073104143748
 20
88.725913631238924
 30
0.0
  0
VERTEX
  5
1F99
  8
0
 10
95.663999414936484
 20
88.616885687790145
 30
0.0
  0
VERTEX
  5
1F9A
  8
0
 10
95.664493093509563
 20
88.562177826491052
 30
0.0
  0
SEQEND
  5
1F9B
  8
0
  0
POLYLINE
  5
180C
  8
0
 66
     1
 10
0.0
 20
0.0
 30
0.0
  0
VERTEX
  5
1F9C
  8
0
 10
95.664493093509563
 20
88.562177826491052
 30
0.0
  0
VERTEX
  5
1F9D
  8
0
 10
95.663999414936484
 20
88.507469965191945
 30
0.0
  0
VERTEX
  5
1F9E
  8
0
 10
95.660073104143748
 20
88.398442021743094
 30
0.0
  0
VERTEX
  5
1F9F
  8
0
 10
95.652273184743422
 20
88.289797110228903
 30
0.0
  0
VERTEX
  5
1FA0
  8
0
 10
95.646934703838895
 20
88.235569034024607
 30
0.0
  0
VERTEX
  5
1FA1
  8
0
 10
95.640643273784235
 20
88.181378064502383
 30
0.0
  0
VERTEX
  5
1FA2
  8
0
 10
95.625215552587861
 20
88.073031139320221
 30
0.0
  0
VERTEX
  5
1FA3
  8
0
 10
95.606011155463989
 20
87.964605227656179
 30
0.0
  0
VERTEX
  5
1FA4
  8
0
 10
95.583040472795858
 20
87.855951114828144
 30
0.0
  0
VERTEX
  5
1FA5
  8
0
 10
95.556303373652554
 20
87.746920761275689
 30
0.0
  0
VERTEX
  5
1FA6
  8
0
 10
95.525789351903583
 20
87.637366606421324
 30
0.0
  0
VERTEX
  5
1FA7
  8
0
 10
95.509109894238861
 20
87.582346953743127
 30
0.0
  0
VERTEX
  5
1FA8
  8
0
 10
95.491477598733468
 20
87.52714088650032
 30
0.0
  0
VERTEX
  5
1FA9
  8
0
 10
95.453337003452475
 20
87.416094959570501
 30
0.0
  0
VERTEX
  5
1FAA
  8
0
 10
95.411326083546442
 20
87.304078631118259
 30
0.0
  0
VERTEX
  5
1FAB
  8
0
 10
95.365392843991117
 20
87.19093947376922
 30
0.0
  0
VERTEX
  5
1FAC
  8
0
 10
95.315474564947294
 20
87.076522134601305
 30
0.0
  0
VERTEX
  5
1FAD
  8
0
 10
95.261497516040663
 20
86.960667623432414
 30
0.0
  0
VERTEX
  5
1FAE
  8
0
 10
95.232960814017247
 20
86.90215056848092
 30
0.0
  0
VERTEX
  5
1FAF
  8
0
 10
95.203376594487835
 20
86.843212575227525
 30
0.0
  0
VERTEX
  5
1FB0
  8
0
 10
95.141014883348575
 20
86.723988479423085
 30
0.0
  0
VERTEX
  5
1FB1
  8
0
 10
95.074303125130257
 20
86.602820868505034
 30
0.0
  0
VERTEX
  5
1FB2
  8
0
 10
95.039278311170278
 20
86.541451884327344
 30
0.0
  0
SEQEND
  5
1FB3
  8
0
  0
LINE
  5
180D
  8
0
 10
95.039278311170278
 20
86.541451884327344
 30
0.0
 11
87.664493093509577
 21
86.541451884327344
 31
0.0
  0
POLYLINE
  5
180E
  8
0
 66
     1
 10
0.0
 20
0.0
 30
0.0
  0
VERTEX
  5
1FB4
  8
0
 10
95.039278311170278
 20
86.541451884327344
 30
0.0
  0
VERTEX
  5
1FB5
  8
0
 10
95.074303125130257
 20
86.418713915971964
 30
0.0
  0
VERTEX
  5
1FB6
  8
0
 10
95.141014883348575
 20
86.176378694135906
 30
0.0
  0
VERTEX
  5
1FB7
  8
0
 10
95.203376594487835
 20
85.937930502527024
 30
0.0
  0
VERTEX
  5
1FB8
  8
0
 10
95.232960814017247
 20
85.82005451602015
 30
0.0
  0
VERTEX
  5
1FB9
  8
0
 10
95.261497516040663
 20
85.703020406117162
 30
0.0
  0
VERTEX
  5
1FBA
  8
0
 10
95.315474564947294
 20
85.471311383779494
 30
0.0
  0
VERTEX
  5
1FBB
  8
0
 10
95.365392843991117
 20
85.242476705443593
 30
0.0
  0
VERTEX
  5
1FBC
  8
0
 10
95.411326083546442
 20
85.016198390745544
 30
0.0
  0
VERTEX
  5
1FBD
  8
0
 10
95.453337003452475
 20
84.792165733840974
 30
0.0
  0
VERTEX
  5
1FBE
  8
0
 10
95.491477598733468
 20
84.570073879981464
 30
0.0
  0
VERTEX
  5
1FBF
  8
0
 10
95.509109894238861
 20
84.459661745495737
 30
0.0
  0
VERTEX
  5
1FC0
  8
0
 10
95.525789351903583
 20
84.349622440139399
 30
0.0
  0
VERTEX
  5
1FC1
  8
0
 10
95.556303373652554
 20
84.13051413043064
 30
0.0
  0
VERTEX
  5
1FC2
  8
0
 10
95.583040472795858
 20
83.912453423325815
 30
0.0
  0
VERTEX
  5
1FC3
  8
0
 10
95.606011155463989
 20
83.695145197669703
 30
0.0
  0
VERTEX
  5
1FC4
  8
0
 10
95.625215552587861
 20
83.478293374341661
 30
0.0
  0
VERTEX
  5
1FC5
  8
0
 10
95.640643273784235
 20
83.261599523977296
 30
0.0
  0
VERTEX
  5
1FC6
  8
0
 10
95.646934703838895
 20
83.153217584932918
 30
0.0
  0
VERTEX
  5
1FC7
  8
0
 10
95.652273184743422
 20
83.04476143252424
 30
0.0
  0
VERTEX
  5
1FC8
  8
0
 10
95.660073104143748
 20
82.827471609495774
 30
0.0
  0
VERTEX
  5
1FC9
  8
0
 10
95.663999414936484
 20
82.609415722598214
 30
0.0
  0
VERTEX
  5
1FCA
  8
0
 10
95.664493093509563
 20
82.5
 30
0.0
  0
SEQEND
  5
1FCB
  8
0
  0
POLYLINE
  5
180F
  8
0
 66
     1
 10
0.0
 20
0.0
 30
0.0
  0
VERTEX
  5
1FCC
  8
0
 10
95.664493093509563
 20
82.5
 30
0.0
  0
VERTEX
  5
1FCD
  8
0
 10
95.663999414936484
 20
82.390584277401786
 30
0.0
  0
VERTEX
  5
1FCE
  8
0
 10
95.660073104143748
 20
82.172528390504226
 30
0.0
  0
VERTEX
  5
1FCF
  8
0
 10
95.652273184743422
 20
81.955238567475703
 30
0.0
  0
VERTEX
  5
1FD0
  8
0
 10
95.646934703838895
 20
81.846782415067068
 30
0.0
  0
VERTEX
  5
1FD1
  8
0
 10
95.640643273784235
 20
81.738400476022676
 30
0.0
  0
VERTEX
  5
1FD2
  8
0
 10
95.625215552587861
 20
81.521706625658354
 30
0.0
  0
VERTEX
  5
1FD3
  8
0
 10
95.606011155463989
 20
81.304854802330169
 30
0.0
  0
VERTEX
  5
1FD4
  8
0
 10
95.583040472795858
 20
81.087546576674072
 30
0.0
  0
VERTEX
  5
1FD5
  8
0
 10
95.556303373652554
 20
80.869485869569303
 30
0.0
  0
VERTEX
  5
1FD6
  8
0
 10
95.525789351903583
 20
80.650377559860544
 30
0.0
  0
VERTEX
  5
1FD7
  8
0
 10
95.509109894238861
 20
80.540338254504206
 30
0.0
  0
VERTEX
  5
1FD8
  8
0
 10
95.491477598733468
 20
80.429926120018422
 30
0.0
  0
VERTEX
  5
1FD9
  8
0
 10
95.453337003452475
 20
80.207834266158898
 30
0.0
  0
VERTEX
  5
1FDA
  8
0
 10
95.411326083546442
 20
79.983801609254442
 30
0.0
  0
VERTEX
  5
1FDB
  8
0
 10
95.365392843991117
 20
79.757523294556336
 30
0.0
  0
VERTEX
  5
1FDC
  8
0
 10
95.315474564947351
 20
79.528688616220506
 30
0.0
  0
VERTEX
  5
1FDD
  8
0
 10
95.261497516040663
 20
79.296979593882782
 30
0.0
  0
VERTEX
  5
1FDE
  8
0
 10
95.232960814017247
 20
79.179945483979793
 30
0.0
  0
VERTEX
  5
1FDF
  8
0
 10
95.203376594487835
 20
79.062069497472919
 30
0.0
  0
VERTEX
  5
1FE0
  8
0
 10
95.141014883348575
 20
78.823621305864094
 30
0.0
  0
VERTEX
  5
1FE1
  8
0
 10
95.074303125130257
 20
78.581286084027965
 30
0.0
  0
VERTEX
  5
1FE2
  8
0
 10
95.039278311170278
 20
78.458548115672556
 30
0.0
  0
SEQEND
  5
1FE3
  8
0
  0
LINE
  5
1810
  8
0
 10
95.039278311170278
 20
78.458548115672556
 30
0.0
 11
87.664493093509577
 21
78.458548115672556
 31
0.0
  0
POLYLINE
  5
1811
  8
0
 66
     1
 10
0.0
 20
0.0
 30
0.0
  0
VERTEX
  5
1FE4
  8
0
 10
95.039278311170278
 20
78.458548115672556
 30
0.0
  0
VERTEX
  5
1FE5
  8
0
 10
95.074303125130257
 20
78.397179131494909
 30
0.0
  0
VERTEX
  5
1FE6
  8
0
 10
95.141014883348575
 20
78.276011520576844
 30
0.0
  0
VERTEX
  5
1FE7
  8
0
 10
95.203376594487835
 20
78.15678742477246
 30
0.0
  0
VERTEX
  5
1FE8
  8
0
 10
95.232960814017247
 20
78.097849431518966
 30
0.0
  0
VERTEX
  5
1FE9
  8
0
 10
95.261497516040663
 20
78.039332376567472
 30
0.0
  0
VERTEX
  5
1FEA
  8
0
 10
95.315474564947294
 20
77.923477865398695
 30
0.0
  0
VERTEX
  5
1FEB
  8
0
 10
95.365392843991117
 20
77.809060526230724
 30
0.0
  0
VERTEX
  5
1FEC
  8
0
 10
95.411326083546442
 20
77.695921368881727
 30
0.0
  0
VERTEX
  5
1FED
  8
0
 10
95.453337003452475
 20
77.583905040429386
 30
0.0
  0
VERTEX
  5
1FEE
  8
0
 10
95.491477598733468
 20
77.47285911349968
 30
0.0
  0
VERTEX
  5
1FEF
  8
0
 10
95.509109894238861
 20
77.41765304625676
 30
0.0
  0
VERTEX
  5
1FF0
  8
0
 10
95.525789351903583
 20
77.362633393578562
 30
0.0
  0
VERTEX
  5
1FF1
  8
0
 10
95.556303373652554
 20
77.25307923872424
 30
0.0
  0
VERTEX
  5
1FF2
  8
0
 10
95.583040472795858
 20
77.144048885171856
 30
0.0
  0
VERTEX
  5
1FF3
  8
0
 10
95.606011155463989
 20
77.035394772343807
 30
0.0
  0
VERTEX
  5
1FF4
  8
0
 10
95.625215552587861
 20
76.926968860679722
 30
0.0
  0
VERTEX
  5
1FF5
  8
0
 10
95.640643273784235
 20
76.818621935497504
 30
0.0
  0
VERTEX
  5
1FF6
  8
0
 10
95.646934703838895
 20
76.764430965975407
 30
0.0
  0
VERTEX
  5
1FF7
  8
0
 10
95.652273184743422
 20
76.710202889771026
 30
0.0
  0
VERTEX
  5
1FF8
  8
0
 10
95.660073104143748
 20
76.601557978256778
 30
0.0
  0
VERTEX
  5
1FF9
  8
0
 10
95.663999414936484
 20
76.492530034808055
 30
0.0
  0
VERTEX
  5
1FFA
  8
0
 10
95.664493093509563
 20
76.437822173508948
 30
0.0
  0
SEQEND
  5
1FFB
  8
0
  0
POLYLINE
  5
1812
  8
0
 66
     1
 10
0.0
 20
0.0
 30
0.0
  0
VERTEX
  5
1FFC
  8
0
 10
95.664493093509563
 20
76.437822173508948
 30
0.0
  0
VERTEX
  5
1FFD
  8
0
 10
95.663999414936484
 20
76.383114312209841
 30
0.0
  0
VERTEX
  5
1FFE
  8
0
 10
95.660073104143748
 20
76.274086368761004
 30
0.0
  0
VERTEX
  5
1FFF
  8
0
 10
95.652273184743422
 20
76.165441457246743
 30
0.0
  0
VERTEX
  5
2000
  8
0
 10
95.646934703838895
 20
76.111213381042489
 30
0.0
  0
VERTEX
  5
2001
  8
0
 10
95.640643273784235
 20
76.057022411520279
 30
0.0
  0
VERTEX
  5
2002
  8
0
 10
95.625215552587861
 20
75.948675486338061
 30
0.0
  0
VERTEX
  5
2003
  8
0
 10
95.606011155463989
 20
75.840249574673976
 30
0.0
  0
VERTEX
  5
2004
  8
0
 10
95.583040472795858
 20
75.731595461845927
 30
0.0
  0
VERTEX
  5
2005
  8
0
 10
95.556303373652554
 20
75.622565108293543
 30
0.0
  0
VERTEX
  5
2006
  8
0
 10
95.525789351903583
 20
75.51301095343922
 30
0.0
  0
VERTEX
  5
2007
  8
0
 10
95.509109894238861
 20
75.457991300761023
 30
0.0
  0
VERTEX
  5
2008
  8
0
 10
95.491477598733468
 20
75.402785233518102
 30
0.0
  0
VERTEX
  5
2009
  8
0
 10
95.453337003452475
 20
75.291739306588397
 30
0.0
  0
VERTEX
  5
200A
  8
0
 10
95.411326083546442
 20
75.179722978136169
 30
0.0
  0
VERTEX
  5
200B
  8
0
 10
95.365392843991117
 20
75.066583820787059
 30
0.0
  0
VERTEX
  5
200C
  8
0
 10
95.315474564947351
 20
74.952166481619201
 30
0.0
  0
VERTEX
  5
200D
  8
0
 10
95.261497516040663
 20
74.836311970450311
 30
0.0
  0
VERTEX
  5
200E
  8
0
 10
95.232960814017247
 20
74.777794915498816
 30
0.0
  0
VERTEX
  5
200F
  8
0
 10
95.203376594487835
 20
74.718856922245322
 30
0.0
  0
VERTEX
  5
2010
  8
0
 10
95.141014883348575
 20
74.599632826440939
 30
0.0
  0
VERTEX
  5
2011
  8
0
 10
95.074303125130257
 20
74.478465215522874
 30
0.0
  0
VERTEX
  5
2012
  8
0
 10
95.039278311170278
 20
74.417096231345226
 30
0.0
  0
SEQEND
  5
2013
  8
0
  0
LINE
  5
1813
  8
0
 10
87.664493093509577
 20
74.41709623134517
 30
0.0
 11
87.664493093509577
 21
90.582903768654774
 31
0.0
  0
LINE
  5
1814
  8
0
 10
95.039278311170278
 20
74.417096231345226
 30
0.0
 11
87.664493093509577
 21
74.417096231345226
 31
0.0
  0
LINE
  5
1815
  8
0
 10
95.039278311170278
 20
90.582903768654774
 30
0.0
 11
87.664493093509577
 21
90.582903768654774
 31
0.0
  0
LINE
  5
1818
  8
1
 10
118.36449309350949
 20
82.5
 30
0.0
 11
66.664493093509577
 21
82.5
 31
0.0
  0
CIRCLE
  5
1820
  8
0
 10
27.51449309350955
 20
82.500000000000014
 30
0.0
 40
6.0
  0
CIRCLE
  5
1821
  8
0
 10
27.51449309350955
 20
82.500000000000014
 30
0.0
 40
3.0
  0
CIRCLE
  5
1822
  8
3
 10
27.51449309350955
 20
82.500000000000014
 30
0.0
 40
5.0799999999999983
  0
LINE
  5
1823
  8
1
 10
10.0
 20
82.500000000000014
 30
0.0
 11
45.028986187019143
 21
82.500000000000014
 31
0.0
  0
LINE
  5
1824
  8
1
 10
27.51449309350955
 20
64.985506906490414
 30
0.0
 11
27.51449309350955
 21
100.0144930935095
 31
0.0
  0
LINE
  5
190F
  8
1
 10
157.51449309350949
 20
64.985506906490428
 30
0.0
 11
157.51449309350949
 21
100.0144930935096
 31
0.0
  0
LINE
  5
1910
  8
1
 10
139.99999999999989
 20
82.500000000000028
 30
0.0
 11
175.02898618701909
 21
82.500000000000028
 31
0.0
  0
CIRCLE
  5
1911
  8
0
 10
157.51449309350949
 20
82.500000000000028
 30
0.0
 40
11.5
  0
CIRCLE
  5
1912
  8
0
 10
157.51449309350949
 20
82.500000000000028
 30
0.0
 40
9.7319062880814986
  0
LINE
  5
1913
  8
1
 10
118.36449309350949
 20
32.5
 30
0.0
 11
66.664493093509563
 21
32.5
 31
0.0
  0
LINE
  5
1914
  8
0
 10
77.664493093509563
 20
37.579999999999927
 30
0.0
 11
77.664493093509563
 21
27.419999999999959
 31
0.0
  0
LINE
  5
1915
  8
0
 10
78.584493093509579
 20
38.5
 30
0.0
 11
78.584493093509579
 21
26.5
 31
0.0
  0
LINE
  5
1918
  8
0
 10
96.018046484102854
 20
39.5
 30
0.0
 11
96.018046484102854
 21
25.5
 31
0.0
  0
LINE
  5
1919
  8
0
 10
104.36449309350949
 20
39.5
 30
0.0
 11
104.36449309350949
 21
25.5
 31
0.0
  0
LINE
  5
191A
  8
0
 10
78.584493093509579
 20
38.5
 30
0.0
 11
77.664493093509563
 21
37.579999999999927
 31
0.0
  0
LINE
  5
191B
  8
0
 10
77.664493093509563
 20
27.419999999999959
 30
0.0
 11
78.584493093509579
 21
26.5
 31
0.0
  0
LINE
  5
1920
  8
0
 10
96.018046484102854
 20
39.5
 30
0.0
 11
95.664493093509549
 21
39.146446609406667
 31
0.0
  0
LINE
  5
1921
  8
0
 10
95.664493093509549
 20
25.85355339059322
 30
0.0
 11
96.018046484102854
 21
25.5
 31
0.0
  0
LINE
  5
1922
  8
0
 10
104.36449309350949
 20
39.5
 30
0.0
 11
96.018046484102854
 21
39.5
 31
0.0
  0
LINE
  5
1923
  8
0
 10
96.018046484102854
 20
25.5
 30
0.0
 11
104.36449309350949
 21
25.5
 31
0.0
  0
LINE
  5
1924
  8
0
 10
95.664493093509549
 20
39.5
 30
0.0
 11
95.664493093509549
 21
25.5
 31
0.0
  0
POLYLINE
  5
1925
  8
0
 66
     1
 10
0.0
 20
0.0
 30
0.0
  0
VERTEX
  5
2014
  8
0
 10
95.039278311170264
 20
32.5
 30
0.0
  0
VERTEX
  5
2015
  8
0
 10
95.074303125130285
 20
32.393705801395363
 30
0.0
  0
VERTEX
  5
2016
  8
0
 10
95.141014883348575
 20
32.18383734305354
 30
0.0
  0
VERTEX
  5
2017
  8
0
 10
95.203376594487835
 20
31.977335151633842
 30
0.0
  0
VERTEX
  5
2018
  8
0
 10
95.232960814017218
 20
31.8752515528227
 30
0.0
  0
VERTEX
  5
2019
  8
0
 10
95.261497516040635
 20
31.77389704053741
 30
0.0
  0
VERTEX
  5
201A
  8
0
 10
95.31547456494728
 20
31.573231140906898
 30
0.0
  0
VERTEX
  5
201B
  8
0
 10
95.365392843991089
 20
31.375054496201251
 30
0.0
  0
VERTEX
  5
201C
  8
0
 10
95.411326083546413
 20
31.17909172734716
 30
0.0
  0
VERTEX
  5
201D
  8
0
 10
95.453337003452461
 20
30.985073755190509
 30
0.0
  0
VERTEX
  5
201E
  8
0
 10
95.491477598733454
 20
30.792736567774568
 30
0.0
  0
VERTEX
  5
201F
  8
0
 10
95.509109894238847
 20
30.697116854423879
 30
0.0
  0
VERTEX
  5
2020
  8
0
 10
95.525789351903583
 20
30.601820020570472
 30
0.0
  0
VERTEX
  5
2021
  8
0
 10
95.55630337365254
 20
30.412066658182429
 30
0.0
  0
VERTEX
  5
2022
  8
0
 10
95.583040472795787
 20
30.2232205462625
 30
0.0
  0
VERTEX
  5
2023
  8
0
 10
95.606011155463975
 20
30.03502610239298
 30
0.0
  0
VERTEX
  5
2024
  8
0
 10
95.625215552587846
 20
29.847226914533849
 30
0.0
  0
VERTEX
  5
2025
  8
0
 10
95.640643273784235
 20
29.659564535274459
 30
0.0
  0
VERTEX
  5
2026
  8
0
 10
95.64693470383888
 20
29.565703022750601
 30
0.0
  0
VERTEX
  5
2027
  8
0
 10
95.652273184743393
 20
29.471777239567981
 30
0.0
  0
VERTEX
  5
2028
  8
0
 10
95.660073104143734
 20
29.28359873284154
 30
0.0
  0
VERTEX
  5
2029
  8
0
 10
95.663999414936484
 20
29.094756795343471
 30
0.0
  0
VERTEX
  5
202A
  8
0
 10
95.664493093509549
 20
29.0
 30
0.0
  0
SEQEND
  5
202B
  8
0
  0
POLYLINE
  5
1926
  8
0
 66
     1
 10
0.0
 20
0.0
 30
0.0
  0
VERTEX
  5
202C
  8
0
 10
95.664493093509549
 20
29.0
 30
0.0
  0
VERTEX
  5
202D
  8
0
 10
95.663999414936484
 20
28.905243204656529
 30
0.0
  0
VERTEX
  5
202E
  8
0
 10
95.660073104143734
 20
28.71640126715846
 30
0.0
  0
VERTEX
  5
202F
  8
0
 10
95.652273184743393
 20
28.528222760431959
 30
0.0
  0
VERTEX
  5
2030
  8
0
 10
95.64693470383888
 20
28.43429697724935
 30
0.0
  0
VERTEX
  5
2031
  8
0
 10
95.640643273784235
 20
28.340435464725491
 30
0.0
  0
VERTEX
  5
2032
  8
0
 10
95.625215552587846
 20
28.152773085466102
 30
0.0
  0
VERTEX
  5
2033
  8
0
 10
95.606011155463975
 20
27.964973897606971
 30
0.0
  0
VERTEX
  5
2034
  8
0
 10
95.583040472795787
 20
27.776779453737511
 30
0.0
  0
VERTEX
  5
2035
  8
0
 10
95.55630337365254
 20
27.587933341817521
 30
0.0
  0
VERTEX
  5
2036
  8
0
 10
95.525789351903583
 20
27.398179979429472
 30
0.0
  0
VERTEX
  5
2037
  8
0
 10
95.509109894238847
 20
27.302883145576121
 30
0.0
  0
VERTEX
  5
2038
  8
0
 10
95.491477598733454
 20
27.207263432225371
 30
0.0
  0
VERTEX
  5
2039
  8
0
 10
95.453337003452461
 20
27.014926244809431
 30
0.0
  0
VERTEX
  5
203A
  8
0
 10
95.411326083546413
 20
26.82090827265279
 30
0.0
  0
VERTEX
  5
203B
  8
0
 10
95.365392843991089
 20
26.624945503798759
 30
0.0
  0
VERTEX
  5
203C
  8
0
 10
95.31547456494728
 20
26.426768859093048
 30
0.0
  0
VERTEX
  5
203D
  8
0
 10
95.261497516040635
 20
26.226102959462541
 30
0.0
  0
VERTEX
  5
203E
  8
0
 10
95.232960814017218
 20
26.12474844717724
 30
0.0
  0
VERTEX
  5
203F
  8
0
 10
95.203376594487835
 20
26.022664848366158
 30
0.0
  0
VERTEX
  5
2040
  8
0
 10
95.141014883348575
 20
25.8161626569464
 30
0.0
  0
VERTEX
  5
2041
  8
0
 10
95.074303125130285
 20
25.606294198604651
 30
0.0
  0
VERTEX
  5
2042
  8
0
 10
95.039278311170264
 20
25.5
 30
0.0
  0
SEQEND
  5
2043
  8
0
  0
LINE
  5
1927
  8
0
 10
87.664493093509563
 20
25.5
 30
0.0
 11
87.664493093509563
 21
39.5
 31
0.0
  0
LINE
  5
1928
  8
0
 10
95.664493093509549
 20
25.5
 30
0.0
 11
87.664493093509563
 21
25.5
 31
0.0
  0
POLYLINE
  5
1929
  8
0
 66
     1
 10
0.0
 20
0.0
 30
0.0
  0
VERTEX
  5
2044
  8
0
 10
95.039278311170264
 20
32.5
 30
0.0
  0
VERTEX
  5
2045
  8
0
 10
95.074303125130285
 20
32.606294198604637
 30
0.0
  0
VERTEX
  5
2046
  8
0
 10
95.141014883348575
 20
32.81616265694641
 30
0.0
  0
VERTEX
  5
2047
  8
0
 10
95.203376594487835
 20
33.022664848366162
 30
0.0
  0
VERTEX
  5
2048
  8
0
 10
95.232960814017218
 20
33.12474844717724
 30
0.0
  0
VERTEX
  5
2049
  8
0
 10
95.261497516040635
 20
33.226102959462537
 30
0.0
  0
VERTEX
  5
204A
  8
0
 10
95.31547456494728
 20
33.426768859093052
 30
0.0
  0
VERTEX
  5
204B
  8
0
 10
95.365392843991089
 20
33.624945503798763
 30
0.0
  0
VERTEX
  5
204C
  8
0
 10
95.411326083546413
 20
33.820908272652837
 30
0.0
  0
VERTEX
  5
204D
  8
0
 10
95.453337003452461
 20
34.014926244809431
 30
0.0
  0
VERTEX
  5
204E
  8
0
 10
95.491477598733454
 20
34.207263432225382
 30
0.0
  0
VERTEX
  5
204F
  8
0
 10
95.509109894238847
 20
34.302883145576118
 30
0.0
  0
VERTEX
  5
2050
  8
0
 10
95.525789351903583
 20
34.398179979429472
 30
0.0
  0
VERTEX
  5
2051
  8
0
 10
95.55630337365254
 20
34.587933341817518
 30
0.0
  0
VERTEX
  5
2052
  8
0
 10
95.583040472795787
 20
34.776779453737511
 30
0.0
  0
VERTEX
  5
2053
  8
0
 10
95.606011155463975
 20
34.964973897606967
 30
0.0
  0
VERTEX
  5
2054
  8
0
 10
95.625215552587846
 20
35.152773085466102
 30
0.0
  0
VERTEX
  5
2055
  8
0
 10
95.640643273784235
 20
35.340435464725488
 30
0.0
  0
VERTEX
  5
2056
  8
0
 10
95.64693470383888
 20
35.434296977249353
 30
0.0
  0
VERTEX
  5
2057
  8
0
 10
95.652273184743393
 20
35.528222760431959
 30
0.0
  0
VERTEX
  5
2058
  8
0
 10
95.660073104143734
 20
35.71640126715846
 30
0.0
  0
VERTEX
  5
2059
  8
0
 10
95.663999414936484
 20
35.905243204656472
 30
0.0
  0
VERTEX
  5
205A
  8
0
 10
95.664493093509549
 20
36.0
 30
0.0
  0
SEQEND
  5
205B
  8
0
  0
POLYLINE
  5
192A
  8
0
 66
     1
 10
0.0
 20
0.0
 30
0.0
  0
VERTEX
  5
205C
  8
0
 10
95.664493093509549
 20
36.0
 30
0.0
  0
VERTEX
  5
205D
  8
0
 10
95.663999414936484
 20
36.094756795343471
 30
0.0
  0
VERTEX
  5
205E
  8
0
 10
95.660073104143734
 20
36.28359873284149
 30
0.0
  0
VERTEX
  5
205F
  8
0
 10
95.652273184743393
 20
36.471777239567992
 30
0.0
  0
VERTEX
  5
2060
  8
0
 10
95.64693470383888
 20
36.565703022750597
 30
0.0
  0
VERTEX
  5
2061
  8
0
 10
95.640643273784235
 20
36.659564535274463
 30
0.0
  0
VERTEX
  5
2062
  8
0
 10
95.625215552587846
 20
36.847226914533849
 30
0.0
  0
VERTEX
  5
2063
  8
0
 10
95.606011155463975
 20
37.035026102392983
 30
0.0
  0
VERTEX
  5
2064
  8
0
 10
95.583040472795787
 20
37.223220546262503
 30
0.0
  0
VERTEX
  5
2065
  8
0
 10
95.55630337365254
 20
37.412066658182432
 30
0.0
  0
VERTEX
  5
2066
  8
0
 10
95.525789351903583
 20
37.601820020570472
 30
0.0
  0
VERTEX
  5
2067
  8
0
 10
95.509109894238847
 20
37.697116854423882
 30
0.0
  0
VERTEX
  5
2068
  8
0
 10
95.491477598733454
 20
37.792736567774568
 30
0.0
  0
VERTEX
  5
2069
  8
0
 10
95.453337003452461
 20
37.985073755190513
 30
0.0
  0
VERTEX
  5
206A
  8
0
 10
95.411326083546413
 20
38.179091727347149
 30
0.0
  0
VERTEX
  5
206B
  8
0
 10
95.365392843991089
 20
38.375054496201237
 30
0.0
  0
VERTEX
  5
206C
  8
0
 10
95.31547456494728
 20
38.573231140906962
 30
0.0
  0
VERTEX
  5
206D
  8
0
 10
95.261497516040635
 20
38.773897040537399
 30
0.0
  0
VERTEX
  5
206E
  8
0
 10
95.232960814017218
 20
38.875251552822711
 30
0.0
  0
VERTEX
  5
206F
  8
0
 10
95.203376594487835
 20
38.977335151633838
 30
0.0
  0
VERTEX
  5
2070
  8
0
 10
95.141014883348575
 20
39.18383734305354
 30
0.0
  0
VERTEX
  5
2071
  8
0
 10
95.074303125130285
 20
39.393705801395363
 30
0.0
  0
VERTEX
  5
2072
  8
0
 10
95.039278311170264
 20
39.5
 30
0.0
  0
SEQEND
  5
2073
  8
0
  0
LINE
  5
192B
  8
0
 10
95.664493093509549
 20
39.5
 30
0.0
 11
87.664493093509563
 21
39.5
 31
0.0
  0
LINE
  5
192C
  8
0
 10
95.039278311170264
 20
32.5
 30
0.0
 11
87.664493093509563
 21
32.5
 31
0.0
  0
CIRCLE
  5
192D
  8
0
 10
27.51449309350955
 20
82.500000000000014
 30
0.0
 40
12.5
  0
CIRCLE
  5
192E
  8
0
 10
157.51449309350949
 20
82.500000000000028
 30
0.0
 40
12.5
  0
LINE
  5
192F
  8
0
 10
111.38381721818899
 20
95.0
 30
0.0
 11
104.36449309350949
 21
89.500000000000014
 31
0.0
  0
LINE
  5
1930
  8
0
 10
111.38381721818899
 20
70.0
 30
0.0
 11
104.36449309350949
 21
75.5
 31
0.0
  0
LINE
  5
1931
  8
0
 10
111.38381721818899
 20
45.0
 30
0.0
 11
104.36449309350949
 21
39.5
 31
0.0
  0
LINE
  5
1932
  8
0
 10
111.55819446782731
 20
45.0
 30
0.0
 11
111.55819446782731
 21
20.0
 31
0.0
  0
LINE
  5
1933
  8
0
 10
111.38381721818899
 20
45.0
 30
0.0
 11
111.38381721818899
 21
20.0
 31
0.0
  0
LINE
  5
1934
  8
0
 10
113.36449309350949
 20
43.986594905517002
 30
0.0
 11
113.36449309350949
 21
21.013405094482948
 31
0.0
  0
LINE
  5
1935
  8
0
 10
111.55819446782731
 20
45.0
 30
0.0
 11
111.38381721818899
 21
45.0
 31
0.0
  0
ARC
  5
1936
  8
0
 10
111.62415515584929
 20
43.001087999026467
 30
0.0
 40
2.0000000000000129
 50
29.521719295186209
 51
91.889977246716896
  0
ARC
  5
1937
  8
2
 10
126.0644930935096
 20
32.49999999999995
 30
0.0
 40
16.00000000000005
 50
142.53734892745379
 51
217.4626510725459
  0
LINE
  5
1938
  8
0
 10
111.38381721818899
 20
20.0
 30
0.0
 11
104.36449309350949
 21
25.5
 31
0.0
  0
LINE
  5
1939
  8
0
 10
111.38381721818899
 20
20.0
 30
0.0
 11
111.55819446782731
 21
20.0
 31
0.0
  0
ARC
  5
193A
  8
0
 10
111.62415515584929
 20
21.998912000973402
 30
0.0
 40
2.0000000000000071
 50
268.11002275325859
 51
330.47828070481381
  0
LINE
  5
19A5
  8
0
 10
83.864493093509566
 20
88.499999999999787
 30
0.0
 11
83.864493093509566
 21
76.500000000002274
 31
0.0
  0
LINE
  5
19A6
  8
0
 10
83.864493093509637
 20
88.499999999999886
 30
0.0
 11
84.326373308861321
 21
87.699999999999946
 31
0.0
  0
LINE
  5
19A7
  8
0
 10
87.264493093509586
 20
87.499999999999943
 30
0.0
 11
84.672783470375066
 21
87.499999999999943
 31
0.0
  0
ARC
  5
19A8
  8
0
 10
87.264493093509586
 20
87.899999999999963
 30
0.0
 40
0.4
 50
270.0
 51
0.0
  0
ARC
  5
19A9
  8
0
 10
84.672783470375066
 20
87.899999999999963
 30
0.0
 40
0.4
 50
210.00000000000091
 51
270.0
  0
ARC
  5
19AA
  8
0
 10
84.672783470375066
 20
77.100000000000023
 30
0.0
 40
0.4
 50
90.0
 51
149.99999999999901
  0
ARC
  5
19AB
  8
0
 10
87.264493093509586
 20
77.100000000000023
 30
0.0
 40
0.4
 50
0.0
 51
90.0
  0
LINE
  5
19AC
  8
0
 10
87.264493093509586
 20
77.500000000000057
 30
0.0
 11
84.672783470375066
 21
77.500000000000057
 31
0.0
  0
LINE
  5
19AD
  8
0
 10
83.864493093509637
 20
76.500000000000057
 30
0.0
 11
84.326373308861321
 21
77.300000000000068
 31
0.0
  0
ARC
  5
19AE
  8
0
 10
84.672783470375037
 20
37.899999999999977
 30
0.0
 40
0.4
 50
210.00000000000091
 51
270.0
  0
ARC
  5
19AF
  8
0
 10
87.264493093509515
 20
37.899999999999977
 30
0.0
 40
0.4
 50
270.0
 51
0.0
  0
LINE
  5
19B0
  8
0
 10
87.264493093509515
 20
37.49999999999995
 30
0.0
 11
84.672783470375037
 21
37.49999999999995
 31
0.0
  0
LINE
  5
19B1
  8
0
 10
83.864493093509566
 20
38.499999999999893
 30
0.0
 11
84.326373308861307
 21
37.699999999999932
 31
0.0
  0
LINE
  5
19B3
  8
0
 10
78.584493093509579
 20
38.5
 30
0.0
 11
77.664493093509563
 21
37.579999999999927
 31
0.0
  0
LINE
  5
19B4
  8
0
 10
83.864493093509566
 20
38.5
 30
0.0
 11
78.584493093509579
 21
38.5
 31
0.0
  0
LINE
  5
19B5
  8
0
 10
83.864493093509566
 20
26.50000000000006
 30
0.0
 11
84.326373308861307
 21
27.300000000000072
 31
0.0
  0
LINE
  5
19B6
  8
0
 10
87.264493093509515
 20
27.50000000000006
 30
0.0
 11
84.672783470375037
 21
27.50000000000006
 31
0.0
  0
ARC
  5
19B7
  8
0
 10
87.264493093509515
 20
27.10000000000003
 30
0.0
 40
0.4
 50
0.0
 51
90.0
  0
ARC
  5
19B8
  8
0
 10
84.672783470375037
 20
27.10000000000003
 30
0.0
 40
0.4
 50
90.0
 51
149.99999999999901
  0
LINE
  5
19BA
  8
0
 10
77.664493093509563
 20
27.419999999999959
 30
0.0
 11
78.584493093509579
 21
26.5
 31
0.0
  0
LINE
  5
19BB
  8
0
 10
78.584493093509579
 20
26.5
 30
0.0
 11
83.864493093509566
 21
26.5
 31
0.0
  0
LINE
  5
19BC
  8
0
 10
83.864493093509566
 20
38.499999999997613
 30
0.0
 11
83.864493093509566
 21
26.50000000000006
 31
0.0
  0
LINE
  5
1ADD
  8
0
 10
34.514493087812923
 20
86.541451881039876
 30
0.0
 11
34.514493087812923
 21
78.458548112385429
 31
0.0
  0
LINE
  5
1ADE
  8
0
 10
34.514493087805647
 20
78.458548118960167
 30
0.0
 11
27.51449308781293
 21
74.417096234632041
 31
0.0
  0
LINE
  5
1ADF
  8
0
 10
27.514493093510001
 20
74.417096237926231
 30
0.0
 11
20.514493093510001
 21
78.458548122252537
 31
0.0
  0
LINE
  5
1AE0
  8
0
 10
20.514493099207069
 20
78.458548118963805
 30
0.0
 11
20.514493099207069
 21
86.541451887618237
 31
0.0
  0
LINE
  5
1AE1
  8
0
 10
20.514493099207069
 20
86.541451881038938
 30
0.0
 11
27.514493099207069
 21
90.582903765367078
 31
0.0
  0
LINE
  5
1AE2
  8
0
 10
27.514493093510001
 20
90.582903762072874
 30
0.0
 11
34.514493093509998
 21
86.541451877746567
 31
0.0
  0
ARC
  5
1CE4
  8
0
 10
77.664493093509563
 20
82.5
 30
0.0
 40
6.0
 50
158.4627507536236
 51
201.53724924637689
  0
LINE
  5
1CE5
  8
0
 10
72.083418488311736
 20
84.702636204918036
 30
0.0
 11
72.08341848831175
 21
80.297363795081907
 31
0.0
  0
CIRCLE
  5
1CE7
  8
0
 10
27.514493093509572
 20
82.500000000000014
 30
0.0
 40
2.2026362049180359
  0
LINE
  5
1CE8
  8
0
 10
72.083418488311736
 20
34.702636204918107
 30
0.0
 11
72.08341848831175
 21
30.297363795081981
 31
0.0
  0
ARC
  5
1CE9
  8
0
 10
77.664493093509563
 20
32.500000000000057
 30
0.0
 40
6.0
 50
158.4627507536236
 51
201.53724924637689
  0
LINE
  5
1CEA
  8
0
 10
73.464493093509574
 20
35.500000000000057
 30
0.0
 11
73.464493093509574
 21
29.50000000000006
 31
0.0
  0
LINE
  5
1CEB
  8
0
 10
73.464493093509574
 20
35.500000000000057
 30
0.0
 11
72.083418488311722
 21
34.7026362049181
 31
0.0
  0
LINE
  5
1CEC
  8
0
 10
72.08341848831175
 20
30.297363795081981
 30
0.0
 11
73.464493093509574
 21
29.50000000000006
 31
0.0
  0
LINE
  5
1CED
  8
0
 10
77.664493093509563
 20
35.500000000000057
 30
0.0
 11
73.464493093509574
 21
35.500000000000057
 31
0.0
  0
LINE
  5
1CEE
  8
0
 10
73.464493093509574
 20
29.50000000000006
 30
0.0
 11
77.664493093509563
 21
29.50000000000006
 31
0.0
  0
TEXT
  5
1DA5
  8
0
 62
     3
 10
0.0
 20
0.0
 30
0.0
 40
5.0
  1
NDXCS12A-SUS
  7
STANDARD1
  0
LINE
  5
1DF8
  8
3
 10
84.473808597589468
 20
87.553000000000026
 30
0.0
 11
77.664493093509563
 21
87.553000000000026
 31
0.0
  0
LINE
  5
1DF9
  8
3
 10
84.47380859758951
 20
77.446999999999989
 30
0.0
 11
77.664493093509563
 21
77.446999999999974
 31
0.0
  0
LINE
  5
1DFD
  8
3
 10
84.473808597589453
 20
37.552999999999983
 30
0.0
 11
77.664493093509563
 21
37.552999999999969
 31
0.0
  0
LINE
  5
1DFE
  8
3
 10
84.473808597589496
 20
27.446999999999932
 30
0.0
 11
77.664493093509563
 21
27.446999999999921
 31
0.0
  0
ENDSEC
  0
EOF
