  0
SECTION
  2
HEADER
  9
$ACADVER
  1
AC1009
  9
$INSBASE
 10
0.0
 20
0.0
 30
0.0
  9
$EXTMIN
 10
0.0
 20
-1.4802182810368341
 30
0.0
  9
$EXTMAX
 10
193.23984171560491
 20
131.3676996929492
 30
0.0
  9
$LIMMIN
 10
0.0
 20
0.0
  9
$LIMMAX
 10
385.0
 20
270.0
  9
$ORTHOMODE
 70
     1
  9
$REGENMODE
 70
     1
  9
$FILLMODE
 70
     1
  9
$QTEXTMODE
 70
     0
  9
$MIRRTEXT
 70
     0
  9
$DRAGMODE
 70
     2
  9
$LTSCALE
 40
5.0
  9
$OSMODE
 70
  3071
  9
$ATTMODE
 70
     1
  9
$TEXTSIZE
 40
4.000000000000048
  9
$TRACEWID
 40
0.05
  9
$TEXTSTYLE
  7
STANDARD
  9
$CLAYER
  8
0
  9
$CELTYPE
  6
BYLAYER
  9
$CECOLOR
 62
   256
  9
$DIMSCALE
 40
1.0
  9
$DIMASZ
 40
3.0
  9
$DIMEXO
 40
2.0
  9
$DIMDLI
 40
0.38
  9
$DIMRND
 40
0.0
  9
$DIMDLE
 40
0.0
  9
$DIMEXE
 40
2.0
  9
$DIMTP
 40
0.0
  9
$DIMTM
 40
0.0
  9
$DIMTXT
 40
3.0
  9
$DIMCEN
 40
0.0
  9
$DIMTSZ
 40
0.0
  9
$DIMTOL
 70
     0
  9
$DIMLIM
 70
     0
  9
$DIMTIH
 70
     0
  9
$DIMTOH
 70
     0
  9
$DIMSE1
 70
     0
  9
$DIMSE2
 70
     0
  9
$DIMTAD
 70
     1
  9
$DIMZIN
 70
     0
  9
$DIMBLK
  1

  9
$DIMASO
 70
     0
  9
$DIMSHO
 70
     0
  9
$DIMPOST
  1

  9
$DIMAPOST
  1

  9
$DIMALT
 70
     0
  9
$DIMALTD
 70
     2
  9
$DIMALTF
 40
25.399999999999999
  9
$DIMLFAC
 40
1.0
  9
$DIMTOFL
 70
     1
  9
$DIMTVP
 40
1.6000000000000001
  9
$DIMTIX
 70
     1
  9
$DIMSOXD
 70
     0
  9
$DIMSAH
 70
     0
  9
$DIMBLK1
  1

  9
$DIMBLK2
  1

  9
$DIMSTYLE
  2
STANDARD
  9
$DIMCLRD
 70
     0
  9
$DIMCLRE
 70
     0
  9
$DIMCLRT
 70
     0
  9
$DIMTFAC
 40
1.0
  9
$DIMGAP
 40
1.0
  9
$LUNITS
 70
     2
  9
$LUPREC
 70
     4
  9
$SKETCHINC
 40
0.1
  9
$FILLETRAD
 40
0.0
  9
$AUNITS
 70
     0
  9
$AUPREC
 70
     4
  9
$MENU
  1
E:\r13\win\SUPPORT\ACAD
  9
$ELEVATION
 40
0.0
  9
$PELEVATION
 40
0.0
  9
$THICKNESS
 40
0.0
  9
$LIMCHECK
 70
     0
  9
$BLIPMODE
 70
     0
  9
$CHAMFERA
 40
0.0
  9
$CHAMFERB
 40
0.0
  9
$SKPOLY
 70
     0
  9
$TDCREATE
 40
2450280.598206134
  9
$TDUPDATE
 40
2456597.6886901632
  9
$TDINDWG
 40
0.067070162
  9
$TDUSRTIMER
 40
0.067070162
  9
$USRTIMER
 70
     1
  9
$ANGBASE
 50
0.0
  9
$ANGDIR
 70
     0
  9
$PDMODE
 70
     0
  9
$PDSIZE
 40
0.0
  9
$PLINEWID
 40
0.0
  9
$COORDS
 70
     1
  9
$SPLFRAME
 70
     0
  9
$SPLINETYPE
 70
     6
  9
$SPLINESEGS
 70
     8
  9
$ATTDIA
 70
     0
  9
$ATTREQ
 70
     1
  9
$HANDLING
 70
     1
  9
$HANDSEED
  5
772
  9
$SURFTAB1
 70
     6
  9
$SURFTAB2
 70
     6
  9
$SURFTYPE
 70
     6
  9
$SURFU
 70
     6
  9
$SURFV
 70
     6
  9
$UCSNAME
  2

  9
$UCSORG
 10
0.0
 20
0.0
 30
0.0
  9
$UCSXDIR
 10
1.0
 20
0.0
 30
0.0
  9
$UCSYDIR
 10
0.0
 20
1.0
 30
0.0
  9
$PUCSNAME
  2

  9
$PUCSORG
 10
0.0
 20
0.0
 30
0.0
  9
$PUCSXDIR
 10
1.0
 20
0.0
 30
0.0
  9
$PUCSYDIR
 10
0.0
 20
1.0
 30
0.0
  9
$USERI1
 70
     3
  9
$USERI2
 70
     1
  9
$USERI3
 70
     1
  9
$USERI4
 70
     0
  9
$USERI5
 70
     0
  9
$USERR1
 40
1.0
  9
$USERR2
 40
3.0
  9
$USERR3
 40
3.0
  9
$USERR4
 40
3.0
  9
$USERR5
 40
10.0
  9
$WORLDVIEW
 70
     1
  9
$SHADEDGE
 70
     3
  9
$SHADEDIF
 70
    70
  9
$TILEMODE
 70
     1
  9
$MAXACTVP
 70
    16
  9
$PLIMCHECK
 70
     0
  9
$PEXTMIN
 10
1.0000000000000000E+020
 20
1.0000000000000000E+020
 30
1.0000000000000000E+020
  9
$PEXTMAX
 10
-1.0000000000000000E+020
 20
-1.0000000000000000E+020
 30
-1.0000000000000000E+020
  9
$PLIMMIN
 10
0.0
 20
0.0
  9
$PLIMMAX
 10
12.0
 20
9.0
  9
$UNITMODE
 70
     0
  9
$VISRETAIN
 70
     0
  9
$PLINEGEN
 70
     0
  9
$PSLTSCALE
 70
     0
  0
ENDSEC
  0
SECTION
  2
TABLES
  0
TABLE
  2
VPORT
 70
     1
  0
VPORT
  2
*ACTIVE
 70
     0
 10
0.0
 20
0.0
 11
1.0
 21
1.0
 12
192.49412581440311
 22
134.84202934784381
 13
0.0
 23
0.0
 14
5.0
 24
5.0
 15
10.0
 25
10.0
 16
0.0
 26
0.0
 36
1.0
 17
0.0
 27
0.0
 37
0.0
 40
275.78743625673241
 41
2.304913294797688
 42
50.0
 43
0.0
 44
0.0
 50
0.0
 51
0.0
 71
     0
 72
   500
 73
     1
 74
     0
 75
     0
 76
     0
 77
     0
 78
     2
  0
ENDTAB
  0
TABLE
  2
LTYPE
 70
     4
  0
LTYPE
  2
CONTINUOUS
 70
     0
  3
Solid Line
 72
    65
 73
     0
 40
0.0
  0
LTYPE
  2
CENTER
 70
     0
  3
____ _ ____ _ ____ _ ____ _ ____ _ ____ _ ____
 72
    65
 73
     4
 40
2.0
 49
1.25
 49
-0.25
 49
0.25
 49
-0.25
  0
LTYPE
  2
HIDDEN
 70
     0
  3
_ _ _ _ _ _ _ _ _ _ _ _ _ _ _ _ _ _ _ _ _ _ _
 72
    65
 73
     2
 40
0.375
 49
0.25
 49
-0.125
  0
LTYPE
  2
PHANTOM2
 70
     0
  3
___ _ _ ___ _ _ ___ _ _ ___ _ _
 72
    65
 73
     6
 40
1.25
 49
0.625
 49
-0.125
 49
0.125
 49
-0.125
 49
0.125
 49
-0.125
  0
ENDTAB
  0
TABLE
  2
LAYER
 70
     4
  0
LAYER
  2
0
 70
     0
 62
     7
  6
CONTINUOUS
  0
LAYER
  2
1
 70
     0
 62
     1
  6
CENTER
  0
LAYER
  2
3
 70
     0
 62
     3
  6
CONTINUOUS
  0
LAYER
  2
2
 70
     0
 62
     2
  6
HIDDEN
  0
ENDTAB
  0
TABLE
  2
STYLE
 70
     2
  0
STYLE
  2
STANDARD
 70
     0
 40
0.0
 41
1.0
 50
0.0
 71
     0
 42
4.000000000000048
  3
SIMPLEX
  4
BIGFONT
  0
STYLE
  2
STANDARD1
 70
     0
 40
0.0
 41
1.0
 50
0.0
 71
     0
 42
3.0
  3
txt
  4

  0
ENDTAB
  0
TABLE
  2
VIEW
 70
     0
  0
ENDTAB
  0
TABLE
  2
UCS
 70
     0
  0
ENDTAB
  0
TABLE
  2
APPID
 70
     3
  0
APPID
  2
ACAD
 70
     0
  0
APPID
  2
ACAD_MLEADERVER
 70
     0
  0
APPID
  2
ACAD_NAV_VCDISPLAY
 70
     0
  0
ENDTAB
  0
TABLE
  2
DIMSTYLE
 70
     1
  0
DIMSTYLE
  2
STANDARD
 70
     0
  3

  4

  5

  6

  7

 40
1.0
 41
0.18
 42
0.0625
 43
0.38
 44
0.18
 45
0.0
 46
0.0
 47
0.0
 48
0.0
140
0.18
141
0.09
142
0.0
143
25.399999999999999
144
1.0
145
0.0
146
1.0
147
0.09
 71
     0
 72
     0
 73
     1
 74
     1
 75
     0
 76
     0
 77
     0
 78
     0
170
     0
171
     2
172
     0
173
     0
174
     0
175
     0
176
     0
177
     0
178
     0
  0
ENDTAB
  0
ENDSEC
  0
SECTION
  2
BLOCKS
  0
BLOCK
  8
0
  2
$MODEL_SPACE
 70
     0
 10
0.0
 20
0.0
 30
0.0
  3
$MODEL_SPACE
  1

  0
ENDBLK
  5
175
  8
0
  0
BLOCK
 67
     1
  8
0
  2
$PAPER_SPACE
 70
     0
 10
0.0
 20
0.0
 30
0.0
  3
$PAPER_SPACE
  1

  0
ENDBLK
  5
173
 67
     1
  8
0
  0
ENDSEC
  0
SECTION
  2
ENTITIES
  0
LINE
  5
1E
  8
1
 10
79.711663923704577
 20
71.129895431226032
 30
0.0
 11
133.2116639237039
 21
71.129895431226032
 31
0.0
  0
LINE
  5
28
  8
1
 10
79.711663923704577
 20
120.8676996929493
 30
0.0
 11
133.2116639237039
 21
120.8676996929493
 31
0.0
  0
LINE
  5
59
  8
1
 10
21.21166392370446
 20
71.129895431226032
 30
0.0
 11
52.211663923704457
 21
71.129895431226032
 31
0.0
  0
CIRCLE
  5
5A
  8
0
 10
36.711663923704577
 20
71.129895431226032
 30
0.0
 40
10.5
  0
LINE
  5
5C
  8
0
 10
121.2116639237039
 20
114.3676996929493
 30
0.0
 11
121.2116639237038
 21
127.3676996929493
 31
0.0
  0
LINE
  5
5D
  8
0
 10
114.2116639237039
 20
114.3676996929493
 30
0.0
 11
114.2116639237038
 21
127.3676996929494
 31
0.0
  0
LINE
  5
5E
  8
0
 10
106.7116639237038
 20
114.3676996929496
 30
0.0
 11
106.7116639237038
 21
127.3676996929491
 31
0.0
  0
LINE
  5
5F
  8
0
 10
113.7116639237038
 20
114.61769969295069
 30
0.0
 11
113.7116639237038
 21
127.11769969294799
 31
0.0
  0
ARC
  5
60
  8
0
 10
104.1801742211571
 20
124.1176996929491
 30
0.0
 40
9.3871521352487513
 50
339.7438419995828
 51
20.256158000417141
  0
LINE
  5
61
  8
0
 10
128.2116639237039
 20
111.3676996929493
 30
0.0
 11
128.2116639237039
 21
130.36769969294929
 31
0.0
  0
LINE
  5
62
  8
0
 10
127.2116639237039
 20
110.3676996929494
 30
0.0
 11
127.2116639237039
 21
131.3676996929492
 31
0.0
  0
LINE
  5
66
  8
0
 10
90.711663923703867
 20
115.867699692901
 30
0.0
 11
90.711663923703867
 21
125.8676996929978
 31
0.0
  0
LINE
  5
67
  8
0
 10
89.711663923703867
 20
116.867699692901
 30
0.0
 11
89.711663923703867
 21
124.8676996929978
 31
0.0
  0
LINE
  5
68
  8
0
 10
104.7116639237039
 20
115.86769969295111
 30
0.0
 11
104.7116639237039
 21
125.8676996929476
 31
0.0
  0
LINE
  5
6B
  8
1
 10
36.711663923704577
 20
86.629895431226316
 30
0.0
 11
36.711663923704577
 21
55.629895431225798
 31
0.0
  0
LINE
  5
6F
  8
3
 10
90.170163923663381
 20
66.671395431218173
 30
0.0
 11
95.711663923703824
 21
66.671395431218158
 31
0.0
  0
LINE
  5
70
  8
3
 10
90.170163923663495
 20
75.588395431234005
 30
0.0
 11
95.711663923703838
 21
75.588395431234019
 31
0.0
  0
LINE
  5
71
  8
0
 10
106.7116639237038
 20
66.129895431234843
 30
0.0
 11
100.7116639237038
 21
66.129895431213484
 31
0.0
  0
LINE
  5
72
  8
0
 10
106.7116639237038
 20
76.129895431217193
 30
0.0
 11
100.7116639237038
 21
76.129895431238523
 31
0.0
  0
LINE
  5
74
  8
0
 10
90.711663923703867
 20
76.129895431274406
 30
0.0
 11
90.711663923703867
 21
66.129895431177601
 31
0.0
  0
LINE
  5
75
  8
0
 10
89.711663923703867
 20
75.129895431274349
 30
0.0
 11
89.711663923703867
 21
67.129895431177601
 31
0.0
  0
LINE
  5
77
  8
0
 10
89.711663923703867
 20
68.629895431226032
 30
0.0
 11
86.011663923703821
 21
68.629895431226032
 31
0.0
  0
LINE
  5
78
  8
0
 10
90.711663923703867
 20
66.129895431177601
 30
0.0
 11
89.711663923703867
 21
67.129895431177601
 31
0.0
  0
LINE
  5
79
  8
0
 10
89.711663923703867
 20
73.629895431226032
 30
0.0
 11
86.011663923703907
 21
73.629895431226046
 31
0.0
  0
LINE
  5
7D
  8
0
 10
90.711663923703867
 20
76.129895431274406
 30
0.0
 11
89.711663923703867
 21
75.129895431274349
 31
0.0
  0
LINE
  5
80
  8
0
 10
128.2116639237039
 20
80.629895431226089
 30
0.0
 11
128.2116639237039
 21
61.629895431226032
 31
0.0
  0
LINE
  5
81
  8
0
 10
127.2116639237039
 20
81.629895431225975
 30
0.0
 11
127.2116639237039
 21
60.629895431226153
 31
0.0
  0
LINE
  5
82
  8
0
 10
121.2116639237039
 20
77.629895431226089
 30
0.0
 11
121.2116639237038
 21
64.629895431226032
 31
0.0
  0
LINE
  5
85
  8
0
 10
104.7116639237039
 20
76.129895431224298
 30
0.0
 11
104.7116639237039
 21
66.129895431227737
 31
0.0
  0
LINE
  5
86
  8
0
 10
121.2116639237038
 20
64.629895431226018
 30
0.0
 11
114.2116639237038
 21
64.629895431225975
 31
0.0
  0
LINE
  5
89
  8
3
 10
104.7116639237039
 20
66.671395431218002
 30
0.0
 11
105.6495694359798
 21
66.129895431231091
 31
0.0
  0
LINE
  5
8D
  8
0
 10
121.2116639237038
 20
64.629895431226032
 30
0.0
 11
127.2116639237039
 21
60.629895431229777
 31
0.0
  0
ARC
  5
8E
  8
0
 10
127.2116639237039
 20
61.629895431226139
 30
0.0
 40
1.0
 50
270.00000000000091
 51
0.0
  0
LINE
  5
8F
  8
0
 10
121.2116639237039
 20
77.629895431226089
 30
0.0
 11
114.2116639237038
 21
77.629895431226089
 31
0.0
  0
LINE
  5
92
  8
3
 10
104.7116639237039
 20
75.588395431234062
 30
0.0
 11
105.6495694359798
 21
76.129895431220973
 31
0.0
  0
LINE
  5
96
  8
0
 10
121.2116639237039
 20
77.629895431226089
 30
0.0
 11
127.2116639237039
 21
81.629895431218699
 31
0.0
  0
ARC
  5
97
  8
0
 10
127.2116639237039
 20
80.629895431225975
 30
0.0
 40
1.0
 50
0.0
 51
89.999999999999091
  0
LINE
  5
98
  8
3
 10
90.170163923663495
 20
116.4091996929414
 30
0.0
 11
95.711663923703838
 21
116.4091996929414
 31
0.0
  0
LINE
  5
99
  8
0
 10
106.7116639237038
 20
115.8676996929582
 30
0.0
 11
100.7116639237038
 21
115.8676996929369
 31
0.0
  0
LINE
  5
9C
  8
0
 10
90.711663923703867
 20
115.867699692901
 30
0.0
 11
89.711663923703867
 21
116.867699692901
 31
0.0
  0
LINE
  5
9D
  8
0
 10
121.2116639237039
 20
114.3676996929493
 30
0.0
 11
114.2116639237038
 21
114.3676996929493
 31
0.0
  0
LINE
  5
9E
  8
0
 10
112.98676977280461
 20
120.8676996929493
 30
0.0
 11
106.7116639237038
 21
120.8676996929493
 31
0.0
  0
LINE
  5
9F
  8
0
 10
113.5673263564058
 20
114.3676996929496
 30
0.0
 11
106.7116639237038
 21
114.3676996929496
 31
0.0
  0
LINE
  5
A0
  8
3
 10
104.7116639237039
 20
116.4091996929413
 30
0.0
 11
105.6495694359798
 21
115.8676996929544
 31
0.0
  0
ARC
  5
A1
  8
0
 10
104.1801742211571
 20
117.6176996929496
 30
0.0
 40
9.3871521352487513
 50
339.7438419995828
 51
20.256158000417141
  0
LINE
  5
A2
  8
0
 10
113.7116639237038
 20
114.8676996929493
 30
0.0
 11
114.2116639237038
 21
114.3676996929493
 31
0.0
  0
LINE
  5
A3
  8
0
 10
113.5673263564058
 20
114.3676996929496
 30
0.0
 11
113.7116639237038
 21
114.61769969295069
 31
0.0
  0
LINE
  5
A4
  8
0
 10
121.2116639237039
 20
114.3676996929493
 30
0.0
 11
127.2116639237039
 21
110.36769969295671
 31
0.0
  0
ARC
  5
A5
  8
0
 10
127.2116639237039
 20
111.3676996929494
 30
0.0
 40
1.0
 50
270.00000000000091
 51
0.0
  0
LINE
  5
A6
  8
3
 10
90.170163923663381
 20
125.3261996929572
 30
0.0
 11
95.711663923703838
 21
125.3261996929572
 31
0.0
  0
LINE
  5
A7
  8
0
 10
106.7116639237038
 20
125.8676996929405
 30
0.0
 11
100.7116639237038
 21
125.86769969296191
 31
0.0
  0
LINE
  5
AA
  8
0
 10
90.711663923703867
 20
125.8676996929978
 30
0.0
 11
89.711663923703867
 21
124.8676996929978
 31
0.0
  0
LINE
  5
AB
  8
0
 10
121.2116639237038
 20
127.3676996929493
 30
0.0
 11
114.2116639237038
 21
127.3676996929494
 31
0.0
  0
LINE
  5
AC
  8
0
 10
113.5673263564058
 20
127.3676996929491
 30
0.0
 11
106.7116639237038
 21
127.3676996929491
 31
0.0
  0
LINE
  5
AD
  8
3
 10
104.7116639237039
 20
125.3261996929574
 30
0.0
 11
105.6495694359798
 21
125.8676996929443
 31
0.0
  0
LINE
  5
AE
  8
0
 10
113.7116639237038
 20
126.8676996929494
 30
0.0
 11
114.2116639237038
 21
127.3676996929494
 31
0.0
  0
LINE
  5
AF
  8
0
 10
113.5673263564058
 20
127.3676996929491
 30
0.0
 11
113.7116639237038
 21
127.11769969294799
 31
0.0
  0
LINE
  5
B0
  8
0
 10
121.2116639237038
 20
127.3676996929493
 30
0.0
 11
127.2116639237039
 21
131.36769969294559
 31
0.0
  0
ARC
  5
B1
  8
0
 10
127.2116639237039
 20
130.3676996929492
 30
0.0
 40
1.0
 50
0.0
 51
89.999999999999091
  0
CIRCLE
  5
CF
  8
0
 10
177.739841715605
 20
71.129895431226032
 30
0.0
 40
10.5
  0
LINE
  5
D0
  8
1
 10
162.23984171560491
 20
71.129895431226032
 30
0.0
 11
193.23984171560491
 21
71.129895431226032
 31
0.0
  0
LINE
  5
E0
  8
1
 10
177.739841715605
 20
86.629895431226316
 30
0.0
 11
177.739841715605
 21
55.629895431225798
 31
0.0
  0
LINE
  5
1A8
  8
0
 10
86.011663923703864
 20
73.629895431226004
 30
0.0
 11
85.123541391409944
 21
73.117137648132825
 31
0.0
  0
ARC
  5
1E5
  8
0
 10
89.711663923703867
 20
71.129895431225975
 30
0.0
 40
5.0
 50
156.5812350446345
 51
203.4187649553644
  0
LINE
  5
1E7
  8
0
 10
86.011663923703864
 20
73.629895431226032
 30
0.0
 11
86.011663923703864
 21
68.629895431226004
 31
0.0
  0
LINE
  5
1E9
  8
0
 10
86.011663923703864
 20
68.629895431226004
 30
0.0
 11
85.123541391409901
 21
69.142653214319211
 31
0.0
  0
LINE
  5
1FF
  8
0
 10
85.123541391409944
 20
73.117137648132825
 30
0.0
 11
85.123541391409901
 21
69.142653214319211
 31
0.0
  0
LINE
  5
200
  8
0
 10
85.123541391409944
 20
122.85494190985619
 30
0.0
 11
85.123541391409901
 21
118.88045747604259
 31
0.0
  0
LINE
  5
201
  8
0
 10
86.011663923703864
 20
123.3676996929494
 30
0.0
 11
86.011663923703864
 21
118.3676996929494
 31
0.0
  0
ARC
  5
202
  8
0
 10
89.711663923703824
 20
120.8676996929493
 30
0.0
 40
5.0
 50
156.5812350446345
 51
203.4187649553644
  0
LINE
  5
203
  8
0
 10
86.011663923703864
 20
123.3676996929494
 30
0.0
 11
85.123541391409944
 21
122.85494190985619
 31
0.0
  0
LINE
  5
204
  8
0
 10
89.711663923703824
 20
123.3676996929494
 30
0.0
 11
86.011663923703907
 21
123.3676996929494
 31
0.0
  0
LINE
  5
205
  8
0
 10
86.011663923703864
 20
118.3676996929494
 30
0.0
 11
85.123541391409901
 21
118.88045747604259
 31
0.0
  0
LINE
  5
206
  8
0
 10
89.711663923703824
 20
118.3676996929494
 30
0.0
 11
86.011663923703779
 21
118.3676996929494
 31
0.0
  0
LINE
  5
291
  8
0
 10
114.2116639237038
 20
69.629889399660243
 30
0.0
 11
114.2116639237038
 21
64.629895431225975
 31
0.0
  0
ARC
  5
292
  8
0
 10
101.29222057099351
 20
71.129895431226203
 30
0.0
 40
12.41944335271058
 50
6.9369980298144789
 51
17.58795386736579
  0
LINE
  5
293
  8
0
 10
113.7116639237038
 20
69.629889399660243
 30
0.0
 11
113.7116639237038
 21
64.629895436524635
 31
0.0
  0
LINE
  5
294
  8
0
 10
108.2116639237038
 20
72.129889399660215
 30
0.0
 11
108.2116639237038
 21
70.129889399660215
 31
0.0
  0
LINE
  5
295
  8
0
 10
108.2116639237038
 20
70.129889399660215
 30
0.0
 11
108.7116639237038
 21
69.629889399660215
 31
0.0
  0
LINE
  5
296
  8
0
 10
108.2116639237038
 20
72.129889399660215
 30
0.0
 11
108.7116639237038
 21
72.629889399660215
 31
0.0
  0
LINE
  5
297
  8
0
 10
114.2116639237038
 20
69.629889399660215
 30
0.0
 11
108.7116639237038
 21
69.629889399660215
 31
0.0
  0
LINE
  5
298
  8
0
 10
114.2116639237038
 20
72.629889399660215
 30
0.0
 11
108.7116639237038
 21
72.629889399660215
 31
0.0
  0
LINE
  5
299
  8
0
 10
113.7116639237038
 20
77.629895425927486
 30
0.0
 11
113.1311073369647
 21
78.635448930828659
 31
0.0
  0
ARC
  5
29A
  8
0
 10
106.92138569078161
 20
77.629895425927714
 30
0.0
 40
6.7902782329225202
 50
336.13507441350413
 51
0.0000000000248338
  0
LINE
  5
29B
  8
0
 10
113.7116639237038
 20
77.129895431226089
 30
0.0
 11
114.2116639237038
 21
77.629895431226089
 31
0.0
  0
LINE
  5
29C
  8
0
 10
106.7116639237038
 20
74.882672181007251
 30
0.0
 11
113.13110733696431
 21
74.882672181007251
 31
0.0
  0
LINE
  5
29D
  8
0
 10
113.1311073369648
 20
78.635448930828545
 30
0.0
 11
106.7116639237219
 21
78.635448930828545
 31
0.0
  0
ARC
  5
29E
  8
0
 10
106.92138569078161
 20
64.62989543652435
 30
0.0
 40
6.7902782329225202
 50
359.99999999997522
 51
23.864925586495868
  0
LINE
  5
29F
  8
0
 10
113.7116639237038
 20
65.129895431225975
 30
0.0
 11
114.2116639237038
 21
64.629895431225975
 31
0.0
  0
LINE
  5
2A0
  8
0
 10
113.7116639237038
 20
64.629895436524578
 30
0.0
 11
113.1311073369647
 21
63.624341931623462
 31
0.0
  0
LINE
  5
2A1
  8
0
 10
113.1311073369647
 20
63.624341931623462
 30
0.0
 11
106.7116639237219
 21
63.624341931623462
 31
0.0
  0
LINE
  5
2A2
  8
0
 10
106.7116639237038
 20
67.377118681444699
 30
0.0
 11
113.13110733696431
 21
67.377118681444699
 31
0.0
  0
ARC
  5
2A3
  8
0
 10
101.29222057099351
 20
71.129895431226203
 30
0.0
 40
12.41944335271058
 50
342.41204613263159
 51
353.06294590780618
  0
LINE
  5
2A4
  8
0
 10
114.2116639237039
 20
77.629895431226089
 30
0.0
 11
114.2116639237039
 21
72.629889399660215
 31
0.0
  0
LINE
  5
2A5
  8
0
 10
113.7116639237038
 20
77.629895425927486
 30
0.0
 11
113.7116639237039
 21
72.629889399660186
 31
0.0
  0
LINE
  5
2A6
  8
0
 10
106.7116639237038
 20
78.635448930828545
 30
0.0
 11
106.7116639237038
 21
63.624341931623462
 31
0.0
  0
CIRCLE
  5
403
  8
0
 10
36.711663923704577
 20
71.129895431226032
 30
0.0
 40
5.0
  0
CIRCLE
  5
404
  8
3
 10
36.711663923704577
 20
71.129895431226032
 30
0.0
 40
4.3865000000000123
  0
CIRCLE
  5
405
  8
0
 10
36.711663923704577
 20
71.129895431226032
 30
0.0
 40
2.500000000000028
  0
CIRCLE
  5
406
  8
0
 10
36.711663923704577
 20
71.129895431226032
 30
0.0
 40
1.7494446500535039
  0
LINE
  5
407
  8
2
 10
43.211663923704563
 20
74.882672180958593
 30
0.0
 11
43.211663923704563
 21
67.377118681493471
 31
0.0
  0
LINE
  5
408
  8
2
 10
43.211663923704563
 20
67.377118681493471
 30
0.0
 11
36.711663923704577
 21
63.624341931760881
 31
0.0
  0
LINE
  5
409
  8
2
 10
30.211663923704581
 20
74.882672180958593
 30
0.0
 11
30.211663923704581
 21
67.377118681493471
 31
0.0
  0
LINE
  5
40A
  8
2
 10
30.211663923704581
 20
67.377118681493471
 30
0.0
 11
36.711663923704577
 21
63.624341931760881
 31
0.0
  0
LINE
  5
40B
  8
2
 10
36.71166392370457
 20
78.635448930691183
 30
0.0
 11
30.211663923704581
 21
74.882672180958593
 31
0.0
  0
LINE
  5
40C
  8
2
 10
36.71166392370457
 20
78.635448930691183
 30
0.0
 11
43.211663923704563
 21
74.882672180958593
 31
0.0
  0
LINE
  5
40D
  8
0
 10
45.21166392370457
 20
76.111509325135472
 30
0.0
 11
45.21166392370457
 21
66.148281537316592
 31
0.0
  0
LINE
  5
40E
  8
0
 10
28.21166392370462
 20
76.111509325135387
 30
0.0
 11
28.21166392370462
 21
66.148281537316677
 31
0.0
  0
LINE
  5
40F
  8
0
 10
28.21166392370462
 20
66.148281537316677
 30
0.0
 11
36.711663923704577
 21
61.314940855002376
 31
0.0
  0
LINE
  5
410
  8
0
 10
36.711663923704577
 20
61.314940855002376
 30
0.0
 11
45.21166392370457
 21
66.148281537316592
 31
0.0
  0
CIRCLE
  5
411
  8
0
 10
36.711663923704577
 20
71.129895431226032
 30
0.0
 40
8.5000000000000142
  0
LINE
  5
412
  8
0
 10
36.711663923704577
 20
80.944850007449674
 30
0.0
 11
45.21166392370457
 21
76.111509325135472
 31
0.0
  0
LINE
  5
413
  8
0
 10
28.21166392370462
 20
76.111509325135387
 30
0.0
 11
36.711663923704577
 21
80.944850007449674
 31
0.0
  0
LINE
  5
41C
  8
0
 10
100.7116639237038
 20
112.3676996929493
 30
0.0
 11
100.7116639237038
 21
129.36769969294929
 31
0.0
  0
LINE
  5
41D
  8
0
 10
95.711663923703838
 20
112.3676996929493
 30
0.0
 11
95.711663923703838
 21
129.36769969294929
 31
0.0
  0
POLYLINE
  5
420
  8
0
 66
     1
 10
0.0
 20
0.0
 30
0.0
  0
VERTEX
  5
55A
  8
0
 10
99.952474545148988
 20
112.3676996929493
 30
0.0
  0
VERTEX
  5
55B
  8
0
 10
99.994788702654205
 20
112.4961080608915
 30
0.0
  0
VERTEX
  5
55C
  8
0
 10
100.0754397292729
 20
112.7497662929309
 30
0.0
  0
VERTEX
  5
55D
  8
0
 10
100.15090028803139
 20
112.9995188929845
 30
0.0
  0
VERTEX
  5
55E
  8
0
 10
100.18672284946651
 20
113.1230422214549
 30
0.0
  0
VERTEX
  5
55F
  8
0
 10
100.22129242836679
 20
113.24572166066559
 30
0.0
  0
VERTEX
  5
560
  8
0
 10
100.2867238589758
 20
113.48871929097319
 30
0.0
  0
VERTEX
  5
561
  8
0
 10
100.3472884928551
 20
113.7288469875616
 30
0.0
  0
VERTEX
  5
562
  8
0
 10
100.4030668962246
 20
113.96643200597779
 30
0.0
  0
VERTEX
  5
563
  8
0
 10
100.4541266458383
 20
114.201795141812
 30
0.0
  0
VERTEX
  5
564
  8
0
 10
100.5005225980124
 20
114.43525217799289
 30
0.0
  0
VERTEX
  5
565
  8
0
 10
100.52198536118129
 20
114.55136357006739
 30
0.0
  0
VERTEX
  5
566
  8
0
 10
100.5422970715783
 20
114.66711530498
 30
0.0
  0
VERTEX
  5
567
  8
0
 10
100.57947994587541
 20
114.8976945273493
 30
0.0
  0
VERTEX
  5
568
  8
0
 10
100.6120886738143
 20
115.1272990702351
 30
0.0
  0
VERTEX
  5
569
  8
0
 10
100.6401282089425
 20
115.3562387992806
 30
0.0
  0
VERTEX
  5
56A
  8
0
 10
100.6635908443068
 20
115.58482566817059
 30
0.0
  0
VERTEX
  5
56B
  8
0
 10
100.68245595971
 20
115.81337520848849
 30
0.0
  0
VERTEX
  5
56C
  8
0
 10
100.6901543888202
 20
115.92773594184381
 30
0.0
  0
VERTEX
  5
56D
  8
0
 10
100.6966896726659
 20
116.0422080775687
 30
0.0
  0
VERTEX
  5
56E
  8
0
 10
100.7062443869542
 20
116.2716516812503
 30
0.0
  0
VERTEX
  5
56F
  8
0
 10
100.71105823110869
 20
116.50204188999071
 30
0.0
  0
VERTEX
  5
570
  8
0
 10
100.7116639237038
 20
116.6176996929493
 30
0.0
  0
SEQEND
  5
571
  8
0
  0
LINE
  5
421
  8
0
 10
95.711663923703838
 20
112.3676996929493
 30
0.0
 11
100.7116639237038
 21
112.3676996929493
 31
0.0
  0
POLYLINE
  5
422
  8
0
 66
     1
 10
0.0
 20
0.0
 30
0.0
  0
VERTEX
  5
572
  8
0
 10
95.711663923703838
 20
116.6176996929493
 30
0.0
  0
VERTEX
  5
573
  8
0
 10
95.712269616298883
 20
116.50204188999071
 30
0.0
  0
VERTEX
  5
574
  8
0
 10
95.717083460453466
 20
116.2716516812503
 30
0.0
  0
VERTEX
  5
575
  8
0
 10
95.72663817474168
 20
116.0422080775687
 30
0.0
  0
VERTEX
  5
576
  8
0
 10
95.733173458587402
 20
115.92773594184381
 30
0.0
  0
VERTEX
  5
577
  8
0
 10
95.740871887697608
 20
115.81337520848849
 30
0.0
  0
VERTEX
  5
578
  8
0
 10
95.75973700310081
 20
115.58482566817059
 30
0.0
  0
VERTEX
  5
579
  8
0
 10
95.783199638465192
 20
115.3562387992806
 30
0.0
  0
VERTEX
  5
57A
  8
0
 10
95.811239173593336
 20
115.1272990702351
 30
0.0
  0
VERTEX
  5
57B
  8
0
 10
95.843847901532214
 20
114.8976945273493
 30
0.0
  0
VERTEX
  5
57C
  8
0
 10
95.881030775829345
 20
114.66711530498
 30
0.0
  0
VERTEX
  5
57D
  8
0
 10
95.901342486226369
 20
114.55136357006739
 30
0.0
  0
VERTEX
  5
57E
  8
0
 10
95.922805249395282
 20
114.43525217799289
 30
0.0
  0
VERTEX
  5
57F
  8
0
 10
95.969201201569376
 20
114.201795141812
 30
0.0
  0
VERTEX
  5
580
  8
0
 10
96.020260951183033
 20
113.96643200597779
 30
0.0
  0
VERTEX
  5
581
  8
0
 10
96.076039354552563
 20
113.7288469875616
 30
0.0
  0
VERTEX
  5
582
  8
0
 10
96.136603988431801
 20
113.48871929097319
 30
0.0
  0
VERTEX
  5
583
  8
0
 10
96.202035419040826
 20
113.24572166066559
 30
0.0
  0
VERTEX
  5
584
  8
0
 10
96.236604997941114
 20
113.1230422214549
 30
0.0
  0
VERTEX
  5
585
  8
0
 10
96.27242755937624
 20
112.9995188929845
 30
0.0
  0
VERTEX
  5
586
  8
0
 10
96.347888118134705
 20
112.7497662929309
 30
0.0
  0
VERTEX
  5
587
  8
0
 10
96.428539144753444
 20
112.4961080608915
 30
0.0
  0
VERTEX
  5
588
  8
0
 10
96.470853302258661
 20
112.3676996929493
 30
0.0
  0
SEQEND
  5
589
  8
0
  0
POLYLINE
  5
423
  8
0
 66
     1
 10
0.0
 20
0.0
 30
0.0
  0
VERTEX
  5
58A
  8
0
 10
96.470853302258661
 20
120.8676996929493
 30
0.0
  0
VERTEX
  5
58B
  8
0
 10
96.428539144753444
 20
120.7392913250072
 30
0.0
  0
VERTEX
  5
58C
  8
0
 10
96.347888118134705
 20
120.4856330929678
 30
0.0
  0
VERTEX
  5
58D
  8
0
 10
96.27242755937624
 20
120.23588049291421
 30
0.0
  0
VERTEX
  5
58E
  8
0
 10
96.236604997941114
 20
120.11235716444379
 30
0.0
  0
VERTEX
  5
58F
  8
0
 10
96.202035419040826
 20
119.98967772523309
 30
0.0
  0
VERTEX
  5
590
  8
0
 10
96.136603988431801
 20
119.74668009492549
 30
0.0
  0
VERTEX
  5
591
  8
0
 10
96.076039354552535
 20
119.50655239833711
 30
0.0
  0
VERTEX
  5
592
  8
0
 10
96.020260951183033
 20
119.26896737992089
 30
0.0
  0
VERTEX
  5
593
  8
0
 10
95.969201201569376
 20
119.0336042440867
 30
0.0
  0
VERTEX
  5
594
  8
0
 10
95.922805249395282
 20
118.80014720790579
 30
0.0
  0
VERTEX
  5
595
  8
0
 10
95.901342486226369
 20
118.68403581583129
 30
0.0
  0
VERTEX
  5
596
  8
0
 10
95.881030775829345
 20
118.5682840809187
 30
0.0
  0
VERTEX
  5
597
  8
0
 10
95.843847901532214
 20
118.3377048585494
 30
0.0
  0
VERTEX
  5
598
  8
0
 10
95.811239173593336
 20
118.10810031566361
 30
0.0
  0
VERTEX
  5
599
  8
0
 10
95.783199638465192
 20
117.8791605866182
 30
0.0
  0
VERTEX
  5
59A
  8
0
 10
95.759737003100838
 20
117.65057371772809
 30
0.0
  0
VERTEX
  5
59B
  8
0
 10
95.740871887697608
 20
117.42202417741019
 30
0.0
  0
VERTEX
  5
59C
  8
0
 10
95.733173458587402
 20
117.3076634440549
 30
0.0
  0
VERTEX
  5
59D
  8
0
 10
95.72663817474168
 20
117.1931913083299
 30
0.0
  0
VERTEX
  5
59E
  8
0
 10
95.717083460453466
 20
116.9637477046483
 30
0.0
  0
VERTEX
  5
59F
  8
0
 10
95.712269616298883
 20
116.733357495908
 30
0.0
  0
VERTEX
  5
5A0
  8
0
 10
95.711663923703838
 20
116.6176996929493
 30
0.0
  0
SEQEND
  5
5A1
  8
0
  0
LINE
  5
424
  8
0
 10
96.470853302258661
 20
120.8676996929493
 30
0.0
 11
99.952474545148988
 21
120.8676996929493
 31
0.0
  0
POLYLINE
  5
425
  8
0
 66
     1
 10
0.0
 20
0.0
 30
0.0
  0
VERTEX
  5
5A2
  8
0
 10
100.7116639237038
 20
116.6176996929493
 30
0.0
  0
VERTEX
  5
5A3
  8
0
 10
100.71105823110869
 20
116.733357495908
 30
0.0
  0
VERTEX
  5
5A4
  8
0
 10
100.7062443869542
 20
116.9637477046483
 30
0.0
  0
VERTEX
  5
5A5
  8
0
 10
100.6966896726659
 20
117.1931913083299
 30
0.0
  0
VERTEX
  5
5A6
  8
0
 10
100.6901543888202
 20
117.3076634440549
 30
0.0
  0
VERTEX
  5
5A7
  8
0
 10
100.68245595971
 20
117.42202417741019
 30
0.0
  0
VERTEX
  5
5A8
  8
0
 10
100.6635908443068
 20
117.65057371772809
 30
0.0
  0
VERTEX
  5
5A9
  8
0
 10
100.6401282089424
 20
117.8791605866181
 30
0.0
  0
VERTEX
  5
5AA
  8
0
 10
100.6120886738143
 20
118.10810031566361
 30
0.0
  0
VERTEX
  5
5AB
  8
0
 10
100.57947994587541
 20
118.3377048585494
 30
0.0
  0
VERTEX
  5
5AC
  8
0
 10
100.5422970715783
 20
118.5682840809187
 30
0.0
  0
VERTEX
  5
5AD
  8
0
 10
100.52198536118129
 20
118.68403581583129
 30
0.0
  0
VERTEX
  5
5AE
  8
0
 10
100.5005225980124
 20
118.80014720790579
 30
0.0
  0
VERTEX
  5
5AF
  8
0
 10
100.4541266458383
 20
119.0336042440867
 30
0.0
  0
VERTEX
  5
5B0
  8
0
 10
100.4030668962246
 20
119.26896737992089
 30
0.0
  0
VERTEX
  5
5B1
  8
0
 10
100.3472884928551
 20
119.50655239833711
 30
0.0
  0
VERTEX
  5
5B2
  8
0
 10
100.2867238589758
 20
119.74668009492549
 30
0.0
  0
VERTEX
  5
5B3
  8
0
 10
100.22129242836679
 20
119.98967772523309
 30
0.0
  0
VERTEX
  5
5B4
  8
0
 10
100.18672284946651
 20
120.11235716444379
 30
0.0
  0
VERTEX
  5
5B5
  8
0
 10
100.15090028803139
 20
120.23588049291421
 30
0.0
  0
VERTEX
  5
5B6
  8
0
 10
100.0754397292729
 20
120.4856330929678
 30
0.0
  0
VERTEX
  5
5B7
  8
0
 10
99.994788702654205
 20
120.7392913250072
 30
0.0
  0
VERTEX
  5
5B8
  8
0
 10
99.952474545148988
 20
120.8676996929493
 30
0.0
  0
SEQEND
  5
5B9
  8
0
  0
LINE
  5
426
  8
0
 10
95.711663923703838
 20
129.36769969294929
 30
0.0
 11
100.7116639237038
 21
129.36769969294929
 31
0.0
  0
POLYLINE
  5
427
  8
0
 66
     1
 10
0.0
 20
0.0
 30
0.0
  0
VERTEX
  5
5BA
  8
0
 10
100.7116639237038
 20
125.1176996929493
 30
0.0
  0
VERTEX
  5
5BB
  8
0
 10
100.71105823110869
 20
125.00204188999071
 30
0.0
  0
VERTEX
  5
5BC
  8
0
 10
100.7062443869542
 20
124.7716516812503
 30
0.0
  0
VERTEX
  5
5BD
  8
0
 10
100.6966896726659
 20
124.5422080775687
 30
0.0
  0
VERTEX
  5
5BE
  8
0
 10
100.6901543888202
 20
124.42773594184381
 30
0.0
  0
VERTEX
  5
5BF
  8
0
 10
100.68245595971
 20
124.31337520848849
 30
0.0
  0
VERTEX
  5
5C0
  8
0
 10
100.6635908443068
 20
124.08482566817059
 30
0.0
  0
VERTEX
  5
5C1
  8
0
 10
100.6401282089424
 20
123.8562387992806
 30
0.0
  0
VERTEX
  5
5C2
  8
0
 10
100.6120886738143
 20
123.6272990702351
 30
0.0
  0
VERTEX
  5
5C3
  8
0
 10
100.57947994587541
 20
123.3976945273493
 30
0.0
  0
VERTEX
  5
5C4
  8
0
 10
100.5422970715783
 20
123.16711530498
 30
0.0
  0
VERTEX
  5
5C5
  8
0
 10
100.52198536118129
 20
123.05136357006739
 30
0.0
  0
VERTEX
  5
5C6
  8
0
 10
100.5005225980124
 20
122.93525217799289
 30
0.0
  0
VERTEX
  5
5C7
  8
0
 10
100.4541266458383
 20
122.701795141812
 30
0.0
  0
VERTEX
  5
5C8
  8
0
 10
100.4030668962246
 20
122.46643200597779
 30
0.0
  0
VERTEX
  5
5C9
  8
0
 10
100.3472884928551
 20
122.2288469875616
 30
0.0
  0
VERTEX
  5
5CA
  8
0
 10
100.2867238589758
 20
121.98871929097319
 30
0.0
  0
VERTEX
  5
5CB
  8
0
 10
100.22129242836679
 20
121.74572166066559
 30
0.0
  0
VERTEX
  5
5CC
  8
0
 10
100.18672284946651
 20
121.6230422214549
 30
0.0
  0
VERTEX
  5
5CD
  8
0
 10
100.15090028803139
 20
121.4995188929845
 30
0.0
  0
VERTEX
  5
5CE
  8
0
 10
100.0754397292729
 20
121.2497662929308
 30
0.0
  0
VERTEX
  5
5CF
  8
0
 10
99.994788702654205
 20
120.9961080608916
 30
0.0
  0
VERTEX
  5
5D0
  8
0
 10
99.952474545148988
 20
120.8676996929493
 30
0.0
  0
SEQEND
  5
5D1
  8
0
  0
POLYLINE
  5
428
  8
0
 66
     1
 10
0.0
 20
0.0
 30
0.0
  0
VERTEX
  5
5D2
  8
0
 10
99.952474545148988
 20
129.36769969294929
 30
0.0
  0
VERTEX
  5
5D3
  8
0
 10
99.994788702654205
 20
129.23929132500709
 30
0.0
  0
VERTEX
  5
5D4
  8
0
 10
100.0754397292729
 20
128.98563309296779
 30
0.0
  0
VERTEX
  5
5D5
  8
0
 10
100.15090028803139
 20
128.73588049291419
 30
0.0
  0
VERTEX
  5
5D6
  8
0
 10
100.18672284946651
 20
128.61235716444381
 30
0.0
  0
VERTEX
  5
5D7
  8
0
 10
100.22129242836679
 20
128.48967772523309
 30
0.0
  0
VERTEX
  5
5D8
  8
0
 10
100.2867238589758
 20
128.24668009492549
 30
0.0
  0
VERTEX
  5
5D9
  8
0
 10
100.3472884928551
 20
128.00655239833711
 30
0.0
  0
VERTEX
  5
5DA
  8
0
 10
100.4030668962246
 20
127.76896737992089
 30
0.0
  0
VERTEX
  5
5DB
  8
0
 10
100.4541266458383
 20
127.5336042440867
 30
0.0
  0
VERTEX
  5
5DC
  8
0
 10
100.5005225980124
 20
127.30014720790579
 30
0.0
  0
VERTEX
  5
5DD
  8
0
 10
100.52198536118129
 20
127.18403581583119
 30
0.0
  0
VERTEX
  5
5DE
  8
0
 10
100.5422970715783
 20
127.0682840809187
 30
0.0
  0
VERTEX
  5
5DF
  8
0
 10
100.57947994587541
 20
126.8377048585494
 30
0.0
  0
VERTEX
  5
5E0
  8
0
 10
100.6120886738143
 20
126.60810031566361
 30
0.0
  0
VERTEX
  5
5E1
  8
0
 10
100.6401282089425
 20
126.3791605866181
 30
0.0
  0
VERTEX
  5
5E2
  8
0
 10
100.6635908443068
 20
126.15057371772809
 30
0.0
  0
VERTEX
  5
5E3
  8
0
 10
100.68245595971
 20
125.92202417741019
 30
0.0
  0
VERTEX
  5
5E4
  8
0
 10
100.6901543888202
 20
125.8076634440549
 30
0.0
  0
VERTEX
  5
5E5
  8
0
 10
100.6966896726659
 20
125.6931913083299
 30
0.0
  0
VERTEX
  5
5E6
  8
0
 10
100.7062443869542
 20
125.4637477046483
 30
0.0
  0
VERTEX
  5
5E7
  8
0
 10
100.71105823110869
 20
125.233357495908
 30
0.0
  0
VERTEX
  5
5E8
  8
0
 10
100.7116639237038
 20
125.1176996929493
 30
0.0
  0
SEQEND
  5
5E9
  8
0
  0
POLYLINE
  5
429
  8
0
 66
     1
 10
0.0
 20
0.0
 30
0.0
  0
VERTEX
  5
5EA
  8
0
 10
95.711663923703838
 20
125.1176996929493
 30
0.0
  0
VERTEX
  5
5EB
  8
0
 10
95.712269616298883
 20
125.233357495908
 30
0.0
  0
VERTEX
  5
5EC
  8
0
 10
95.717083460453466
 20
125.4637477046483
 30
0.0
  0
VERTEX
  5
5ED
  8
0
 10
95.72663817474168
 20
125.6931913083299
 30
0.0
  0
VERTEX
  5
5EE
  8
0
 10
95.733173458587402
 20
125.8076634440549
 30
0.0
  0
VERTEX
  5
5EF
  8
0
 10
95.740871887697608
 20
125.92202417741019
 30
0.0
  0
VERTEX
  5
5F0
  8
0
 10
95.75973700310081
 20
126.15057371772809
 30
0.0
  0
VERTEX
  5
5F1
  8
0
 10
95.783199638465192
 20
126.3791605866181
 30
0.0
  0
VERTEX
  5
5F2
  8
0
 10
95.811239173593336
 20
126.60810031566361
 30
0.0
  0
VERTEX
  5
5F3
  8
0
 10
95.843847901532214
 20
126.8377048585494
 30
0.0
  0
VERTEX
  5
5F4
  8
0
 10
95.881030775829345
 20
127.0682840809187
 30
0.0
  0
VERTEX
  5
5F5
  8
0
 10
95.901342486226369
 20
127.18403581583129
 30
0.0
  0
VERTEX
  5
5F6
  8
0
 10
95.922805249395282
 20
127.30014720790579
 30
0.0
  0
VERTEX
  5
5F7
  8
0
 10
95.969201201569376
 20
127.5336042440867
 30
0.0
  0
VERTEX
  5
5F8
  8
0
 10
96.020260951183033
 20
127.76896737992089
 30
0.0
  0
VERTEX
  5
5F9
  8
0
 10
96.076039354552563
 20
128.00655239833711
 30
0.0
  0
VERTEX
  5
5FA
  8
0
 10
96.136603988431801
 20
128.24668009492549
 30
0.0
  0
VERTEX
  5
5FB
  8
0
 10
96.202035419040826
 20
128.48967772523309
 30
0.0
  0
VERTEX
  5
5FC
  8
0
 10
96.236604997941114
 20
128.61235716444381
 30
0.0
  0
VERTEX
  5
5FD
  8
0
 10
96.27242755937624
 20
128.73588049291419
 30
0.0
  0
VERTEX
  5
5FE
  8
0
 10
96.347888118134705
 20
128.98563309296779
 30
0.0
  0
VERTEX
  5
5FF
  8
0
 10
96.428539144753444
 20
129.23929132500709
 30
0.0
  0
VERTEX
  5
600
  8
0
 10
96.470853302258661
 20
129.36769969294929
 30
0.0
  0
SEQEND
  5
601
  8
0
  0
POLYLINE
  5
42A
  8
0
 66
     1
 10
0.0
 20
0.0
 30
0.0
  0
VERTEX
  5
602
  8
0
 10
96.470853302258661
 20
120.8676996929493
 30
0.0
  0
VERTEX
  5
603
  8
0
 10
96.428539144753444
 20
120.9961080608916
 30
0.0
  0
VERTEX
  5
604
  8
0
 10
96.347888118134705
 20
121.2497662929308
 30
0.0
  0
VERTEX
  5
605
  8
0
 10
96.27242755937624
 20
121.4995188929845
 30
0.0
  0
VERTEX
  5
606
  8
0
 10
96.236604997941114
 20
121.6230422214549
 30
0.0
  0
VERTEX
  5
607
  8
0
 10
96.202035419040826
 20
121.74572166066559
 30
0.0
  0
VERTEX
  5
608
  8
0
 10
96.136603988431801
 20
121.98871929097319
 30
0.0
  0
VERTEX
  5
609
  8
0
 10
96.076039354552535
 20
122.2288469875616
 30
0.0
  0
VERTEX
  5
60A
  8
0
 10
96.020260951183033
 20
122.46643200597779
 30
0.0
  0
VERTEX
  5
60B
  8
0
 10
95.969201201569376
 20
122.701795141812
 30
0.0
  0
VERTEX
  5
60C
  8
0
 10
95.922805249395282
 20
122.93525217799289
 30
0.0
  0
VERTEX
  5
60D
  8
0
 10
95.901342486226369
 20
123.05136357006739
 30
0.0
  0
VERTEX
  5
60E
  8
0
 10
95.881030775829345
 20
123.16711530498
 30
0.0
  0
VERTEX
  5
60F
  8
0
 10
95.843847901532214
 20
123.3976945273493
 30
0.0
  0
VERTEX
  5
610
  8
0
 10
95.811239173593336
 20
123.6272990702351
 30
0.0
  0
VERTEX
  5
611
  8
0
 10
95.783199638465192
 20
123.8562387992805
 30
0.0
  0
VERTEX
  5
612
  8
0
 10
95.759737003100838
 20
124.08482566817059
 30
0.0
  0
VERTEX
  5
613
  8
0
 10
95.740871887697608
 20
124.31337520848849
 30
0.0
  0
VERTEX
  5
614
  8
0
 10
95.733173458587402
 20
124.42773594184381
 30
0.0
  0
VERTEX
  5
615
  8
0
 10
95.72663817474168
 20
124.5422080775687
 30
0.0
  0
VERTEX
  5
616
  8
0
 10
95.717083460453466
 20
124.7716516812503
 30
0.0
  0
VERTEX
  5
617
  8
0
 10
95.712269616298883
 20
125.00204188999071
 30
0.0
  0
VERTEX
  5
618
  8
0
 10
95.711663923703838
 20
125.1176996929493
 30
0.0
  0
SEQEND
  5
619
  8
0
  0
LINE
  5
433
  8
3
 10
100.7116639237038
 20
125.3261996929572
 30
0.0
 11
104.7116639237039
 21
125.3261996929573
 31
0.0
  0
LINE
  5
434
  8
0
 10
95.711663923703838
 20
125.8676996929797
 30
0.0
 11
90.711663923703625
 21
125.8676996929975
 31
0.0
  0
LINE
  5
435
  8
3
 10
100.7116639237038
 20
116.4091996929414
 30
0.0
 11
104.7116639237039
 21
116.4091996929414
 31
0.0
  0
LINE
  5
436
  8
0
 10
95.711663923703838
 20
115.8676996929191
 30
0.0
 11
90.711663923703625
 21
115.8676996929013
 31
0.0
  0
LINE
  5
437
  8
0
 10
96.470853302258703
 20
61.314940855002398
 30
0.0
 11
95.711663923703838
 21
62.629895431226039
 31
0.0
  0
LINE
  5
438
  8
0
 10
95.711663923703838
 20
79.629895431226061
 30
0.0
 11
96.470853302258703
 21
80.944850007449674
 31
0.0
  0
LINE
  5
439
  8
0
 10
100.7116639237038
 20
62.629895431226039
 30
0.0
 11
99.952474545148988
 21
61.314940855002398
 31
0.0
  0
LINE
  5
43A
  8
0
 10
99.952474545148988
 20
80.944850007449674
 30
0.0
 11
100.7116639237038
 21
79.629895431226061
 31
0.0
  0
LINE
  5
43B
  8
0
 10
95.711663923703838
 20
62.629895431226039
 30
0.0
 11
95.711663923703838
 21
79.629895431226061
 31
0.0
  0
LINE
  5
43C
  8
0
 10
100.7116639237038
 20
62.629895431226039
 30
0.0
 11
100.7116639237038
 21
79.629895431226061
 31
0.0
  0
POLYLINE
  5
43D
  8
0
 66
     1
 10
0.0
 20
0.0
 30
0.0
  0
VERTEX
  5
61A
  8
0
 10
96.470853302258703
 20
80.944850007449674
 30
0.0
  0
VERTEX
  5
61B
  8
0
 10
96.428539144753472
 20
80.870713401652068
 30
0.0
  0
VERTEX
  5
61C
  8
0
 10
96.347888118134705
 20
80.724263753101994
 30
0.0
  0
VERTEX
  5
61D
  8
0
 10
96.27242755937624
 20
80.580069022230219
 30
0.0
  0
VERTEX
  5
61E
  8
0
 10
96.236604997941114
 20
80.508752795286654
 30
0.0
  0
VERTEX
  5
61F
  8
0
 10
96.202035419040826
 20
80.437923788034297
 30
0.0
  0
VERTEX
  5
620
  8
0
 10
96.13660398843183
 20
80.29762904076378
 30
0.0
  0
VERTEX
  5
621
  8
0
 10
96.076039354552563
 20
80.158991250498588
 30
0.0
  0
VERTEX
  5
622
  8
0
 10
96.020260951183076
 20
80.021821476160568
 30
0.0
  0
VERTEX
  5
623
  8
0
 10
95.969201201569376
 20
79.885934506329392
 30
0.0
  0
VERTEX
  5
624
  8
0
 10
95.922805249395282
 20
79.751148023646124
 30
0.0
  0
VERTEX
  5
625
  8
0
 10
95.901342486226412
 20
79.684111080175882
 30
0.0
  0
VERTEX
  5
626
  8
0
 10
95.881030775829345
 20
79.617281784864943
 30
0.0
  0
VERTEX
  5
627
  8
0
 10
95.843847901532214
 20
79.484156808760503
 30
0.0
  0
VERTEX
  5
628
  8
0
 10
95.811239173593336
 20
79.351594564118244
 30
0.0
  0
VERTEX
  5
629
  8
0
 10
95.783199638465234
 20
79.21941614992565
 30
0.0
  0
VERTEX
  5
62A
  8
0
 10
95.759737003100838
 20
79.08744145963874
 30
0.0
  0
VERTEX
  5
62B
  8
0
 10
95.740871887697637
 20
78.955488321013064
 30
0.0
  0
VERTEX
  5
62C
  8
0
 10
95.733173458587402
 20
78.889462120825669
 30
0.0
  0
VERTEX
  5
62D
  8
0
 10
95.726638174741694
 20
78.823371602450123
 30
0.0
  0
VERTEX
  5
62E
  8
0
 10
95.717083460453466
 20
78.690902276100715
 30
0.0
  0
VERTEX
  5
62F
  8
0
 10
95.712269616298883
 20
78.557886427065824
 30
0.0
  0
VERTEX
  5
630
  8
0
 10
95.711663923703838
 20
78.49111136339377
 30
0.0
  0
SEQEND
  5
631
  8
0
  0
POLYLINE
  5
43E
  8
0
 66
     1
 10
0.0
 20
0.0
 30
0.0
  0
VERTEX
  5
632
  8
0
 10
95.711663923703838
 20
78.49111136339377
 30
0.0
  0
VERTEX
  5
633
  8
0
 10
95.712269616298883
 20
78.424336299721716
 30
0.0
  0
VERTEX
  5
634
  8
0
 10
95.717083460453466
 20
78.291320450686811
 30
0.0
  0
VERTEX
  5
635
  8
0
 10
95.726638174741694
 20
78.158851124337417
 30
0.0
  0
VERTEX
  5
636
  8
0
 10
95.733173458587402
 20
78.092760605961885
 30
0.0
  0
VERTEX
  5
637
  8
0
 10
95.740871887697637
 20
78.026734405774476
 30
0.0
  0
VERTEX
  5
638
  8
0
 10
95.759737003100838
 20
77.894781267148815
 30
0.0
  0
VERTEX
  5
639
  8
0
 10
95.783199638465234
 20
77.762806576861919
 30
0.0
  0
VERTEX
  5
63A
  8
0
 10
95.811239173593336
 20
77.630628162669325
 30
0.0
  0
VERTEX
  5
63B
  8
0
 10
95.843847901532214
 20
77.498065918027038
 30
0.0
  0
VERTEX
  5
63C
  8
0
 10
95.881030775829345
 20
77.364940941922583
 30
0.0
  0
VERTEX
  5
63D
  8
0
 10
95.901342486226412
 20
77.298111646611659
 30
0.0
  0
VERTEX
  5
63E
  8
0
 10
95.922805249395282
 20
77.231074703141445
 30
0.0
  0
VERTEX
  5
63F
  8
0
 10
95.969201201569376
 20
77.096288220458177
 30
0.0
  0
VERTEX
  5
640
  8
0
 10
96.020260951183076
 20
76.960401250627001
 30
0.0
  0
VERTEX
  5
641
  8
0
 10
96.076039354552563
 20
76.823231476288981
 30
0.0
  0
VERTEX
  5
642
  8
0
 10
96.13660398843183
 20
76.684593686023788
 30
0.0
  0
VERTEX
  5
643
  8
0
 10
96.202035419040826
 20
76.544298938753258
 30
0.0
  0
VERTEX
  5
644
  8
0
 10
96.236604997941114
 20
76.473469931500915
 30
0.0
  0
VERTEX
  5
645
  8
0
 10
96.27242755937624
 20
76.402153704557321
 30
0.0
  0
VERTEX
  5
646
  8
0
 10
96.347888118134705
 20
76.257958973685561
 30
0.0
  0
VERTEX
  5
647
  8
0
 10
96.428539144753472
 20
76.111509325135472
 30
0.0
  0
VERTEX
  5
648
  8
0
 10
96.470853302258703
 20
76.037372719337867
 30
0.0
  0
SEQEND
  5
649
  8
0
  0
POLYLINE
  5
43F
  8
0
 66
     1
 10
0.0
 20
0.0
 30
0.0
  0
VERTEX
  5
64A
  8
0
 10
99.952474545148988
 20
76.037372719337867
 30
0.0
  0
VERTEX
  5
64B
  8
0
 10
99.994788702654205
 20
76.111509325135472
 30
0.0
  0
VERTEX
  5
64C
  8
0
 10
100.0754397292729
 20
76.257958973685561
 30
0.0
  0
VERTEX
  5
64D
  8
0
 10
100.15090028803139
 20
76.402153704557321
 30
0.0
  0
VERTEX
  5
64E
  8
0
 10
100.18672284946651
 20
76.473469931500915
 30
0.0
  0
VERTEX
  5
64F
  8
0
 10
100.22129242836679
 20
76.544298938753258
 30
0.0
  0
VERTEX
  5
650
  8
0
 10
100.2867238589758
 20
76.684593686023788
 30
0.0
  0
VERTEX
  5
651
  8
0
 10
100.3472884928551
 20
76.823231476288981
 30
0.0
  0
VERTEX
  5
652
  8
0
 10
100.4030668962246
 20
76.960401250627001
 30
0.0
  0
VERTEX
  5
653
  8
0
 10
100.4541266458383
 20
77.096288220458177
 30
0.0
  0
VERTEX
  5
654
  8
0
 10
100.5005225980124
 20
77.231074703141445
 30
0.0
  0
VERTEX
  5
655
  8
0
 10
100.52198536118129
 20
77.298111646611659
 30
0.0
  0
VERTEX
  5
656
  8
0
 10
100.5422970715783
 20
77.364940941922583
 30
0.0
  0
VERTEX
  5
657
  8
0
 10
100.57947994587541
 20
77.498065918027038
 30
0.0
  0
VERTEX
  5
658
  8
0
 10
100.6120886738143
 20
77.630628162669353
 30
0.0
  0
VERTEX
  5
659
  8
0
 10
100.6401282089425
 20
77.762806576861919
 30
0.0
  0
VERTEX
  5
65A
  8
0
 10
100.6635908443068
 20
77.894781267148815
 30
0.0
  0
VERTEX
  5
65B
  8
0
 10
100.68245595971
 20
78.026734405774476
 30
0.0
  0
VERTEX
  5
65C
  8
0
 10
100.6901543888202
 20
78.092760605961885
 30
0.0
  0
VERTEX
  5
65D
  8
0
 10
100.6966896726659
 20
78.158851124337417
 30
0.0
  0
VERTEX
  5
65E
  8
0
 10
100.7062443869542
 20
78.29132045068684
 30
0.0
  0
VERTEX
  5
65F
  8
0
 10
100.71105823110869
 20
78.424336299721716
 30
0.0
  0
VERTEX
  5
660
  8
0
 10
100.7116639237038
 20
78.49111136339377
 30
0.0
  0
SEQEND
  5
661
  8
0
  0
POLYLINE
  5
440
  8
0
 66
     1
 10
0.0
 20
0.0
 30
0.0
  0
VERTEX
  5
662
  8
0
 10
100.7116639237038
 20
78.49111136339377
 30
0.0
  0
VERTEX
  5
663
  8
0
 10
100.71105823110869
 20
78.557886427065824
 30
0.0
  0
VERTEX
  5
664
  8
0
 10
100.7062443869542
 20
78.690902276100715
 30
0.0
  0
VERTEX
  5
665
  8
0
 10
100.6966896726659
 20
78.823371602450123
 30
0.0
  0
VERTEX
  5
666
  8
0
 10
100.6901543888202
 20
78.889462120825641
 30
0.0
  0
VERTEX
  5
667
  8
0
 10
100.68245595971
 20
78.955488321013064
 30
0.0
  0
VERTEX
  5
668
  8
0
 10
100.6635908443068
 20
79.08744145963874
 30
0.0
  0
VERTEX
  5
669
  8
0
 10
100.6401282089425
 20
79.21941614992565
 30
0.0
  0
VERTEX
  5
66A
  8
0
 10
100.6120886738143
 20
79.351594564118244
 30
0.0
  0
VERTEX
  5
66B
  8
0
 10
100.57947994587541
 20
79.484156808760503
 30
0.0
  0
VERTEX
  5
66C
  8
0
 10
100.5422970715783
 20
79.617281784864943
 30
0.0
  0
VERTEX
  5
66D
  8
0
 10
100.52198536118129
 20
79.684111080175882
 30
0.0
  0
VERTEX
  5
66E
  8
0
 10
100.5005225980124
 20
79.751148023646124
 30
0.0
  0
VERTEX
  5
66F
  8
0
 10
100.4541266458383
 20
79.885934506329392
 30
0.0
  0
VERTEX
  5
670
  8
0
 10
100.4030668962246
 20
80.021821476160568
 30
0.0
  0
VERTEX
  5
671
  8
0
 10
100.3472884928551
 20
80.158991250498588
 30
0.0
  0
VERTEX
  5
672
  8
0
 10
100.2867238589758
 20
80.29762904076378
 30
0.0
  0
VERTEX
  5
673
  8
0
 10
100.22129242836679
 20
80.437923788034297
 30
0.0
  0
VERTEX
  5
674
  8
0
 10
100.18672284946651
 20
80.508752795286654
 30
0.0
  0
VERTEX
  5
675
  8
0
 10
100.15090028803139
 20
80.580069022230219
 30
0.0
  0
VERTEX
  5
676
  8
0
 10
100.0754397292729
 20
80.724263753101994
 30
0.0
  0
VERTEX
  5
677
  8
0
 10
99.994788702654205
 20
80.870713401652068
 30
0.0
  0
VERTEX
  5
678
  8
0
 10
99.952474545148988
 20
80.944850007449674
 30
0.0
  0
SEQEND
  5
679
  8
0
  0
LINE
  5
441
  8
0
 10
96.470853302258703
 20
76.037372719337867
 30
0.0
 11
99.952474545148988
 21
76.037372719337867
 31
0.0
  0
POLYLINE
  5
442
  8
0
 66
     1
 10
0.0
 20
0.0
 30
0.0
  0
VERTEX
  5
67A
  8
0
 10
96.470853302258703
 20
76.037372719337867
 30
0.0
  0
VERTEX
  5
67B
  8
0
 10
96.428539144753472
 20
75.889099507742628
 30
0.0
  0
VERTEX
  5
67C
  8
0
 10
96.347888118134705
 20
75.596200210642465
 30
0.0
  0
VERTEX
  5
67D
  8
0
 10
96.272427559376268
 20
75.307810748898959
 30
0.0
  0
VERTEX
  5
67E
  8
0
 10
96.236604997941114
 20
75.165178295011771
 30
0.0
  0
VERTEX
  5
67F
  8
0
 10
96.202035419040826
 20
75.023520280507086
 30
0.0
  0
VERTEX
  5
680
  8
0
 10
96.13660398843183
 20
74.742930785966024
 30
0.0
  0
VERTEX
  5
681
  8
0
 10
96.076039354552563
 20
74.465655205435638
 30
0.0
  0
VERTEX
  5
682
  8
0
 10
96.020260951183076
 20
74.191315656759599
 30
0.0
  0
VERTEX
  5
683
  8
0
 10
95.969201201569376
 20
73.919541717097246
 30
0.0
  0
VERTEX
  5
684
  8
0
 10
95.922805249395282
 20
73.649968751730754
 30
0.0
  0
VERTEX
  5
685
  8
0
 10
95.901342486226369
 20
73.515894864790283
 30
0.0
  0
VERTEX
  5
686
  8
0
 10
95.881030775829345
 20
73.382236274168434
 30
0.0
  0
VERTEX
  5
687
  8
0
 10
95.843847901532214
 20
73.115986321959525
 30
0.0
  0
VERTEX
  5
688
  8
0
 10
95.811239173593336
 20
72.850861832674951
 30
0.0
  0
VERTEX
  5
689
  8
0
 10
95.783199638465234
 20
72.586505004289762
 30
0.0
  0
VERTEX
  5
68A
  8
0
 10
95.759737003100838
 20
72.322555623715971
 30
0.0
  0
VERTEX
  5
68B
  8
0
 10
95.740871887697637
 20
72.05864934646462
 30
0.0
  0
VERTEX
  5
68C
  8
0
 10
95.733173458587402
 20
71.926596946089802
 30
0.0
  0
VERTEX
  5
68D
  8
0
 10
95.726638174741694
 20
71.794415909338767
 30
0.0
  0
VERTEX
  5
68E
  8
0
 10
95.717083460453466
 20
71.529477256639922
 30
0.0
  0
VERTEX
  5
68F
  8
0
 10
95.712269616298883
 20
71.263445558570155
 30
0.0
  0
VERTEX
  5
690
  8
0
 10
95.711663923703838
 20
71.129895431226061
 30
0.0
  0
SEQEND
  5
691
  8
0
  0
POLYLINE
  5
443
  8
0
 66
     1
 10
0.0
 20
0.0
 30
0.0
  0
VERTEX
  5
692
  8
0
 10
95.711663923703838
 20
71.129895431226061
 30
0.0
  0
VERTEX
  5
693
  8
0
 10
95.712269616298883
 20
70.996345303881924
 30
0.0
  0
VERTEX
  5
694
  8
0
 10
95.717083460453466
 20
70.730313605812142
 30
0.0
  0
VERTEX
  5
695
  8
0
 10
95.726638174741694
 20
70.465374953113326
 30
0.0
  0
VERTEX
  5
696
  8
0
 10
95.733173458587402
 20
70.333193916362262
 30
0.0
  0
VERTEX
  5
697
  8
0
 10
95.740871887697637
 20
70.201141515987473
 30
0.0
  0
VERTEX
  5
698
  8
0
 10
95.759737003100838
 20
69.937235238736122
 30
0.0
  0
VERTEX
  5
699
  8
0
 10
95.783199638465234
 20
69.673285858162302
 30
0.0
  0
VERTEX
  5
69A
  8
0
 10
95.811239173593336
 20
69.40892902977717
 30
0.0
  0
VERTEX
  5
69B
  8
0
 10
95.843847901532214
 20
69.143804540492596
 30
0.0
  0
VERTEX
  5
69C
  8
0
 10
95.881030775829345
 20
68.877554588283644
 30
0.0
  0
VERTEX
  5
69D
  8
0
 10
95.901342486226412
 20
68.743895997661809
 30
0.0
  0
VERTEX
  5
69E
  8
0
 10
95.922805249395282
 20
68.609822110721353
 30
0.0
  0
VERTEX
  5
69F
  8
0
 10
95.969201201569376
 20
68.340249145354846
 30
0.0
  0
VERTEX
  5
6A0
  8
0
 10
96.020260951183076
 20
68.068475205692494
 30
0.0
  0
VERTEX
  5
6A1
  8
0
 10
96.076039354552563
 20
67.794135657016454
 30
0.0
  0
VERTEX
  5
6A2
  8
0
 10
96.13660398843183
 20
67.516860076486068
 30
0.0
  0
VERTEX
  5
6A3
  8
0
 10
96.202035419040826
 20
67.236270581944979
 30
0.0
  0
VERTEX
  5
6A4
  8
0
 10
96.236604997941114
 20
67.094612567440322
 30
0.0
  0
VERTEX
  5
6A5
  8
0
 10
96.27242755937624
 20
66.951980113553105
 30
0.0
  0
VERTEX
  5
6A6
  8
0
 10
96.347888118134705
 20
66.663590651809614
 30
0.0
  0
VERTEX
  5
6A7
  8
0
 10
96.428539144753472
 20
66.370691354709464
 30
0.0
  0
VERTEX
  5
6A8
  8
0
 10
96.470853302258703
 20
66.222418143114226
 30
0.0
  0
SEQEND
  5
6A9
  8
0
  0
POLYLINE
  5
444
  8
0
 66
     1
 10
0.0
 20
0.0
 30
0.0
  0
VERTEX
  5
6AA
  8
0
 10
99.952474545148988
 20
66.222418143114226
 30
0.0
  0
VERTEX
  5
6AB
  8
0
 10
99.994788702654205
 20
66.370691354709464
 30
0.0
  0
VERTEX
  5
6AC
  8
0
 10
100.0754397292729
 20
66.663590651809614
 30
0.0
  0
VERTEX
  5
6AD
  8
0
 10
100.15090028803139
 20
66.951980113553105
 30
0.0
  0
VERTEX
  5
6AE
  8
0
 10
100.18672284946651
 20
67.094612567440322
 30
0.0
  0
VERTEX
  5
6AF
  8
0
 10
100.22129242836679
 20
67.236270581944979
 30
0.0
  0
VERTEX
  5
6B0
  8
0
 10
100.2867238589759
 20
67.516860076486068
 30
0.0
  0
VERTEX
  5
6B1
  8
0
 10
100.3472884928551
 20
67.794135657016454
 30
0.0
  0
VERTEX
  5
6B2
  8
0
 10
100.4030668962246
 20
68.068475205692494
 30
0.0
  0
VERTEX
  5
6B3
  8
0
 10
100.4541266458383
 20
68.340249145354846
 30
0.0
  0
VERTEX
  5
6B4
  8
0
 10
100.5005225980124
 20
68.609822110721353
 30
0.0
  0
VERTEX
  5
6B5
  8
0
 10
100.52198536118129
 20
68.743895997661838
 30
0.0
  0
VERTEX
  5
6B6
  8
0
 10
100.5422970715783
 20
68.877554588283644
 30
0.0
  0
VERTEX
  5
6B7
  8
0
 10
100.57947994587541
 20
69.143804540492596
 30
0.0
  0
VERTEX
  5
6B8
  8
0
 10
100.6120886738143
 20
69.40892902977717
 30
0.0
  0
VERTEX
  5
6B9
  8
0
 10
100.6401282089425
 20
69.673285858162302
 30
0.0
  0
VERTEX
  5
6BA
  8
0
 10
100.6635908443068
 20
69.937235238736122
 30
0.0
  0
VERTEX
  5
6BB
  8
0
 10
100.68245595971
 20
70.201141515987473
 30
0.0
  0
VERTEX
  5
6BC
  8
0
 10
100.6901543888202
 20
70.333193916362262
 30
0.0
  0
VERTEX
  5
6BD
  8
0
 10
100.6966896726659
 20
70.465374953113326
 30
0.0
  0
VERTEX
  5
6BE
  8
0
 10
100.7062443869542
 20
70.730313605812142
 30
0.0
  0
VERTEX
  5
6BF
  8
0
 10
100.71105823110869
 20
70.996345303881924
 30
0.0
  0
VERTEX
  5
6C0
  8
0
 10
100.7116639237038
 20
71.129895431226061
 30
0.0
  0
SEQEND
  5
6C1
  8
0
  0
POLYLINE
  5
445
  8
0
 66
     1
 10
0.0
 20
0.0
 30
0.0
  0
VERTEX
  5
6C2
  8
0
 10
100.7116639237038
 20
71.129895431226061
 30
0.0
  0
VERTEX
  5
6C3
  8
0
 10
100.71105823110869
 20
71.263445558570155
 30
0.0
  0
VERTEX
  5
6C4
  8
0
 10
100.7062443869542
 20
71.529477256639922
 30
0.0
  0
VERTEX
  5
6C5
  8
0
 10
100.6966896726659
 20
71.794415909338767
 30
0.0
  0
VERTEX
  5
6C6
  8
0
 10
100.6901543888202
 20
71.926596946089802
 30
0.0
  0
VERTEX
  5
6C7
  8
0
 10
100.68245595971
 20
72.05864934646462
 30
0.0
  0
VERTEX
  5
6C8
  8
0
 10
100.6635908443068
 20
72.322555623715971
 30
0.0
  0
VERTEX
  5
6C9
  8
0
 10
100.6401282089425
 20
72.586505004289762
 30
0.0
  0
VERTEX
  5
6CA
  8
0
 10
100.6120886738143
 20
72.850861832674951
 30
0.0
  0
VERTEX
  5
6CB
  8
0
 10
100.57947994587541
 20
73.115986321959525
 30
0.0
  0
VERTEX
  5
6CC
  8
0
 10
100.5422970715783
 20
73.382236274168434
 30
0.0
  0
VERTEX
  5
6CD
  8
0
 10
100.52198536118129
 20
73.515894864790283
 30
0.0
  0
VERTEX
  5
6CE
  8
0
 10
100.5005225980124
 20
73.649968751730754
 30
0.0
  0
VERTEX
  5
6CF
  8
0
 10
100.4541266458383
 20
73.919541717097246
 30
0.0
  0
VERTEX
  5
6D0
  8
0
 10
100.4030668962246
 20
74.191315656759599
 30
0.0
  0
VERTEX
  5
6D1
  8
0
 10
100.3472884928551
 20
74.465655205435638
 30
0.0
  0
VERTEX
  5
6D2
  8
0
 10
100.2867238589758
 20
74.742930785966024
 30
0.0
  0
VERTEX
  5
6D3
  8
0
 10
100.22129242836679
 20
75.023520280507086
 30
0.0
  0
VERTEX
  5
6D4
  8
0
 10
100.18672284946651
 20
75.165178295011771
 30
0.0
  0
VERTEX
  5
6D5
  8
0
 10
100.15090028803139
 20
75.307810748898959
 30
0.0
  0
VERTEX
  5
6D6
  8
0
 10
100.0754397292729
 20
75.596200210642465
 30
0.0
  0
VERTEX
  5
6D7
  8
0
 10
99.994788702654205
 20
75.889099507742628
 30
0.0
  0
VERTEX
  5
6D8
  8
0
 10
99.952474545148988
 20
76.037372719337867
 30
0.0
  0
SEQEND
  5
6D9
  8
0
  0
LINE
  5
446
  8
0
 10
96.470853302258703
 20
66.222418143114226
 30
0.0
 11
99.952474545148988
 21
66.222418143114226
 31
0.0
  0
POLYLINE
  5
447
  8
0
 66
     1
 10
0.0
 20
0.0
 30
0.0
  0
VERTEX
  5
6DA
  8
0
 10
96.470853302258703
 20
66.222418143114226
 30
0.0
  0
VERTEX
  5
6DB
  8
0
 10
96.428539144753472
 20
66.148281537316592
 30
0.0
  0
VERTEX
  5
6DC
  8
0
 10
96.347888118134705
 20
66.001831888766532
 30
0.0
  0
VERTEX
  5
6DD
  8
0
 10
96.272427559376268
 20
65.8576371578948
 30
0.0
  0
VERTEX
  5
6DE
  8
0
 10
96.236604997941114
 20
65.786320930951177
 30
0.0
  0
VERTEX
  5
6DF
  8
0
 10
96.202035419040826
 20
65.715491923698863
 30
0.0
  0
VERTEX
  5
6E0
  8
0
 10
96.13660398843183
 20
65.575197176428304
 30
0.0
  0
VERTEX
  5
6E1
  8
0
 10
96.076039354552563
 20
65.436559386163111
 30
0.0
  0
VERTEX
  5
6E2
  8
0
 10
96.020260951183076
 20
65.299389611825092
 30
0.0
  0
VERTEX
  5
6E3
  8
0
 10
95.969201201569376
 20
65.163502641993915
 30
0.0
  0
VERTEX
  5
6E4
  8
0
 10
95.922805249395282
 20
65.028716159310676
 30
0.0
  0
VERTEX
  5
6E5
  8
0
 10
95.901342486226412
 20
64.961679215840434
 30
0.0
  0
VERTEX
  5
6E6
  8
0
 10
95.881030775829345
 20
64.894849920529495
 30
0.0
  0
VERTEX
  5
6E7
  8
0
 10
95.843847901532214
 20
64.761724944425055
 30
0.0
  0
VERTEX
  5
6E8
  8
0
 10
95.811239173593336
 20
64.629162699782754
 30
0.0
  0
VERTEX
  5
6E9
  8
0
 10
95.783199638465234
 20
64.496984285590187
 30
0.0
  0
VERTEX
  5
6EA
  8
0
 10
95.759737003100838
 20
64.365009595303263
 30
0.0
  0
VERTEX
  5
6EB
  8
0
 10
95.740871887697637
 20
64.233056456677602
 30
0.0
  0
VERTEX
  5
6EC
  8
0
 10
95.733173458587402
 20
64.167030256490193
 30
0.0
  0
VERTEX
  5
6ED
  8
0
 10
95.726638174741694
 20
64.10093973811469
 30
0.0
  0
VERTEX
  5
6EE
  8
0
 10
95.717083460453466
 20
63.968470411765267
 30
0.0
  0
VERTEX
  5
6EF
  8
0
 10
95.712269616298883
 20
63.835454562730391
 30
0.0
  0
VERTEX
  5
6F0
  8
0
 10
95.711663923703838
 20
63.768679499058322
 30
0.0
  0
SEQEND
  5
6F1
  8
0
  0
POLYLINE
  5
448
  8
0
 66
     1
 10
0.0
 20
0.0
 30
0.0
  0
VERTEX
  5
6F2
  8
0
 10
95.711663923703838
 20
63.768679499058322
 30
0.0
  0
VERTEX
  5
6F3
  8
0
 10
95.712269616298883
 20
63.701904435386247
 30
0.0
  0
VERTEX
  5
6F4
  8
0
 10
95.717083460453466
 20
63.568888586351363
 30
0.0
  0
VERTEX
  5
6F5
  8
0
 10
95.726638174741694
 20
63.436419260001948
 30
0.0
  0
VERTEX
  5
6F6
  8
0
 10
95.733173458587402
 20
63.370328741626423
 30
0.0
  0
VERTEX
  5
6F7
  8
0
 10
95.740871887697637
 20
63.304302541439029
 30
0.0
  0
VERTEX
  5
6F8
  8
0
 10
95.759737003100838
 20
63.172349402813353
 30
0.0
  0
VERTEX
  5
6F9
  8
0
 10
95.783199638465234
 20
63.04037471252645
 30
0.0
  0
VERTEX
  5
6FA
  8
0
 10
95.811239173593336
 20
62.908196298333863
 30
0.0
  0
VERTEX
  5
6FB
  8
0
 10
95.843847901532214
 20
62.775634053691569
 30
0.0
  0
VERTEX
  5
6FC
  8
0
 10
95.881030775829345
 20
62.642509077587121
 30
0.0
  0
VERTEX
  5
6FD
  8
0
 10
95.901342486226412
 20
62.57567978227619
 30
0.0
  0
VERTEX
  5
6FE
  8
0
 10
95.922805249395282
 20
62.508642838805969
 30
0.0
  0
VERTEX
  5
6FF
  8
0
 10
95.969201201569376
 20
62.373856356122708
 30
0.0
  0
VERTEX
  5
700
  8
0
 10
96.020260951183076
 20
62.237969386291539
 30
0.0
  0
VERTEX
  5
701
  8
0
 10
96.076039354552563
 20
62.100799611953519
 30
0.0
  0
VERTEX
  5
702
  8
0
 10
96.13660398843183
 20
61.962161821688319
 30
0.0
  0
VERTEX
  5
703
  8
0
 10
96.202035419040826
 20
61.821867074417789
 30
0.0
  0
VERTEX
  5
704
  8
0
 10
96.236604997941114
 20
61.75103806716546
 30
0.0
  0
VERTEX
  5
705
  8
0
 10
96.27242755937624
 20
61.679721840221859
 30
0.0
  0
VERTEX
  5
706
  8
0
 10
96.347888118134705
 20
61.535527109350092
 30
0.0
  0
VERTEX
  5
707
  8
0
 10
96.428539144753472
 20
61.389077460800017
 30
0.0
  0
VERTEX
  5
708
  8
0
 10
96.470853302258703
 20
61.314940855002398
 30
0.0
  0
SEQEND
  5
709
  8
0
  0
POLYLINE
  5
449
  8
0
 66
     1
 10
0.0
 20
0.0
 30
0.0
  0
VERTEX
  5
70A
  8
0
 10
99.952474545148988
 20
61.314940855002398
 30
0.0
  0
VERTEX
  5
70B
  8
0
 10
99.994788702654205
 20
61.389077460800038
 30
0.0
  0
VERTEX
  5
70C
  8
0
 10
100.0754397292729
 20
61.535527109350092
 30
0.0
  0
VERTEX
  5
70D
  8
0
 10
100.15090028803139
 20
61.679721840221859
 30
0.0
  0
VERTEX
  5
70E
  8
0
 10
100.18672284946651
 20
61.75103806716546
 30
0.0
  0
VERTEX
  5
70F
  8
0
 10
100.22129242836679
 20
61.821867074417789
 30
0.0
  0
VERTEX
  5
710
  8
0
 10
100.2867238589758
 20
61.962161821688319
 30
0.0
  0
VERTEX
  5
711
  8
0
 10
100.3472884928551
 20
62.100799611953519
 30
0.0
  0
VERTEX
  5
712
  8
0
 10
100.4030668962246
 20
62.237969386291539
 30
0.0
  0
VERTEX
  5
713
  8
0
 10
100.4541266458383
 20
62.373856356122708
 30
0.0
  0
VERTEX
  5
714
  8
0
 10
100.5005225980124
 20
62.508642838805969
 30
0.0
  0
VERTEX
  5
715
  8
0
 10
100.52198536118129
 20
62.57567978227619
 30
0.0
  0
VERTEX
  5
716
  8
0
 10
100.5422970715783
 20
62.642509077587121
 30
0.0
  0
VERTEX
  5
717
  8
0
 10
100.57947994587541
 20
62.77563405369159
 30
0.0
  0
VERTEX
  5
718
  8
0
 10
100.6120886738143
 20
62.908196298333877
 30
0.0
  0
VERTEX
  5
719
  8
0
 10
100.6401282089425
 20
63.04037471252645
 30
0.0
  0
VERTEX
  5
71A
  8
0
 10
100.6635908443068
 20
63.172349402813353
 30
0.0
  0
VERTEX
  5
71B
  8
0
 10
100.68245595971
 20
63.304302541439029
 30
0.0
  0
VERTEX
  5
71C
  8
0
 10
100.6901543888202
 20
63.370328741626437
 30
0.0
  0
VERTEX
  5
71D
  8
0
 10
100.6966896726659
 20
63.436419260001948
 30
0.0
  0
VERTEX
  5
71E
  8
0
 10
100.7062443869542
 20
63.56888858635137
 30
0.0
  0
VERTEX
  5
71F
  8
0
 10
100.71105823110869
 20
63.701904435386247
 30
0.0
  0
VERTEX
  5
720
  8
0
 10
100.7116639237038
 20
63.768679499058322
 30
0.0
  0
SEQEND
  5
721
  8
0
  0
POLYLINE
  5
44A
  8
0
 66
     1
 10
0.0
 20
0.0
 30
0.0
  0
VERTEX
  5
722
  8
0
 10
100.7116639237038
 20
63.768679499058322
 30
0.0
  0
VERTEX
  5
723
  8
0
 10
100.71105823110869
 20
63.835454562730369
 30
0.0
  0
VERTEX
  5
724
  8
0
 10
100.7062443869542
 20
63.968470411765267
 30
0.0
  0
VERTEX
  5
725
  8
0
 10
100.6966896726659
 20
64.100939738114675
 30
0.0
  0
VERTEX
  5
726
  8
0
 10
100.6901543888202
 20
64.167030256490193
 30
0.0
  0
VERTEX
  5
727
  8
0
 10
100.68245595971
 20
64.233056456677602
 30
0.0
  0
VERTEX
  5
728
  8
0
 10
100.6635908443068
 20
64.365009595303263
 30
0.0
  0
VERTEX
  5
729
  8
0
 10
100.6401282089425
 20
64.496984285590173
 30
0.0
  0
VERTEX
  5
72A
  8
0
 10
100.6120886738143
 20
64.629162699782754
 30
0.0
  0
VERTEX
  5
72B
  8
0
 10
100.57947994587541
 20
64.761724944425026
 30
0.0
  0
VERTEX
  5
72C
  8
0
 10
100.5422970715783
 20
64.894849920529495
 30
0.0
  0
VERTEX
  5
72D
  8
0
 10
100.52198536118129
 20
64.961679215840434
 30
0.0
  0
VERTEX
  5
72E
  8
0
 10
100.5005225980124
 20
65.028716159310676
 30
0.0
  0
VERTEX
  5
72F
  8
0
 10
100.4541266458383
 20
65.163502641993915
 30
0.0
  0
VERTEX
  5
730
  8
0
 10
100.4030668962246
 20
65.299389611825092
 30
0.0
  0
VERTEX
  5
731
  8
0
 10
100.3472884928551
 20
65.436559386163111
 30
0.0
  0
VERTEX
  5
732
  8
0
 10
100.2867238589759
 20
65.575197176428304
 30
0.0
  0
VERTEX
  5
733
  8
0
 10
100.22129242836679
 20
65.715491923698835
 30
0.0
  0
VERTEX
  5
734
  8
0
 10
100.18672284946651
 20
65.786320930951177
 30
0.0
  0
VERTEX
  5
735
  8
0
 10
100.15090028803139
 20
65.857637157894771
 30
0.0
  0
VERTEX
  5
736
  8
0
 10
100.0754397292729
 20
66.001831888766532
 30
0.0
  0
VERTEX
  5
737
  8
0
 10
99.994788702654205
 20
66.148281537316592
 30
0.0
  0
VERTEX
  5
738
  8
0
 10
99.952474545148988
 20
66.222418143114226
 30
0.0
  0
SEQEND
  5
739
  8
0
  0
LINE
  5
44B
  8
0
 10
96.470853302258703
 20
61.314940855002398
 30
0.0
 11
99.952474545148988
 21
61.314940855002398
 31
0.0
  0
LINE
  5
44C
  8
0
 10
96.470853302258703
 20
80.944850007449674
 30
0.0
 11
99.952474545148988
 21
80.944850007449674
 31
0.0
  0
LINE
  5
44D
  8
0
 10
95.711663923703838
 20
76.129895431256301
 30
0.0
 11
90.711663923703625
 21
76.129895431274065
 31
0.0
  0
LINE
  5
44E
  8
3
 10
100.7116639237038
 20
75.588395431234019
 30
0.0
 11
104.7116639237039
 21
75.588395431234005
 31
0.0
  0
LINE
  5
44F
  8
3
 10
100.7116639237038
 20
66.671395431218116
 30
0.0
 11
104.7116639237039
 21
66.671395431218116
 31
0.0
  0
LINE
  5
450
  8
0
 10
95.711663923703838
 20
66.129895431195663
 30
0.0
 11
90.711663923703625
 21
66.129895431177886
 31
0.0
  0
TEXT
  5
504
  8
0
 62
     3
 10
0.0
 20
0.0
 30
0.0
 40
5.0
  1
NDXN10LW-ASUS
  7
STANDARD1
  0
ENDSEC
  0
EOF
