  0
SECTION
  2
HEADER
  9
$ACADVER
  1
AC1009
  9
$INSBASE
 10
0.0
 20
0.0
 30
0.0
  9
$EXTMIN
 10
0.0
 20
-1.4802182810368341
 30
0.0
  9
$EXTMAX
 10
289.7509141170865
 20
160.56760092365579
 30
0.0
  9
$LIMMIN
 10
0.0
 20
0.0
  9
$LIMMAX
 10
385.0
 20
270.0
  9
$ORTHOMODE
 70
     1
  9
$REGENMODE
 70
     1
  9
$FILLMODE
 70
     1
  9
$QTEXTMODE
 70
     0
  9
$MIRRTEXT
 70
     0
  9
$DRAGMODE
 70
     2
  9
$LTSCALE
 40
10.0
  9
$OSMODE
 70
  3071
  9
$ATTMODE
 70
     1
  9
$TEXTSIZE
 40
4.000000000000048
  9
$TRACEWID
 40
0.05
  9
$TEXTSTYLE
  7
STANDARD
  9
$CLAYER
  8
0
  9
$CELTYPE
  6
BYLAYER
  9
$CECOLOR
 62
   256
  9
$DIMSCALE
 40
1.0
  9
$DIMASZ
 40
3.0
  9
$DIMEXO
 40
2.0
  9
$DIMDLI
 40
0.38
  9
$DIMRND
 40
0.0
  9
$DIMDLE
 40
0.0
  9
$DIMEXE
 40
2.0
  9
$DIMTP
 40
0.0
  9
$DIMTM
 40
0.0
  9
$DIMTXT
 40
3.0
  9
$DIMCEN
 40
0.0
  9
$DIMTSZ
 40
0.0
  9
$DIMTOL
 70
     0
  9
$DIMLIM
 70
     0
  9
$DIMTIH
 70
     0
  9
$DIMTOH
 70
     0
  9
$DIMSE1
 70
     0
  9
$DIMSE2
 70
     0
  9
$DIMTAD
 70
     1
  9
$DIMZIN
 70
     0
  9
$DIMBLK
  1

  9
$DIMASO
 70
     0
  9
$DIMSHO
 70
     0
  9
$DIMPOST
  1

  9
$DIMAPOST
  1

  9
$DIMALT
 70
     0
  9
$DIMALTD
 70
     2
  9
$DIMALTF
 40
25.399999999999999
  9
$DIMLFAC
 40
1.0
  9
$DIMTOFL
 70
     1
  9
$DIMTVP
 40
1.6000000000000001
  9
$DIMTIX
 70
     1
  9
$DIMSOXD
 70
     0
  9
$DIMSAH
 70
     0
  9
$DIMBLK1
  1

  9
$DIMBLK2
  1

  9
$DIMSTYLE
  2
STANDARD
  9
$DIMCLRD
 70
     0
  9
$DIMCLRE
 70
     0
  9
$DIMCLRT
 70
     0
  9
$DIMTFAC
 40
1.0
  9
$DIMGAP
 40
1.0
  9
$LUNITS
 70
     2
  9
$LUPREC
 70
     4
  9
$SKETCHINC
 40
0.1
  9
$FILLETRAD
 40
0.0
  9
$AUNITS
 70
     0
  9
$AUPREC
 70
     4
  9
$MENU
  1
E:\r13\win\SUPPORT\ACAD
  9
$ELEVATION
 40
0.0
  9
$PELEVATION
 40
0.0
  9
$THICKNESS
 40
0.0
  9
$LIMCHECK
 70
     0
  9
$BLIPMODE
 70
     0
  9
$CHAMFERA
 40
0.0
  9
$CHAMFERB
 40
0.0
  9
$SKPOLY
 70
     0
  9
$TDCREATE
 40
2450280.598206134
  9
$TDUPDATE
 40
2456597.6895220601
  9
$TDINDWG
 40
0.0554154282
  9
$TDUSRTIMER
 40
0.0554154282
  9
$USRTIMER
 70
     1
  9
$ANGBASE
 50
0.0
  9
$ANGDIR
 70
     0
  9
$PDMODE
 70
     0
  9
$PDSIZE
 40
0.0
  9
$PLINEWID
 40
0.0
  9
$COORDS
 70
     1
  9
$SPLFRAME
 70
     0
  9
$SPLINETYPE
 70
     6
  9
$SPLINESEGS
 70
     8
  9
$ATTDIA
 70
     0
  9
$ATTREQ
 70
     1
  9
$HANDLING
 70
     1
  9
$HANDSEED
  5
73D
  9
$SURFTAB1
 70
     6
  9
$SURFTAB2
 70
     6
  9
$SURFTYPE
 70
     6
  9
$SURFU
 70
     6
  9
$SURFV
 70
     6
  9
$UCSNAME
  2

  9
$UCSORG
 10
0.0
 20
0.0
 30
0.0
  9
$UCSXDIR
 10
1.0
 20
0.0
 30
0.0
  9
$UCSYDIR
 10
0.0
 20
1.0
 30
0.0
  9
$PUCSNAME
  2

  9
$PUCSORG
 10
0.0
 20
0.0
 30
0.0
  9
$PUCSXDIR
 10
1.0
 20
0.0
 30
0.0
  9
$PUCSYDIR
 10
0.0
 20
1.0
 30
0.0
  9
$USERI1
 70
     3
  9
$USERI2
 70
     1
  9
$USERI3
 70
     0
  9
$USERI4
 70
     0
  9
$USERI5
 70
     0
  9
$USERR1
 40
1.0
  9
$USERR2
 40
3.0
  9
$USERR3
 40
3.0
  9
$USERR4
 40
3.0
  9
$USERR5
 40
10.0
  9
$WORLDVIEW
 70
     1
  9
$SHADEDGE
 70
     3
  9
$SHADEDIF
 70
    70
  9
$TILEMODE
 70
     1
  9
$MAXACTVP
 70
    16
  9
$PLIMCHECK
 70
     0
  9
$PEXTMIN
 10
1.0000000000000000E+020
 20
1.0000000000000000E+020
 30
1.0000000000000000E+020
  9
$PEXTMAX
 10
-1.0000000000000000E+020
 20
-1.0000000000000000E+020
 30
-1.0000000000000000E+020
  9
$PLIMMIN
 10
0.0
 20
0.0
  9
$PLIMMAX
 10
12.0
 20
9.0
  9
$UNITMODE
 70
     0
  9
$VISRETAIN
 70
     0
  9
$PLINEGEN
 70
     0
  9
$PSLTSCALE
 70
     0
  0
ENDSEC
  0
SECTION
  2
TABLES
  0
TABLE
  2
VPORT
 70
     1
  0
VPORT
  2
*ACTIVE
 70
     0
 10
0.0
 20
0.0
 11
1.0
 21
1.0
 12
192.49412581440311
 22
134.84202934784381
 13
0.0
 23
0.0
 14
5.0
 24
5.0
 15
10.0
 25
10.0
 16
0.0
 26
0.0
 36
1.0
 17
0.0
 27
0.0
 37
0.0
 40
275.78743625673241
 41
2.304913294797688
 42
50.0
 43
0.0
 44
0.0
 50
0.0
 51
0.0
 71
     0
 72
   500
 73
     1
 74
     0
 75
     0
 76
     0
 77
     0
 78
     2
  0
ENDTAB
  0
TABLE
  2
LTYPE
 70
     4
  0
LTYPE
  2
CONTINUOUS
 70
     0
  3
Solid Line
 72
    65
 73
     0
 40
0.0
  0
LTYPE
  2
CENTER
 70
     0
  3
____ _ ____ _ ____ _ ____ _ ____ _ ____ _ ____
 72
    65
 73
     4
 40
2.0
 49
1.25
 49
-0.25
 49
0.25
 49
-0.25
  0
LTYPE
  2
HIDDEN
 70
     0
  3
_ _ _ _ _ _ _ _ _ _ _ _ _ _ _ _ _ _ _ _ _ _ _
 72
    65
 73
     2
 40
0.375
 49
0.25
 49
-0.125
  0
LTYPE
  2
PHANTOM2
 70
     0
  3
___ _ _ ___ _ _ ___ _ _ ___ _ _
 72
    65
 73
     6
 40
1.25
 49
0.625
 49
-0.125
 49
0.125
 49
-0.125
 49
0.125
 49
-0.125
  0
ENDTAB
  0
TABLE
  2
LAYER
 70
     4
  0
LAYER
  2
0
 70
     0
 62
     7
  6
CONTINUOUS
  0
LAYER
  2
1
 70
     0
 62
     1
  6
CENTER
  0
LAYER
  2
3
 70
     0
 62
     3
  6
CONTINUOUS
  0
LAYER
  2
2
 70
     0
 62
     2
  6
HIDDEN
  0
ENDTAB
  0
TABLE
  2
STYLE
 70
     2
  0
STYLE
  2
STANDARD
 70
     0
 40
0.0
 41
1.0
 50
0.0
 71
     0
 42
4.000000000000048
  3
SIMPLEX
  4
BIGFONT
  0
STYLE
  2
STANDARD1
 70
     0
 40
0.0
 41
1.0
 50
0.0
 71
     0
 42
3.0
  3
txt
  4

  0
ENDTAB
  0
TABLE
  2
VIEW
 70
     0
  0
ENDTAB
  0
TABLE
  2
UCS
 70
     0
  0
ENDTAB
  0
TABLE
  2
APPID
 70
     3
  0
APPID
  2
ACAD
 70
     0
  0
APPID
  2
ACAD_MLEADERVER
 70
     0
  0
APPID
  2
ACAD_NAV_VCDISPLAY
 70
     0
  0
ENDTAB
  0
TABLE
  2
DIMSTYLE
 70
     1
  0
DIMSTYLE
  2
STANDARD
 70
     0
  3

  4

  5

  6

  7

 40
1.0
 41
0.18
 42
0.0625
 43
0.38
 44
0.18
 45
0.0
 46
0.0
 47
0.0
 48
0.0
140
0.18
141
0.09
142
0.0
143
25.399999999999999
144
1.0
145
0.0
146
1.0
147
0.09
 71
     0
 72
     0
 73
     1
 74
     1
 75
     0
 76
     0
 77
     0
 78
     0
170
     0
171
     2
172
     0
173
     0
174
     0
175
     0
176
     0
177
     0
178
     0
  0
ENDTAB
  0
ENDSEC
  0
SECTION
  2
BLOCKS
  0
BLOCK
  8
0
  2
$MODEL_SPACE
 70
     0
 10
0.0
 20
0.0
 30
0.0
  3
$MODEL_SPACE
  1

  0
ENDBLK
  5
560
  8
0
  0
BLOCK
 67
     1
  8
0
  2
$PAPER_SPACE
 70
     0
 10
0.0
 20
0.0
 30
0.0
  3
$PAPER_SPACE
  1

  0
ENDBLK
  5
55E
 67
     1
  8
0
  0
ENDSEC
  0
SECTION
  2
ENTITIES
  0
LINE
  5
2D5
  8
0
 10
57.634810060858058
 20
64.337228261977714
 30
0.0
 11
67.134810060858058
 21
58.852400704675517
 31
0.0
  0
LINE
  5
2D6
  8
0
 10
67.134810060858058
 20
58.852400704675517
 30
0.0
 11
76.634810060857149
 21
64.337228261977714
 31
0.0
  0
LINE
  5
2D7
  8
0
 10
76.634810060857149
 20
64.337228261977714
 30
0.0
 11
76.634810060857149
 21
75.306883376582164
 31
0.0
  0
LINE
  5
2D8
  8
0
 10
76.634810060857149
 20
75.306883376582164
 30
0.0
 11
67.134810060857134
 21
80.791710933880722
 31
0.0
  0
LINE
  5
2D9
  8
0
 10
67.134810060857134
 20
80.791710933880722
 30
0.0
 11
57.634810060856239
 21
75.306883376578526
 31
0.0
  0
LINE
  5
2DA
  8
0
 10
57.634810060856239
 20
75.306883376578526
 30
0.0
 11
57.634810060858058
 21
64.337228261977714
 31
0.0
  0
CIRCLE
  5
2DC
  8
0
 10
67.134810060857035
 20
69.822055819278091
 30
0.0
 40
3.9999999999999849
  0
CIRCLE
  5
2DD
  8
3
 10
67.134810060857035
 20
69.822055819278091
 30
0.0
 40
7.187999999994573
  0
CIRCLE
  5
2DE
  8
0
 10
67.134810060857035
 20
69.822055819278091
 30
0.0
 40
7.9999999999515552
  0
LINE
  5
2DF
  8
1
 10
45.634810060857028
 20
69.822055819278091
 30
0.0
 11
88.634810060856864
 21
69.822055819278091
 31
0.0
  0
LINE
  5
2E0
  8
1
 10
67.134810060857134
 20
91.322055819278035
 30
0.0
 11
67.134810060857134
 21
48.322055819278262
 31
0.0
  0
CIRCLE
  5
2E1
  8
0
 10
67.134810060857035
 20
69.822055819278091
 30
0.0
 40
16.5
  0
CIRCLE
  5
2E8
  8
0
 10
268.25091411708661
 20
69.822055819278134
 30
0.0
 40
16.5
  0
LINE
  5
2E9
  8
1
 10
246.75091411708681
 20
69.822055819278262
 30
0.0
 11
289.7509141170865
 21
69.822055819278262
 31
0.0
  0
LINE
  5
2EA
  8
1
 10
268.25091411708661
 20
48.322055819278148
 30
0.0
 11
268.25091411708661
 21
91.322055819277963
 31
0.0
  0
ARC
  5
2F8
  8
0
 10
201.79042355428689
 20
83.822055819285069
 30
0.0
 40
2.4999999999958362
 50
36.869897645717657
 51
90.0
  0
ARC
  5
2F9
  8
0
 10
201.79042355428689
 20
55.82205581927127
 30
0.0
 40
2.4999999999958362
 50
270.0
 51
323.13010235428231
  0
LINE
  5
2FC
  8
0
 10
179.790423554287
 20
60.322050424480317
 30
0.0
 11
179.790423554287
 21
79.322055819278205
 31
0.0
  0
LINE
  5
2FD
  8
0
 10
178.94191778340891
 20
58.852400713607778
 30
0.0
 11
169.790423554287
 21
58.852400713607778
 31
0.0
  0
LINE
  5
2FE
  8
0
 10
169.790423554287
 20
64.337228266441855
 30
0.0
 11
178.94191778340891
 21
64.337228266441798
 31
0.0
  0
LINE
  5
2FF
  8
0
 10
178.941917783409
 20
80.791710924954316
 30
0.0
 11
169.790423554287
 21
80.791710924954259
 31
0.0
  0
LINE
  5
300
  8
0
 10
169.790423554287
 20
75.306883372113305
 30
0.0
 11
178.94191778340891
 21
75.306883372113305
 31
0.0
  0
LINE
  5
301
  8
0
 10
179.790423554287
 20
79.322055819278205
 30
0.0
 11
178.941917783409
 21
80.791710924954316
 31
0.0
  0
ARC
  5
302
  8
0
 10
174.9343603151473
 20
78.049297148533853
 30
0.0
 40
4.8560632391392371
 50
325.6157527021943
 51
359.99999999999932
  0
ARC
  5
303
  8
0
 10
161.63892925408621
 20
69.822055819277566
 30
0.0
 40
18.151494300200689
 50
342.41204631707052
 51
17.587953682929559
  0
ARC
  5
304
  8
0
 10
174.9343603151473
 20
61.594809095224662
 30
0.0
 40
4.8560632391392371
 50
0.0000000000006616
 51
34.384247297805693
  0
LINE
  5
305
  8
0
 10
179.790423554287
 20
60.322050424480317
 30
0.0
 11
178.941917783409
 21
58.85239531880427
 31
0.0
  0
LINE
  5
306
  8
0
 10
169.790423554287
 20
80.791710924954259
 30
0.0
 11
169.79042355428689
 21
58.852400713607778
 31
0.0
  0
LINE
  5
307
  8
0
 10
180.790423554287
 20
79.322055819278134
 30
0.0
 11
179.790423554287
 21
78.322055819278035
 31
0.0
  0
LINE
  5
308
  8
0
 10
180.79042355428709
 20
60.322055819278148
 30
0.0
 11
179.790423554287
 21
61.322055819278198
 31
0.0
  0
LINE
  5
309
  8
0
 10
191.790423554287
 20
60.322055819278198
 30
0.0
 11
201.79042355428689
 21
53.32205581927542
 31
0.0
  0
LINE
  5
30A
  8
0
 10
191.79042355428689
 20
79.322055819278091
 30
0.0
 11
201.790423554287
 21
86.322055819278148
 31
0.0
  0
LINE
  5
30B
  8
0
 10
180.790423554287
 20
79.322055819278134
 30
0.0
 11
180.790423554287
 21
60.322055819278148
 31
0.0
  0
LINE
  5
30C
  8
0
 10
191.79042355428689
 20
79.322055819278091
 30
0.0
 11
191.790423554287
 21
60.322055819278198
 31
0.0
  0
LINE
  5
30D
  8
0
 10
201.79042355428689
 20
53.322055819278148
 30
0.0
 11
201.790423554287
 21
86.322055819278148
 31
0.0
  0
LINE
  5
310
  8
0
 10
203.790423554287
 20
54.322055819278141
 30
0.0
 11
203.790423554287
 21
85.322055819278148
 31
0.0
  0
LINE
  5
312
  8
0
 10
144.79042355428709
 20
61.822055819288721
 30
0.0
 11
169.79042355428689
 21
61.822055819276223
 31
0.0
  0
LINE
  5
313
  8
0
 10
144.7904235542868
 20
77.822055819267348
 30
0.0
 11
169.790423554287
 21
77.822055819280138
 31
0.0
  0
LINE
  5
314
  8
1
 10
208.790423554287
 20
69.822055819278134
 30
0.0
 11
127.52144537157351
 21
69.822055819278134
 31
0.0
  0
LINE
  5
315
  8
0
 10
143.79042355428689
 20
76.822055819267504
 30
0.0
 11
144.79042355428689
 21
77.822055819267518
 31
0.0
  0
LINE
  5
316
  8
3
 10
166.790423554287
 20
77.010055819272793
 30
0.0
 11
143.97842355429231
 21
77.010055819272793
 31
0.0
  0
LINE
  5
317
  8
0
 10
180.790423554287
 20
79.322055819278091
 30
0.0
 11
191.79042355428689
 21
79.322055819278091
 31
0.0
  0
LINE
  5
318
  8
3
 10
166.79042355428689
 20
62.634055819283503
 30
0.0
 11
143.97842355429231
 21
62.634055819283503
 31
0.0
  0
LINE
  5
319
  8
0
 10
180.790423554287
 20
60.322055819278198
 30
0.0
 11
191.79042355428689
 21
60.322055819278198
 31
0.0
  0
LINE
  5
31A
  8
0
 10
143.79042355428689
 20
62.822055819288842
 30
0.0
 11
144.79042355428689
 21
61.822055819288828
 31
0.0
  0
LINE
  5
31B
  8
0
 10
143.79042355428689
 20
76.822055819267504
 30
0.0
 11
143.79042355428689
 21
62.822055819288842
 31
0.0
  0
LINE
  5
31C
  8
0
 10
144.79042355428689
 20
77.822055819267518
 30
0.0
 11
144.79042355428689
 21
61.822055819288828
 31
0.0
  0
LINE
  5
37A
  8
0
 10
134.09042355428701
 20
73.822055819278148
 30
0.0
 11
134.09042355428701
 21
65.822055819278148
 31
0.0
  0
LINE
  5
37B
  8
0
 10
134.09042355428701
 20
65.822055819278148
 30
0.0
 11
143.79042355428689
 21
65.822055819278148
 31
0.0
  0
LINE
  5
37C
  8
0
 10
134.09042355428701
 20
73.822055819278148
 30
0.0
 11
143.79042355428689
 21
73.822055819278148
 31
0.0
  0
LINE
  5
38E
  8
0
 10
166.790423554287
 20
77.822055819278603
 30
0.0
 11
166.79042355428689
 21
61.822055819277722
 31
0.0
  0
LINE
  5
38F
  8
3
 10
166.790423554287
 20
77.010055819272793
 30
0.0
 11
168.19684881004429
 21
77.822055819279342
 31
0.0
  0
LINE
  5
390
  8
3
 10
166.790423554287
 20
62.634055819283503
 30
0.0
 11
168.19684881004429
 21
61.822055819276947
 31
0.0
  0
LINE
  5
3D7
  8
1
 10
208.790423554287
 20
144.06760092365309
 30
0.0
 11
127.52144537157341
 21
144.06760092365309
 31
0.0
  0
LINE
  5
3D8
  8
0
 10
180.790423554287
 20
134.5676009236532
 30
0.0
 11
191.79042355428689
 21
134.56760092365309
 31
0.0
  0
LINE
  5
3D9
  8
0
 10
180.790423554287
 20
153.567600923653
 30
0.0
 11
191.790423554287
 21
153.567600923653
 31
0.0
  0
LINE
  5
3DA
  8
0
 10
144.79042355428709
 20
152.06760092364249
 30
0.0
 11
169.79042355428689
 21
152.06760092365499
 31
0.0
  0
LINE
  5
3DB
  8
0
 10
144.7904235542868
 20
136.06760092366389
 30
0.0
 11
169.790423554287
 21
136.0676009236511
 31
0.0
  0
LINE
  5
3DC
  8
3
 10
166.790423554287
 20
136.87960092365839
 30
0.0
 11
143.97842355429231
 21
136.87960092365839
 31
0.0
  0
LINE
  5
3DD
  8
3
 10
166.79042355428689
 20
151.25560092364771
 30
0.0
 11
143.97842355429231
 21
151.25560092364771
 31
0.0
  0
LINE
  5
3E0
  8
0
 10
144.79042355428689
 20
136.06760092366369
 30
0.0
 11
144.79042355428689
 21
152.0676009236424
 31
0.0
  0
LINE
  5
3E1
  8
0
 10
143.79042355428689
 20
137.06760092366369
 30
0.0
 11
143.79042355428689
 21
151.0676009236424
 31
0.0
  0
LINE
  5
3E5
  8
0
 10
143.79042355428689
 20
151.0676009236424
 30
0.0
 11
144.79042355428689
 21
152.0676009236424
 31
0.0
  0
LINE
  5
3E8
  8
0
 10
143.79042355428689
 20
137.06760092366369
 30
0.0
 11
144.79042355428689
 21
136.06760092366369
 31
0.0
  0
ARC
  5
3E9
  8
0
 10
165.90942120672381
 20
148.81760092365309
 30
0.0
 40
13.719683889994901
 50
339.7438419996065
 51
20.25615800039342
  0
LINE
  5
3EA
  8
0
 10
169.79042355428689
 20
153.567600923653
 30
0.0
 11
169.79042355428689
 21
134.5676009236532
 31
0.0
  0
LINE
  5
3EB
  8
0
 10
179.79042355428709
 20
153.28818915894601
 30
0.0
 11
179.79042355428709
 21
134.84701268836011
 31
0.0
  0
LINE
  5
3EC
  8
0
 10
180.790423554287
 20
134.56760092365309
 30
0.0
 11
180.790423554287
 21
153.56760092365309
 31
0.0
  0
LINE
  5
3ED
  8
0
 10
179.62910509671869
 20
153.5676009236532
 30
0.0
 11
169.79042355428689
 21
153.567600923653
 31
0.0
  0
LINE
  5
3EE
  8
0
 10
179.62910509671869
 20
153.5676009236532
 30
0.0
 11
179.79042355428709
 21
153.28818915894601
 31
0.0
  0
LINE
  5
3EF
  8
0
 10
180.79042355428709
 20
153.56760092365309
 30
0.0
 11
179.790423554287
 21
152.567600923653
 31
0.0
  0
LINE
  5
3F0
  8
0
 10
179.62910509671869
 20
134.567600923653
 30
0.0
 11
169.79042355428689
 21
134.5676009236532
 31
0.0
  0
LINE
  5
3F1
  8
0
 10
178.78059932068729
 20
144.06760092365309
 30
0.0
 11
169.79042355428689
 21
144.067600923653
 31
0.0
  0
LINE
  5
3F2
  8
0
 10
166.790423554287
 20
136.06760092365261
 30
0.0
 11
166.79042355428689
 21
152.06760092365349
 31
0.0
  0
LINE
  5
3F3
  8
3
 10
166.790423554287
 20
151.25560092364771
 30
0.0
 11
168.19684881004429
 21
152.06760092365431
 31
0.0
  0
LINE
  5
3F4
  8
3
 10
166.790423554287
 20
136.87960092365839
 30
0.0
 11
168.19684881004429
 21
136.0676009236519
 31
0.0
  0
ARC
  5
3F5
  8
0
 10
165.90942120672381
 20
139.31760092365309
 30
0.0
 40
13.719683889994901
 50
339.74384199960662
 51
20.25615800039348
  0
LINE
  5
3F6
  8
0
 10
179.62910509671869
 20
134.567600923653
 30
0.0
 11
179.79042355428709
 21
134.84701268836011
 31
0.0
  0
LINE
  5
3F7
  8
0
 10
180.790423554287
 20
134.56760092365309
 30
0.0
 11
179.790423554287
 21
135.5676009236532
 31
0.0
  0
LINE
  5
3F9
  8
0
 10
191.79042355428689
 20
134.5676009236532
 30
0.0
 11
201.790423554287
 21
127.5676009236531
 31
0.0
  0
LINE
  5
3FA
  8
0
 10
201.79042355428689
 20
160.56760092365309
 30
0.0
 11
201.790423554287
 21
127.5676009236531
 31
0.0
  0
LINE
  5
3FB
  8
0
 10
203.790423554287
 20
159.56760092365309
 30
0.0
 11
203.790423554287
 21
128.56760092365309
 31
0.0
  0
LINE
  5
3FD
  8
0
 10
191.79042355428689
 20
134.5676009236532
 30
0.0
 11
191.790423554287
 21
153.567600923653
 31
0.0
  0
LINE
  5
3FF
  8
0
 10
191.790423554287
 20
153.567600923653
 30
0.0
 11
201.79042355428689
 21
160.56760092365579
 31
0.0
  0
ARC
  5
400
  8
0
 10
201.790423554287
 20
158.06760092366
 30
0.0
 40
2.4999999999958362
 50
36.869897645717657
 51
90.0
  0
ARC
  5
408
  8
0
 10
201.79042355428689
 20
130.0676009236461
 30
0.0
 40
2.4999999999958362
 50
270.0
 51
323.13010235428231
  0
LINE
  5
571
  8
0
 10
134.09042355428701
 20
73.822055819278148
 30
0.0
 11
132.3790701487255
 21
72.834005469898671
 31
0.0
  0
ARC
  5
5A0
  8
0
 10
139.790423554287
 20
69.822055819278177
 30
0.0
 40
8.0
 50
157.88333686751591
 51
202.1166631324846
  0
LINE
  5
5B8
  8
0
 10
132.3790701487255
 20
72.834005469898685
 30
0.0
 11
132.37907014872559
 21
66.810106168657626
 31
0.0
  0
LINE
  5
5B9
  8
0
 10
134.09042355428701
 20
65.822055819278148
 30
0.0
 11
132.3790701487255
 21
66.810106168657626
 31
0.0
  0
LINE
  5
5BA
  8
0
 10
134.09042355428701
 20
140.06760092365309
 30
0.0
 11
132.3790701487255
 21
141.05565127303251
 31
0.0
  0
LINE
  5
5BB
  8
0
 10
132.3790701487255
 20
147.07955057427361
 30
0.0
 11
132.37907014872559
 21
141.05565127303251
 31
0.0
  0
ARC
  5
5BC
  8
0
 10
139.790423554287
 20
144.06760092365309
 30
0.0
 40
8.0
 50
157.88333686751591
 51
202.1166631324846
  0
LINE
  5
5BD
  8
0
 10
134.09042355428701
 20
148.06760092365309
 30
0.0
 11
132.3790701487255
 21
147.07955057427361
 31
0.0
  0
LINE
  5
5BE
  8
0
 10
134.09042355428701
 20
148.06760092365309
 30
0.0
 11
143.79042355428689
 21
148.06760092365309
 31
0.0
  0
LINE
  5
5BF
  8
0
 10
134.09042355428701
 20
140.06760092365309
 30
0.0
 11
143.79042355428689
 21
140.06760092365309
 31
0.0
  0
LINE
  5
5C0
  8
0
 10
134.09042355428701
 20
148.06760092365309
 30
0.0
 11
134.09042355428701
 21
140.06760092365309
 31
0.0
  0
CIRCLE
  5
5C2
  8
0
 10
67.13481006085695
 20
69.822055819278091
 30
0.0
 40
3.0119496506205792
  0
ARC
  5
5DA
  8
2
 10
226.0904235542869
 20
144.06760092365309
 30
0.0
 40
25.999999999999979
 50
149.05845441465479
 51
210.94154558534521
  0
ARC
  5
5E0
  8
2
 10
226.0904235542869
 20
69.822055819278134
 30
0.0
 40
25.999999999999979
 50
149.05845441465479
 51
210.94154558534521
  0
TEXT
  5
6AF
  8
0
 62
     3
 10
0.0
 20
0.0
 30
0.0
 40
5.0
  1
NDXNE16
  7
STANDARD1
  0
ENDSEC
  0
EOF
