  0
SECTION
  2
HEADER
  9
$ACADVER
  1
AC1009
  9
$INSBASE
 10
0.0
 20
0.0
 30
0.0
  9
$EXTMIN
 10
0.0
 20
-1.4802182810368341
 30
0.0
  9
$EXTMAX
 10
179.0
 20
119.49999999729221
 30
0.0
  9
$LIMMIN
 10
0.0
 20
0.0
  9
$LIMMAX
 10
385.0
 20
270.0
  9
$ORTHOMODE
 70
     1
  9
$REGENMODE
 70
     1
  9
$FILLMODE
 70
     1
  9
$QTEXTMODE
 70
     0
  9
$MIRRTEXT
 70
     0
  9
$DRAGMODE
 70
     2
  9
$LTSCALE
 40
10.0
  9
$OSMODE
 70
    37
  9
$ATTMODE
 70
     1
  9
$TEXTSIZE
 40
4.000000000000048
  9
$TRACEWID
 40
0.05
  9
$TEXTSTYLE
  7
STANDARD
  9
$CLAYER
  8
0
  9
$CELTYPE
  6
BYLAYER
  9
$CECOLOR
 62
   256
  9
$DIMSCALE
 40
1.0
  9
$DIMASZ
 40
3.0
  9
$DIMEXO
 40
2.0
  9
$DIMDLI
 40
0.38
  9
$DIMRND
 40
0.0
  9
$DIMDLE
 40
0.0
  9
$DIMEXE
 40
2.0
  9
$DIMTP
 40
0.0
  9
$DIMTM
 40
0.0
  9
$DIMTXT
 40
3.0
  9
$DIMCEN
 40
0.0
  9
$DIMTSZ
 40
0.0
  9
$DIMTOL
 70
     0
  9
$DIMLIM
 70
     0
  9
$DIMTIH
 70
     0
  9
$DIMTOH
 70
     0
  9
$DIMSE1
 70
     0
  9
$DIMSE2
 70
     0
  9
$DIMTAD
 70
     1
  9
$DIMZIN
 70
     0
  9
$DIMBLK
  1

  9
$DIMASO
 70
     0
  9
$DIMSHO
 70
     0
  9
$DIMPOST
  1

  9
$DIMAPOST
  1

  9
$DIMALT
 70
     0
  9
$DIMALTD
 70
     2
  9
$DIMALTF
 40
25.399999999999999
  9
$DIMLFAC
 40
1.0
  9
$DIMTOFL
 70
     1
  9
$DIMTVP
 40
1.6000000000000001
  9
$DIMTIX
 70
     1
  9
$DIMSOXD
 70
     0
  9
$DIMSAH
 70
     0
  9
$DIMBLK1
  1

  9
$DIMBLK2
  1

  9
$DIMSTYLE
  2
STANDARD
  9
$DIMCLRD
 70
     0
  9
$DIMCLRE
 70
     0
  9
$DIMCLRT
 70
     0
  9
$DIMTFAC
 40
1.0
  9
$DIMGAP
 40
1.0
  9
$LUNITS
 70
     2
  9
$LUPREC
 70
     4
  9
$SKETCHINC
 40
0.1
  9
$FILLETRAD
 40
0.0
  9
$AUNITS
 70
     0
  9
$AUPREC
 70
     4
  9
$MENU
  1
E:\r13\win\SUPPORT\ACAD
  9
$ELEVATION
 40
0.0
  9
$PELEVATION
 40
0.0
  9
$THICKNESS
 40
0.0
  9
$LIMCHECK
 70
     0
  9
$BLIPMODE
 70
     0
  9
$CHAMFERA
 40
0.0
  9
$CHAMFERB
 40
0.0
  9
$SKPOLY
 70
     0
  9
$TDCREATE
 40
2450280.598206134
  9
$TDUPDATE
 40
2458249.5924947918
  9
$TDINDWG
 40
0.1194712616
  9
$TDUSRTIMER
 40
0.1194712616
  9
$USRTIMER
 70
     1
  9
$ANGBASE
 50
0.0
  9
$ANGDIR
 70
     0
  9
$PDMODE
 70
     0
  9
$PDSIZE
 40
0.0
  9
$PLINEWID
 40
0.0
  9
$COORDS
 70
     1
  9
$SPLFRAME
 70
     0
  9
$SPLINETYPE
 70
     6
  9
$SPLINESEGS
 70
     8
  9
$ATTDIA
 70
     0
  9
$ATTREQ
 70
     1
  9
$HANDLING
 70
     1
  9
$HANDSEED
  5
FB2
  9
$SURFTAB1
 70
     6
  9
$SURFTAB2
 70
     6
  9
$SURFTYPE
 70
     6
  9
$SURFU
 70
     6
  9
$SURFV
 70
     6
  9
$UCSNAME
  2

  9
$UCSORG
 10
0.0
 20
0.0
 30
0.0
  9
$UCSXDIR
 10
1.0
 20
0.0
 30
0.0
  9
$UCSYDIR
 10
0.0
 20
1.0
 30
0.0
  9
$PUCSNAME
  2

  9
$PUCSORG
 10
0.0
 20
0.0
 30
0.0
  9
$PUCSXDIR
 10
1.0
 20
0.0
 30
0.0
  9
$PUCSYDIR
 10
0.0
 20
1.0
 30
0.0
  9
$USERI1
 70
     3
  9
$USERI2
 70
     1
  9
$USERI3
 70
     0
  9
$USERI4
 70
     0
  9
$USERI5
 70
     0
  9
$USERR1
 40
1.0
  9
$USERR2
 40
3.0
  9
$USERR3
 40
3.0
  9
$USERR4
 40
3.0
  9
$USERR5
 40
10.0
  9
$WORLDVIEW
 70
     1
  9
$SHADEDGE
 70
     3
  9
$SHADEDIF
 70
    70
  9
$TILEMODE
 70
     1
  9
$MAXACTVP
 70
    16
  9
$PLIMCHECK
 70
     0
  9
$PEXTMIN
 10
1.0000000000000000E+020
 20
1.0000000000000000E+020
 30
1.0000000000000000E+020
  9
$PEXTMAX
 10
-1.0000000000000000E+020
 20
-1.0000000000000000E+020
 30
-1.0000000000000000E+020
  9
$PLIMMIN
 10
0.0
 20
0.0
  9
$PLIMMAX
 10
12.0
 20
9.0
  9
$UNITMODE
 70
     0
  9
$VISRETAIN
 70
     0
  9
$PLINEGEN
 70
     0
  9
$PSLTSCALE
 70
     0
  0
ENDSEC
  0
SECTION
  2
TABLES
  0
TABLE
  2
VPORT
 70
     1
  0
VPORT
  2
*ACTIVE
 70
     0
 10
0.0
 20
0.0
 11
1.0
 21
1.0
 12
96.289702481314123
 22
59.014020785057028
 13
0.0
 23
0.0
 14
5.0
 24
5.0
 15
10.0
 25
10.0
 16
0.0
 26
0.0
 36
1.0
 17
0.0
 27
0.0
 37
0.0
 40
122.7530192150882
 41
2.0984455958549222
 42
50.0
 43
0.0
 44
0.0
 50
0.0
 51
0.0
 71
     0
 72
   500
 73
     1
 74
     0
 75
     0
 76
     0
 77
     0
 78
     2
  0
ENDTAB
  0
TABLE
  2
LTYPE
 70
     4
  0
LTYPE
  2
CONTINUOUS
 70
     0
  3
Solid Line
 72
    65
 73
     0
 40
0.0
  0
LTYPE
  2
CENTER
 70
     0
  3
____ _ ____ _ ____ _ ____ _ ____ _ ____ _ ____
 72
    65
 73
     4
 40
2.0
 49
1.25
 49
-0.25
 49
0.25
 49
-0.25
  0
LTYPE
  2
HIDDEN
 70
     0
  3
_ _ _ _ _ _ _ _ _ _ _ _ _ _ _ _ _ _ _ _ _ _ _
 72
    65
 73
     2
 40
0.375
 49
0.25
 49
-0.125
  0
LTYPE
  2
PHANTOM2
 70
     0
  3
___ _ _ ___ _ _ ___ _ _ ___ _ _
 72
    65
 73
     6
 40
1.25
 49
0.625
 49
-0.125
 49
0.125
 49
-0.125
 49
0.125
 49
-0.125
  0
ENDTAB
  0
TABLE
  2
LAYER
 70
     4
  0
LAYER
  2
0
 70
     0
 62
     7
  6
CONTINUOUS
  0
LAYER
  2
1
 70
     0
 62
     1
  6
CENTER
  0
LAYER
  2
3
 70
     0
 62
     3
  6
CONTINUOUS
  0
LAYER
  2
2
 70
     0
 62
     2
  6
HIDDEN
  0
ENDTAB
  0
TABLE
  2
STYLE
 70
     2
  0
STYLE
  2
STANDARD
 70
     0
 40
0.0
 41
1.0
 50
0.0
 71
     0
 42
4.000000000000048
  3
SIMPLEX
  4
BIGFONT
  0
STYLE
  2
STANDARD1
 70
     0
 40
0.0
 41
1.0
 50
0.0
 71
     0
 42
3.0
  3
txt
  4

  0
ENDTAB
  0
TABLE
  2
VIEW
 70
     0
  0
ENDTAB
  0
TABLE
  2
UCS
 70
     0
  0
ENDTAB
  0
TABLE
  2
APPID
 70
     4
  0
APPID
  2
ACAD
 70
     0
  0
APPID
  2
ACAD_MLEADERVER
 70
     0
  0
APPID
  2
ACAD_EXEMPT_FROM_CAD_STANDARDS
 70
     0
  0
APPID
  2
ACAD_NAV_VCDISPLAY
 70
     0
  0
ENDTAB
  0
TABLE
  2
DIMSTYLE
 70
     2
  0
DIMSTYLE
  2
STANDARD
 70
     0
  3

  4

  5

  6

  7

 40
1.0
 41
0.18
 42
0.0625
 43
0.38
 44
0.18
 45
0.0
 46
0.0
 47
0.0
 48
0.0
140
0.18
141
0.09
142
0.0
143
25.399999999999999
144
1.0
145
0.0
146
1.0
147
0.09
 71
     0
 72
     0
 73
     1
 74
     1
 75
     0
 76
     0
 77
     0
 78
     0
170
     0
171
     2
172
     0
173
     0
174
     0
175
     0
176
     0
177
     0
178
     0
  0
DIMSTYLE
  2
ISO-25
 70
     0
  3

  4

  5

  6

  7

 40
1.0
 41
2.5
 42
0.625
 43
3.75
 44
1.25
 45
0.0
 46
0.0
 47
0.0
 48
0.0
140
2.5
141
2.5
142
0.0
143
0.0393700787
144
1.0
145
0.0
146
1.0
147
0.625
 71
     0
 72
     0
 73
     0
 74
     0
 75
     0
 76
     0
 77
     1
 78
     8
170
     0
171
     3
172
     1
173
     0
174
     0
175
     0
176
     0
177
     0
178
     0
  0
ENDTAB
  0
ENDSEC
  0
SECTION
  2
BLOCKS
  0
BLOCK
  8
0
  2
$MODEL_SPACE
 70
     0
 10
0.0
 20
0.0
 30
0.0
  3
$MODEL_SPACE
  1

  0
ENDBLK
  5
3B1
  8
0
  0
BLOCK
 67
     1
  8
0
  2
$PAPER_SPACE
 70
     0
 10
0.0
 20
0.0
 30
0.0
  3
$PAPER_SPACE
  1

  0
ENDBLK
  5
3AF
 67
     1
  8
0
  0
ENDSEC
  0
SECTION
  2
ENTITIES
  0
LINE
  5
2A8
  8
2
 10
17.50000000000119
 20
45.958548112965943
 30
0.0
 11
24.500000000001201
 21
41.917096228637817
 31
0.0
  0
LINE
  5
2A9
  8
2
 10
24.500000000001201
 20
41.917096228637817
 30
0.0
 11
31.500000000000291
 21
45.958548112965943
 31
0.0
  0
LINE
  5
2AA
  8
2
 10
31.500000000000291
 20
45.958548112965943
 30
0.0
 11
31.500000000000291
 21
54.041451881621292
 31
0.0
  0
LINE
  5
2AB
  8
2
 10
31.500000000000291
 20
54.041451881621292
 30
0.0
 11
24.500000000000291
 21
58.082903765947592
 31
0.0
  0
LINE
  5
2AC
  8
2
 10
24.500000000000291
 20
58.082903765947592
 30
0.0
 11
17.499999999999371
 21
54.041451881619473
 31
0.0
  0
LINE
  5
2AD
  8
2
 10
17.499999999999371
 20
54.041451881619473
 30
0.0
 11
17.50000000000119
 21
45.958548112965943
 31
0.0
  0
CIRCLE
  5
2AF
  8
0
 10
24.500000000000291
 20
49.99999999729225
 30
0.0
 40
6.000000000301398
  0
CIRCLE
  5
2B0
  8
3
 10
24.500000000000291
 20
49.99999999729225
 30
0.0
 40
5.1879999999945454
  0
CIRCLE
  5
2B1
  8
0
 10
24.500000000000291
 20
49.99999999729225
 30
0.0
 40
3.0
  0
LINE
  5
2B3
  8
1
 10
10.0
 20
49.99999999729225
 30
0.0
 11
39.0
 21
49.99999999729225
 31
0.0
  0
LINE
  5
2B4
  8
1
 10
24.500000000000291
 20
79.999999999999915
 30
0.0
 11
24.500000000000291
 21
20.0
 31
0.0
  0
LINE
  5
2BF
  8
0
 10
99.499999999998067
 20
56.999999991595793
 30
0.0
 11
98.874785214331382
 21
58.082903766013857
 31
0.0
  0
ARC
  5
2C0
  8
0
 10
92.187392671468672
 20
56.99999999159607
 30
0.0
 40
7.3126073285298174
 50
336.13507441578662
 51
359.99999999997351
  0
ARC
  5
2C1
  8
0
 10
92.187392671468672
 20
43.00000000298823
 30
0.0
 40
7.3126073285298174
 50
0.0000000000264622
 51
23.864925584213399
  0
ARC
  5
2C2
  8
0
 10
86.12521485007079
 20
49.999999997292178
 30
0.0
 40
13.374785149927391
 50
342.4120461339441
 51
17.58795386605594
  0
LINE
  5
2C3
  8
0
 10
99.499999999998067
 20
43.000000002988507
 30
0.0
 11
98.874785214331382
 21
41.917096228570387
 31
0.0
  0
LINE
  5
2CD
  8
0
 10
72.499999999998124
 20
43.999999997244537
 30
0.0
 11
78.507531519798391
 21
43.99999999726333
 31
0.0
  0
LINE
  5
2CE
  8
3
 10
71.726666666640824
 20
44.81199999729759
 30
0.0
 11
78.507531519798405
 21
44.811999997297562
 31
0.0
  0
LINE
  5
2CF
  8
0
 10
72.499999999998408
 20
55.99999999734009
 30
0.0
 11
78.50753151979842
 21
55.99999999732114
 31
0.0
  0
LINE
  5
2D0
  8
3
 10
71.726666666640824
 20
55.187999997286767
 30
0.0
 11
78.507531519798405
 21
55.187999997286767
 31
0.0
  0
LINE
  5
2D1
  8
0
 10
99.499999999998124
 20
56.999999991594649
 30
0.0
 11
99.499999999998124
 21
43.000000002988507
 31
0.0
  0
LINE
  5
2D2
  8
0
 10
91.499999999998124
 20
58.082903766013857
 30
0.0
 11
91.499999999998124
 21
41.917096228570387
 31
0.0
  0
LINE
  5
2D3
  8
0
 10
72.499999999998124
 20
55.999999997339749
 30
0.0
 11
72.499999999998124
 21
43.999999997244537
 31
0.0
  0
LINE
  5
2D4
  8
0
 10
71.499999999998124
 20
54.94999999730382
 30
0.0
 11
71.499999999998124
 21
45.04999999728048
 31
0.0
  0
LINE
  5
2D5
  8
0
 10
67.299999999998107
 20
52.999999997292107
 30
0.0
 11
67.299999999998107
 21
46.999999997292171
 31
0.0
  0
LINE
  5
2D8
  8
0
 10
67.299999999998107
 20
46.999999997292122
 30
0.0
 11
71.499999999998124
 21
46.999999997292122
 31
0.0
  0
LINE
  5
2D9
  8
0
 10
71.499999999998124
 20
45.04999999728048
 30
0.0
 11
72.499999999998124
 21
43.999999997244537
 31
0.0
  0
LINE
  5
2DA
  8
0
 10
91.499999999998124
 20
41.917096228570387
 30
0.0
 11
98.874785214331382
 21
41.917096228570387
 31
0.0
  0
LINE
  5
2DB
  8
0
 10
98.874785214331382
 20
45.958548112945863
 30
0.0
 11
91.499999999998124
 21
45.958548112945799
 31
0.0
  0
LINE
  5
2DE
  8
0
 10
98.874785214331382
 20
54.041451881638487
 30
0.0
 11
91.499999999998124
 21
54.041451881638437
 31
0.0
  0
LINE
  5
2DF
  8
0
 10
91.499999999998124
 20
58.082903766013857
 30
0.0
 11
98.874785214331382
 21
58.082903766013906
 31
0.0
  0
LINE
  5
2E0
  8
0
 10
71.499999999998124
 20
54.94999999730382
 30
0.0
 11
72.499999999998124
 21
55.999999997339749
 31
0.0
  0
LINE
  5
2E1
  8
0
 10
67.299999999998093
 20
52.999999997292122
 30
0.0
 11
71.499999999998124
 21
52.999999997292122
 31
0.0
  0
LINE
  5
2E4
  8
1
 10
60.499999999997897
 20
49.999999997292122
 30
0.0
 11
128.5000000000021
 21
49.999999997292122
 31
0.0
  0
LINE
  5
2EB
  8
1
 10
164.50000000000031
 20
80.000000000000114
 30
0.0
 11
164.50000000000031
 21
20.00000000000021
 31
0.0
  0
LINE
  5
2EC
  8
1
 10
150.0
 20
49.999999997292349
 30
0.0
 11
179.0
 21
49.999999997292349
 31
0.0
  0
LINE
  5
2EF
  8
0
 10
88.499999999998138
 20
55.999999997289621
 30
0.0
 11
88.499999999998138
 21
43.999999997294623
 31
0.0
  0
LINE
  5
2F0
  8
3
 10
88.499999999998124
 20
55.187999997286767
 30
0.0
 11
89.906425255741226
 21
55.999999997285158
 31
0.0
  0
LINE
  5
2F1
  8
3
 10
88.499999999998124
 20
44.811999997297477
 30
0.0
 11
89.906425255741226
 21
43.999999997299078
 31
0.0
  0
LINE
  5
325
  8
1
 10
60.499999999997897
 20
109.99999999729209
 30
0.0
 11
128.5000000000021
 21
109.99999999729209
 31
0.0
  0
LINE
  5
327
  8
0
 10
88.499999999998138
 20
103.99999999729459
 30
0.0
 11
88.499999999998138
 21
115.99999999728961
 31
0.0
  0
LINE
  5
328
  8
0
 10
99.499999999998124
 20
103.2692307665244
 30
0.0
 11
99.499999999998124
 21
116.7307692280599
 31
0.0
  0
LINE
  5
329
  8
0
 10
91.499999999998124
 20
102.99999999729241
 30
0.0
 11
91.499999999998096
 21
116.99999999729189
 31
0.0
  0
ARC
  5
32A
  8
0
 10
89.235318781870816
 20
113.49999999729189
 30
0.0
 40
10.10924076103711
 50
339.74384199958263
 51
20.256158000417251
  0
LINE
  5
32D
  8
0
 10
72.499999999998124
 20
103.9999999972445
 30
0.0
 11
72.499999999998124
 21
115.9999999973397
 31
0.0
  0
LINE
  5
32E
  8
0
 10
71.499999999998124
 20
105.04999999728039
 30
0.0
 11
71.499999999998124
 21
114.94999999730381
 31
0.0
  0
LINE
  5
32F
  8
0
 10
72.499999999998124
 20
115.9999999973397
 30
0.0
 11
78.507531519798391
 21
115.9999999973209
 31
0.0
  0
LINE
  5
330
  8
3
 10
71.726666666640824
 20
115.1879999972867
 30
0.0
 11
78.507531519798405
 21
115.1879999972867
 31
0.0
  0
LINE
  5
331
  8
0
 10
71.499999999998124
 20
114.94999999730381
 30
0.0
 11
72.499999999998124
 21
115.9999999973397
 31
0.0
  0
LINE
  5
333
  8
3
 10
88.499999999998124
 20
115.18799999728679
 30
0.0
 11
89.906425255741226
 21
115.9999999972852
 31
0.0
  0
LINE
  5
334
  8
0
 10
99.344559542907902
 20
116.99999999729189
 30
0.0
 11
91.499999999998096
 21
116.99999999729189
 31
0.0
  0
LINE
  5
336
  8
0
 10
99.344559542907902
 20
116.99999999729189
 30
0.0
 11
99.499999999998124
 21
116.7307692280599
 31
0.0
  0
LINE
  5
337
  8
0
 10
72.499999999998408
 20
103.9999999972442
 30
0.0
 11
78.50753151979842
 21
103.9999999972631
 31
0.0
  0
LINE
  5
338
  8
3
 10
71.726666666640824
 20
104.81199999729751
 30
0.0
 11
78.507531519798405
 21
104.81199999729751
 31
0.0
  0
LINE
  5
33D
  8
0
 10
71.499999999998124
 20
105.04999999728039
 30
0.0
 11
72.499999999998124
 21
103.9999999972445
 31
0.0
  0
LINE
  5
33E
  8
3
 10
88.499999999998124
 20
104.81199999729751
 30
0.0
 11
89.906425255741226
 21
103.9999999972991
 31
0.0
  0
LINE
  5
33F
  8
0
 10
99.344559542907902
 20
102.99999999729241
 30
0.0
 11
91.499999999998124
 21
102.99999999729241
 31
0.0
  0
LINE
  5
340
  8
0
 10
98.719344760568163
 20
109.99999999729209
 30
0.0
 11
91.499999999998053
 21
109.99999999729209
 31
0.0
  0
ARC
  5
341
  8
0
 10
89.235318781870816
 20
106.49999999729241
 30
0.0
 40
10.10924076103711
 50
339.74384199958263
 51
20.256158000417251
  0
LINE
  5
343
  8
0
 10
99.344559542907902
 20
102.99999999729241
 30
0.0
 11
99.499999999998124
 21
103.2692307665244
 31
0.0
  0
LINE
  5
3BF
  8
0
 10
65.918925394800283
 20
52.202636202210179
 30
0.0
 11
67.299999999998136
 21
52.999999997292122
 31
0.0
  0
ARC
  5
3F2
  8
0
 10
71.499999999998124
 20
49.99999999729215
 30
0.0
 40
6.0
 50
158.46275075362351
 51
201.5372492463768
  0
LINE
  5
407
  8
0
 10
65.918925394800283
 20
47.797363792374071
 30
0.0
 11
67.299999999998136
 21
46.999999997292143
 31
0.0
  0
LINE
  5
408
  8
0
 10
65.918925394800297
 20
47.797363792374071
 30
0.0
 11
65.918925394800283
 21
52.202636202210179
 31
0.0
  0
LINE
  5
409
  8
0
 10
65.918925394800297
 20
107.797363792374
 30
0.0
 11
65.918925394800283
 21
112.2026362022101
 31
0.0
  0
LINE
  5
40A
  8
0
 10
65.918925394800283
 20
107.797363792374
 30
0.0
 11
67.299999999998136
 21
106.99999999729209
 31
0.0
  0
ARC
  5
40B
  8
0
 10
71.499999999998124
 20
109.99999999729209
 30
0.0
 40
6.0
 50
158.46275075362351
 51
201.5372492463768
  0
LINE
  5
40C
  8
0
 10
67.299999999998107
 20
106.99999999729209
 30
0.0
 11
71.499999999998124
 21
106.99999999729209
 31
0.0
  0
LINE
  5
40D
  8
0
 10
67.299999999998107
 20
112.99999999729209
 30
0.0
 11
67.299999999998107
 21
106.99999999729209
 31
0.0
  0
LINE
  5
40E
  8
0
 10
65.918925394800283
 20
112.2026362022101
 30
0.0
 11
67.299999999998136
 21
112.99999999729209
 31
0.0
  0
LINE
  5
40F
  8
0
 10
67.299999999998093
 20
112.99999999729209
 30
0.0
 11
71.499999999998124
 21
112.99999999729209
 31
0.0
  0
CIRCLE
  5
411
  8
0
 10
24.500000000000401
 20
49.99999999729225
 30
0.0
 40
2.2026362049180639
  0
LINE
  5
4BB
  8
0
 10
78.50753151979842
 20
59.500001577392112
 30
0.0
 11
79.356037290676397
 21
60.969656683068187
 31
0.0
  0
ARC
  5
4BC
  8
0
 10
83.363594758938049
 20
58.227242906647767
 30
0.0
 40
4.8560632391392371
 50
180.0000000000004
 51
214.3842472978065
  0
ARC
  5
4BD
  8
0
 10
96.659025819999144
 20
49.999996182594863
 30
0.0
 40
18.151494300200689
 50
162.41204631707041
 51
197.58795368292959
  0
ARC
  5
4BE
  8
0
 10
83.363594758938049
 20
41.772754853338569
 30
0.0
 40
4.8560632391392371
 50
145.61575270219339
 51
179.9999999999992
  0
LINE
  5
4BF
  8
0
 10
78.50753151979842
 20
40.499996182594217
 30
0.0
 11
79.356037290676397
 21
39.030341076918148
 31
0.0
  0
LINE
  5
4C0
  8
0
 10
83.659025748919987
 20
44.515168629759131
 30
0.0
 11
79.356037290676511
 21
44.515168629759131
 31
0.0
  0
LINE
  5
4C1
  8
0
 10
79.356037290676397
 20
39.030341076918148
 30
0.0
 11
83.659025748920456
 21
39.030341076918212
 31
0.0
  0
LINE
  5
4C2
  8
0
 10
83.659025748919518
 20
55.484823735430609
 30
0.0
 11
79.356037290676511
 21
55.484823735430609
 31
0.0
  0
LINE
  5
4C3
  8
0
 10
79.356037290676511
 20
60.96965128826465
 30
0.0
 11
83.659028863611695
 21
60.96965128826465
 31
0.0
  0
LINE
  5
4C4
  8
0
 10
78.50753151979842
 20
59.499996182594252
 30
0.0
 11
78.50753151979842
 21
40.499996182594217
 31
0.0
  0
LINE
  5
4C5
  8
0
 10
84.50753151979842
 20
59.499996182594252
 30
0.0
 11
84.50753151979842
 21
40.499996182594217
 31
0.0
  0
LINE
  5
4C6
  8
0
 10
84.50753151979842
 20
40.499996182594217
 30
0.0
 11
83.659025748920456
 21
39.030341076918148
 31
0.0
  0
ARC
  5
4C7
  8
0
 10
79.651468280658776
 20
41.772754853338569
 30
0.0
 40
4.8560632391392371
 50
0.0000000000008142
 51
34.384247297806532
  0
ARC
  5
4C8
  8
0
 10
66.356037219597681
 20
49.999996182594863
 30
0.0
 40
18.151494300200689
 50
342.41204631707029
 51
17.587953682929619
  0
ARC
  5
4C9
  8
0
 10
79.651468280658776
 20
58.227242906647767
 30
0.0
 40
4.8560632391392371
 50
325.61575270219311
 51
359.9999999999992
  0
LINE
  5
4CA
  8
0
 10
84.50753151979842
 20
59.500001577392112
 30
0.0
 11
83.659025748920456
 21
60.969656683068187
 31
0.0
  0
LINE
  5
4CB
  8
0
 10
15.0
 20
55.484827554593529
 30
0.0
 11
15.0
 21
44.515172439990842
 31
0.0
  0
CIRCLE
  5
4CC
  8
0
 10
24.5
 20
49.999999997292129
 30
0.0
 40
9.5
  0
LINE
  5
4CD
  8
0
 10
15.0
 20
44.515172439990842
 30
0.0
 11
24.5
 21
39.030344882689342
 31
0.0
  0
LINE
  5
4CE
  8
0
 10
24.5
 20
39.030344882689342
 30
0.0
 11
34.0
 21
44.515172439990621
 31
0.0
  0
LINE
  5
4CF
  8
0
 10
34.0
 20
44.515172439990621
 30
0.0
 11
34.0
 21
55.484827554593423
 31
0.0
  0
LINE
  5
4D0
  8
0
 10
34.0
 20
55.484827554593423
 30
0.0
 11
24.5
 21
60.969655111895051
 31
0.0
  0
LINE
  5
4D1
  8
0
 10
24.5
 20
60.969655111895051
 30
0.0
 11
15.0
 21
55.484827554593529
 31
0.0
  0
ARC
  5
4D2
  8
0
 10
70.626529172235166
 20
114.74999999729221
 30
0.0
 40
13.719683889994901
 50
339.7438419996061
 51
20.256158000393381
  0
ARC
  5
4D3
  8
0
 10
92.388533867360991
 20
114.74999999729221
 30
0.0
 40
13.719683889994901
 50
159.74384199960619
 51
200.25615800039381
  0
LINE
  5
4D4
  8
0
 10
84.507531519798476
 20
119.2205882325851
 30
0.0
 11
84.507531519798476
 21
100.7794117619992
 31
0.0
  0
LINE
  5
4D5
  8
0
 10
78.507531519798476
 20
100.77941176199801
 30
0.0
 11
78.507531519798476
 21
119.22058823258629
 31
0.0
  0
LINE
  5
4D6
  8
0
 10
84.346213062230106
 20
119.49999999729221
 30
0.0
 11
78.668849977366165
 21
119.49999999729209
 31
0.0
  0
LINE
  5
4D7
  8
0
 10
78.668849977366165
 20
119.49999999729221
 30
0.0
 11
78.507531519797794
 21
119.2205882325851
 31
0.0
  0
LINE
  5
4D8
  8
0
 10
84.346213062230106
 20
119.49999999729221
 30
0.0
 11
84.507531519798476
 21
119.2205882325851
 31
0.0
  0
ARC
  5
4D9
  8
0
 10
70.626529172235166
 20
105.24999999729221
 30
0.0
 40
13.719683889994901
 50
339.7438419996061
 51
20.256158000393821
  0
ARC
  5
4DA
  8
0
 10
92.388533867360991
 20
105.24999999729221
 30
0.0
 40
13.719683889994901
 50
159.74384199960619
 51
200.25615800039381
  0
LINE
  5
4DB
  8
0
 10
83.497707286198761
 20
109.99999999729209
 30
0.0
 11
79.517355753397169
 21
109.99999999729209
 31
0.0
  0
LINE
  5
4DC
  8
0
 10
84.346213062230106
 20
100.49999999729209
 30
0.0
 11
78.668849977366165
 21
100.49999999729209
 31
0.0
  0
LINE
  5
4DD
  8
0
 10
78.668849977366165
 20
100.49999999729209
 30
0.0
 11
78.507531519797794
 21
100.7794117619992
 31
0.0
  0
LINE
  5
4DE
  8
0
 10
84.346213062230106
 20
100.49999999729209
 30
0.0
 11
84.507531519798476
 21
100.7794117619992
 31
0.0
  0
LINE
  5
4FD
  8
0
 10
84.50753151979842
 20
55.99999999730219
 30
0.0
 11
91.499999999998124
 21
55.999999997280099
 31
0.0
  0
LINE
  5
4FE
  8
3
 10
84.507531519798434
 20
55.187999997286767
 30
0.0
 11
88.499999999998138
 21
55.187999997286767
 31
0.0
  0
LINE
  5
4FF
  8
3
 10
84.507531519798434
 20
44.811999997297562
 30
0.0
 11
88.499999999998138
 21
44.811999997297526
 31
0.0
  0
LINE
  5
500
  8
0
 10
84.50753151979842
 20
43.999999997282117
 30
0.0
 11
91.499999999998124
 21
43.99999999730403
 31
0.0
  0
LINE
  5
501
  8
3
 10
84.507531519798434
 20
104.81199999729751
 30
0.0
 11
88.499999999998138
 21
104.81199999729751
 31
0.0
  0
LINE
  5
502
  8
0
 10
84.50753151979842
 20
103.999999997282
 30
0.0
 11
91.499999999998124
 21
103.9999999973042
 31
0.0
  0
LINE
  5
503
  8
0
 10
84.50753151979842
 20
115.9999999973021
 30
0.0
 11
91.499999999998124
 21
115.9999999972802
 31
0.0
  0
LINE
  5
504
  8
3
 10
84.507531519798434
 20
115.1879999972867
 30
0.0
 11
88.499999999998138
 21
115.1879999972867
 31
0.0
  0
TEXT
  5
5B0
  8
0
 62
     3
 10
0.0
 20
0.0
 30
0.0
 40
5.0
  1
NDXT12W
  7
STANDARD1
  0
ARC
  5
90D
  8
0
 10
164.5000000000004
 20
49.999999997292349
 30
0.0
 40
24.999999997292139
 50
261.08173030333643
 51
278.91826932263808
  0
ARC
  5
90E
  8
0
 10
161.08944121931421
 20
28.26596933841827
 30
0.0
 40
3.000000000078709
 50
187.0532143635665
 51
261.08172755855639
  0
ARC
  5
90F
  8
0
 10
167.91055878090549
 20
28.265969338407761
 30
0.0
 40
3.0000000000343152
 50
278.91826932046428
 51
352.9467856364351
  0
ARC
  5
910
  8
0
 10
336.74999999615773
 20
50.000000000000107
 30
0.0
 40
179.9999999961577
 50
172.9467856363932
 51
187.05321436360629
  0
ARC
  5
911
  8
0
 10
-7.7500000066501746
 20
50.000000000000199
 30
0.0
 40
180.0000000066502
 50
352.94678563680628
 51
7.0532143631936624
  0
ARC
  5
912
  8
0
 10
164.5000000000004
 20
50.000000002707992
 30
0.0
 40
24.999999997292139
 50
81.081730677363566
 51
98.918269696663572
  0
ARC
  5
913
  8
0
 10
161.08944121931401
 20
71.73403066158204
 30
0.0
 40
3.000000000078709
 50
98.918272441445225
 51
172.9467856364351
  0
ARC
  5
914
  8
0
 10
167.91055878090521
 20
71.734030661592641
 30
0.0
 40
3.0000000000343152
 50
7.0532143635649049
 51
81.081730679537756
  0
ARC
  5
915
  8
0
 10
24.500000000000291
 20
49.999999997292129
 30
0.0
 40
24.999999997292139
 50
261.08173030333643
 51
278.91826932263808
  0
ARC
  5
916
  8
0
 10
21.08944121931415
 20
28.26596933841806
 30
0.0
 40
3.000000000078709
 50
187.0532143635665
 51
261.08172755855639
  0
ARC
  5
917
  8
0
 10
27.910558780905379
 20
28.26596933840754
 30
0.0
 40
3.0000000000343152
 50
278.91826932046217
 51
352.9467856364351
  0
ARC
  5
91A
  8
0
 10
24.500000000000291
 20
50.000000002707779
 30
0.0
 40
24.999999997292139
 50
81.081730677362344
 51
98.918269696663572
  0
ARC
  5
91B
  8
0
 10
21.08944121931393
 20
71.734030661581826
 30
0.0
 40
3.000000000078709
 50
98.918272441443662
 51
172.9467856364351
  0
ARC
  5
91C
  8
0
 10
27.910558780905149
 20
71.734030661592413
 30
0.0
 40
3.0000000000343152
 50
7.0532143635649049
 51
81.081730679537756
  0
LINE
  5
91F
  8
0
 10
155.0
 20
55.484827554593522
 30
0.0
 11
155.0
 21
44.515172439990828
 31
0.0
  0
ARC
  5
920
  8
0
 10
164.5
 20
49.999999997292122
 30
0.0
 40
9.5
 50
143.76082384402889
 51
216.23917615777231
  0
LINE
  5
921
  8
0
 10
155.0
 20
44.515172439990828
 30
0.0
 11
156.86981918217981
 21
43.435631831823393
 31
0.0
  0
LINE
  5
922
  8
0
 10
172.1301808179019
 20
43.435631831870388
 30
0.0
 11
174.0
 21
44.5151724399906
 31
0.0
  0
LINE
  5
923
  8
0
 10
174.0
 20
44.5151724399906
 30
0.0
 11
174.0
 21
55.484827554593409
 31
0.0
  0
LINE
  5
924
  8
0
 10
174.0
 20
55.484827554593409
 30
0.0
 11
172.13018081810381
 21
56.564368162597162
 31
0.0
  0
LINE
  5
925
  8
0
 10
156.8698191819779
 20
56.564368162644399
 30
0.0
 11
155.0
 21
55.484827554593522
 31
0.0
  0
ARC
  5
926
  8
0
 10
164.5
 20
49.999999997292122
 30
0.0
 40
9.5
 50
323.76082384307972
 51
36.239176155118791
  0
ARC
  5
927
  8
0
 10
114.47261215999811
 20
60.788798388691589
 30
0.0
 40
3.0000000000000062
 50
273.00000000000068
 51
350.06064095432009
  0
ARC
  5
928
  8
0
 10
114.47261215999811
 20
39.211201605991619
 30
0.0
 40
3.000000000000044
 50
9.8760295963615157
 51
86.999999999999304
  0
ARC
  5
929
  8
0
 10
-26.500000000001901
 20
49.999999997291638
 30
0.0
 40
150.00000000000401
 50
350.76958536550262
 51
9.2304146344973912
  0
LINE
  5
92A
  8
0
 10
114.6296200286981
 20
57.792909784391611
 30
0.0
 11
99.999314767398118
 21
57.026167975491603
 31
0.0
  0
LINE
  5
92B
  8
0
 10
99.999314767398118
 20
42.973832019191597
 30
0.0
 11
114.6296200286981
 21
42.207090210191602
 31
0.0
  0
LINE
  5
92C
  8
0
 10
99.999314767398118
 20
57.026167975491603
 30
0.0
 11
99.499999999898137
 21
56.499999997291582
 31
0.0
  0
LINE
  5
92D
  8
0
 10
99.499999999898137
 20
43.499999997291582
 30
0.0
 11
99.999314767398118
 21
42.973832019091617
 31
0.0
  0
ARC
  5
92E
  8
0
 10
120.5706370168981
 20
73.9003708617916
 30
0.0
 40
1.0000000000000211
 50
9.2304019982964185
 51
88.377049568499558
  0
ARC
  5
92F
  8
0
 10
120.5706370168981
 20
26.099629132891611
 30
0.0
 40
1.0000000000000171
 50
271.6229504315005
 51
350.76959800170363
  0
ARC
  5
930
  8
0
 10
117.0614056378981
 20
74.499999997291582
 30
0.0
 40
0.5000000000000129
 50
88.377049568499558
 51
180.0
  0
LINE
  5
931
  8
0
 10
116.5614056378981
 20
74.499999997291582
 30
0.0
 11
116.5646310481073
 21
73.795499166496967
 31
0.0
  0
ARC
  5
932
  8
0
 10
117.0614056378981
 20
25.499999997291582
 30
0.0
 40
0.5000000000000129
 50
180.0
 51
271.6229504315005
  0
LINE
  5
933
  8
0
 10
116.5646310480932
 20
26.204500828385139
 30
0.0
 11
116.5614056378981
 21
25.499999997291582
 31
0.0
  0
LINE
  5
934
  8
0
 10
117.0755666582981
 20
25.000200572091611
 30
0.0
 11
120.5989590577981
 21
25.100030282291591
 31
0.0
  0
LINE
  5
935
  8
0
 10
120.5989590577981
 20
74.899969712291579
 30
0.0
 11
117.0755666582981
 21
74.999799422591593
 31
0.0
  0
ARC
  5
936
  8
0
 10
107.0576754715981
 20
57.988720424191619
 30
0.0
 40
10.41693064504987
 50
316.6261560265998
 51
358.72661263549981
  0
ARC
  5
937
  8
0
 10
106.7412045434981
 20
41.881332976791597
 30
0.0
 40
10.736914415988061
 50
1.9291390254027789
 51
42.718092312500453
  0
ARC
  5
938
  8
0
 10
-53.812734715001909
 20
55.985825922991701
 30
0.0
 40
171.29392777630079
 50
0.592522550300315
 51
5.3987889683968104
  0
ARC
  5
939
  8
0
 10
-52.541107651101917
 20
43.947627601991648
 30
0.0
 40
170.0216889170336
 50
354.58321818750039
 51
359.42547029379608
  0
POLYLINE
  5
93A
  8
0
 66
     1
 10
0.0
 20
0.0
 30
0.0
 70
   128
  0
VERTEX
  5
FA8
  8
0
 10
114.6296200286981
 20
50.834833390691578
 30
0.0
  0
VERTEX
  5
FA9
  8
0
 10
114.13799570829811
 20
50.527264945391607
 30
0.0
  0
VERTEX
  5
FAA
  8
0
 10
113.95632632209811
 20
50.3514951503916
 30
0.0
  0
VERTEX
  5
FAB
  8
0
 10
113.8304263050981
 20
50.128905709391631
 30
0.0
  0
VERTEX
  5
FAC
  8
0
 10
113.8112146744981
 20
49.982466439191569
 30
0.0
  0
VERTEX
  5
FAD
  8
0
 10
113.84180294109809
 20
49.837902483191613
 30
0.0
  0
VERTEX
  5
FAE
  8
0
 10
113.9491364664981
 20
49.657305159191587
 30
0.0
  0
VERTEX
  5
FAF
  8
0
 10
114.2455752761981
 20
49.392082172991593
 30
0.0
  0
VERTEX
  5
FB0
  8
0
 10
114.6296200286981
 20
49.165166603891578
 30
0.0
  0
SEQEND
  5
FB1
  8
0
  0
ARC
  5
93B
  8
0
 10
306.66833798819812
 20
9.4643997186915954
 30
0.0
 40
190.8393313170323
 50
174.4571513872983
 51
174.96764410390031
  0
ARC
  5
93C
  8
0
 10
289.44513214219819
 20
88.941610556391595
 30
0.0
 40
173.54271044552411
 50
185.00691585770349
 51
185.56828865100209
  0
LINE
  5
93D
  8
0
 10
99.999314767398118
 20
57.026167975491603
 30
0.0
 11
99.999314767398118
 21
42.973832019191597
 31
0.0
  0
LINE
  5
93E
  8
0
 10
114.6296200286981
 20
50.834833390691578
 30
0.0
 11
114.6296200286981
 21
57.792909784391611
 31
0.0
  0
LINE
  5
93F
  8
0
 10
114.6296200286981
 20
42.207090210191602
 30
0.0
 11
114.6296200286981
 21
49.165166603891578
 31
0.0
  0
LINE
  5
940
  8
0
 10
116.5614056378981
 20
115.5715272052922
 30
0.0
 11
116.5614056378981
 21
104.4440496321921
 31
0.0
  0
ARC
  5
941
  8
0
 10
-26.500000000001879
 20
109.99999999729221
 30
0.0
 40
150.00000000000401
 50
357.03839942249999
 51
2.961600577500036
  0
LINE
  5
942
  8
0
 10
123.299657876781
 20
117.74999999729209
 30
0.0
 11
113.8108525157981
 21
117.74999999729209
 31
0.0
  0
LINE
  5
943
  8
0
 10
113.8108525157981
 20
102.24999999729209
 30
0.0
 11
123.299657876781
 21
102.24999999729209
 31
0.0
  0
LINE
  5
944
  8
0
 10
113.8108525157981
 20
117.74999999729209
 30
0.0
 11
99.999314767398118
 21
117.0261679753922
 31
0.0
  0
LINE
  5
945
  8
0
 10
99.999314767398118
 20
102.9738320191921
 30
0.0
 11
113.8108525157981
 21
102.24999999729209
 31
0.0
  0
LINE
  5
946
  8
0
 10
99.999314767398118
 20
117.0261679754921
 30
0.0
 11
99.499999999898137
 21
116.49999999729209
 31
0.0
  0
LINE
  5
947
  8
0
 10
99.499999999898137
 20
103.49999999729209
 30
0.0
 11
99.999314767398118
 21
102.9738320190922
 31
0.0
  0
LINE
  5
948
  8
0
 10
121.557688307598
 20
115.9632000132921
 30
0.0
 11
121.557688307598
 21
104.03679998139209
 31
0.0
  0
ARC
  5
949
  8
0
 10
122.35712131239811
 20
115.8933743220921
 30
0.0
 40
0.8024766390720298
 50
141.961200210502
 51
175.00822469989981
  0
ARC
  5
94A
  8
0
 10
118.5519523279969
 20
115.60540616477149
 30
0.0
 40
1.990834977932227
 50
156.85707276009489
 51
180.97507584290989
  0
LINE
  5
94B
  8
0
 10
116.7213252324981
 20
116.3878563845921
 30
0.0
 11
121.7250958016981
 21
116.3878563845921
 31
0.0
  0
ARC
  5
94C
  8
0
 10
122.514344525098
 20
104.1686060072921
 30
0.0
 40
0.965693505729466
 50
187.84469951939579
 51
215.18587557020189
  0
LINE
  5
94D
  8
0
 10
121.7250958016981
 20
103.6121436099922
 30
0.0
 11
116.7213252324981
 21
103.6121436099922
 31
0.0
  0
ARC
  5
94E
  8
0
 10
119.1932749181703
 20
104.5186572363715
 30
0.0
 40
2.6329265472173091
 50
181.6237722668275
 51
200.13900186706269
  0
ARC
  5
94F
  8
0
 10
-138.0410624947927
 20
418.25417789533162
 30
0.0
 40
398.24833089230862
 50
310.71310615843453
 51
311.01264126549779
  0
ARC
  5
950
  8
0
 10
115.34360996889809
 20
105.5039830138921
 30
0.0
 40
12.26488081500891
 50
80.006406772700061
 51
86.82183384327908
  0
ARC
  5
951
  8
0
 10
113.0552616906981
 20
119.5243455147922
 30
0.0
 40
4.8246850629288929
 50
319.45146185829827
 51
336.27012458739961
  0
ARC
  5
952
  8
0
 10
115.1833648429981
 20
117.25162253019209
 30
0.0
 40
15.00990440318416
 50
271.90341220614869
 51
278.77051326830019
  0
ARC
  5
953
  8
0
 10
113.2871404025981
 20
100.6213329261921
 30
0.0
 40
4.5539624496332181
 50
23.22600508019752
 51
41.052408474101163
  0
LINE
  5
954
  8
0
 10
114.6296200286981
 20
102.2519359710921
 30
0.0
 11
114.6296200286981
 21
117.74806402359209
 31
0.0
  0
LINE
  5
955
  8
0
 10
99.999314767398118
 20
117.0261679753922
 30
0.0
 11
99.999314767398118
 21
102.9738320191921
 31
0.0
  0
ARC
  5
956
  8
0
 10
-138.0410624947927
 20
-198.25417790064739
 30
0.0
 40
398.24833089230862
 50
48.987358734504497
 51
49.286893841567853
  0
ARC
  5
9F3
  8
0
 10
196.75000007775759
 20
49.999999999999901
 30
0.0
 40
179.9999999961577
 50
172.9467856363936
 51
177.91004872922659
  0
ARC
  5
9F4
  8
0
 10
-147.74999992505019
 20
49.999999999999993
 30
0.0
 40
180.0000000066502
 50
352.94678563680628
 51
357.91004875824569
  0
ARC
  5
9F6
  8
0
 10
24.500000000000401
 20
49.99999999729225
 30
0.0
 40
10.84771666723927
 50
91.135089319959278
 51
134.3484299003687
  0
ARC
  5
9F7
  8
0
 10
24.500000000000401
 20
49.99999999729225
 30
0.0
 40
10.84771666723927
 50
45.651568841083737
 51
88.864910680044787
  0
ARC
  5
9F8
  8
0
 10
24.500000000000401
 20
49.99999999729225
 30
0.0
 40
10.84771666723927
 50
271.13508931995642
 51
314.34843115711459
  0
ARC
  5
9FA
  8
0
 10
24.500000000000401
 20
49.99999999729225
 30
0.0
 40
10.84771666723927
 50
225.65157010143261
 51
268.86491068003949
  0
ARC
  5
9FB
  8
0
 10
-147.74999992505019
 20
49.999999999999993
 30
0.0
 40
180.0000000066502
 50
2.0899512399919802
 51
7.0532143631936624
  0
ARC
  5
9FC
  8
0
 10
196.75000007775759
 20
49.999999999999901
 30
0.0
 40
179.9999999961577
 50
182.08995127253559
 51
187.05321436360629
  0
ENDSEC
  0
EOF
