  0
SECTION
  2
HEADER
  9
$ACADVER
  1
AC1009
  9
$INSBASE
 10
0.0
 20
0.0
 30
0.0
  9
$EXTMIN
 10
0.0
 20
-1.4802182810368341
 30
0.0
  9
$EXTMAX
 10
224.00000000000011
 20
146.99999873431409
 30
0.0
  9
$LIMMIN
 10
0.0
 20
0.0
  9
$LIMMAX
 10
385.0
 20
270.0
  9
$ORTHOMODE
 70
     1
  9
$REGENMODE
 70
     1
  9
$FILLMODE
 70
     1
  9
$QTEXTMODE
 70
     0
  9
$MIRRTEXT
 70
     0
  9
$DRAGMODE
 70
     2
  9
$LTSCALE
 40
10.0
  9
$OSMODE
 70
    37
  9
$ATTMODE
 70
     1
  9
$TEXTSIZE
 40
4.000000000000048
  9
$TRACEWID
 40
0.05
  9
$TEXTSTYLE
  7
STANDARD
  9
$CLAYER
  8
0
  9
$CELTYPE
  6
BYLAYER
  9
$CECOLOR
 62
   256
  9
$DIMSCALE
 40
1.0
  9
$DIMASZ
 40
3.0
  9
$DIMEXO
 40
2.0
  9
$DIMDLI
 40
0.38
  9
$DIMRND
 40
0.0
  9
$DIMDLE
 40
0.0
  9
$DIMEXE
 40
2.0
  9
$DIMTP
 40
0.0
  9
$DIMTM
 40
0.0
  9
$DIMTXT
 40
3.0
  9
$DIMCEN
 40
0.0
  9
$DIMTSZ
 40
0.0
  9
$DIMTOL
 70
     0
  9
$DIMLIM
 70
     0
  9
$DIMTIH
 70
     0
  9
$DIMTOH
 70
     0
  9
$DIMSE1
 70
     0
  9
$DIMSE2
 70
     0
  9
$DIMTAD
 70
     1
  9
$DIMZIN
 70
     0
  9
$DIMBLK
  1

  9
$DIMASO
 70
     0
  9
$DIMSHO
 70
     0
  9
$DIMPOST
  1

  9
$DIMAPOST
  1

  9
$DIMALT
 70
     0
  9
$DIMALTD
 70
     2
  9
$DIMALTF
 40
25.399999999999999
  9
$DIMLFAC
 40
1.0
  9
$DIMTOFL
 70
     1
  9
$DIMTVP
 40
1.6000000000000001
  9
$DIMTIX
 70
     1
  9
$DIMSOXD
 70
     0
  9
$DIMSAH
 70
     0
  9
$DIMBLK1
  1

  9
$DIMBLK2
  1

  9
$DIMSTYLE
  2
STANDARD
  9
$DIMCLRD
 70
     0
  9
$DIMCLRE
 70
     0
  9
$DIMCLRT
 70
     0
  9
$DIMTFAC
 40
1.0
  9
$DIMGAP
 40
1.0
  9
$LUNITS
 70
     2
  9
$LUPREC
 70
     4
  9
$SKETCHINC
 40
0.1
  9
$FILLETRAD
 40
0.0
  9
$AUNITS
 70
     0
  9
$AUPREC
 70
     4
  9
$MENU
  1
E:\r13\win\SUPPORT\ACAD
  9
$ELEVATION
 40
0.0
  9
$PELEVATION
 40
0.0
  9
$THICKNESS
 40
0.0
  9
$LIMCHECK
 70
     0
  9
$BLIPMODE
 70
     0
  9
$CHAMFERA
 40
0.0
  9
$CHAMFERB
 40
0.0
  9
$SKPOLY
 70
     0
  9
$TDCREATE
 40
2450280.598206134
  9
$TDUPDATE
 40
2458249.5925123268
  9
$TDINDWG
 40
0.1195802778
  9
$TDUSRTIMER
 40
0.1195802778
  9
$USRTIMER
 70
     1
  9
$ANGBASE
 50
0.0
  9
$ANGDIR
 70
     0
  9
$PDMODE
 70
     0
  9
$PDSIZE
 40
0.0
  9
$PLINEWID
 40
0.0
  9
$COORDS
 70
     1
  9
$SPLFRAME
 70
     0
  9
$SPLINETYPE
 70
     6
  9
$SPLINESEGS
 70
     8
  9
$ATTDIA
 70
     0
  9
$ATTREQ
 70
     1
  9
$HANDLING
 70
     1
  9
$HANDSEED
  5
10C9
  9
$SURFTAB1
 70
     6
  9
$SURFTAB2
 70
     6
  9
$SURFTYPE
 70
     6
  9
$SURFU
 70
     6
  9
$SURFV
 70
     6
  9
$UCSNAME
  2

  9
$UCSORG
 10
0.0
 20
0.0
 30
0.0
  9
$UCSXDIR
 10
1.0
 20
0.0
 30
0.0
  9
$UCSYDIR
 10
0.0
 20
1.0
 30
0.0
  9
$PUCSNAME
  2

  9
$PUCSORG
 10
0.0
 20
0.0
 30
0.0
  9
$PUCSXDIR
 10
1.0
 20
0.0
 30
0.0
  9
$PUCSYDIR
 10
0.0
 20
1.0
 30
0.0
  9
$USERI1
 70
     3
  9
$USERI2
 70
     1
  9
$USERI3
 70
     0
  9
$USERI4
 70
     0
  9
$USERI5
 70
     0
  9
$USERR1
 40
1.0
  9
$USERR2
 40
3.0
  9
$USERR3
 40
3.0
  9
$USERR4
 40
3.0
  9
$USERR5
 40
10.0
  9
$WORLDVIEW
 70
     1
  9
$SHADEDGE
 70
     3
  9
$SHADEDIF
 70
    70
  9
$TILEMODE
 70
     1
  9
$MAXACTVP
 70
    16
  9
$PLIMCHECK
 70
     0
  9
$PEXTMIN
 10
1.0000000000000000E+020
 20
1.0000000000000000E+020
 30
1.0000000000000000E+020
  9
$PEXTMAX
 10
-1.0000000000000000E+020
 20
-1.0000000000000000E+020
 30
-1.0000000000000000E+020
  9
$PLIMMIN
 10
0.0
 20
0.0
  9
$PLIMMAX
 10
12.0
 20
9.0
  9
$UNITMODE
 70
     0
  9
$VISRETAIN
 70
     0
  9
$PLINEGEN
 70
     0
  9
$PSLTSCALE
 70
     0
  0
ENDSEC
  0
SECTION
  2
TABLES
  0
TABLE
  2
VPORT
 70
     1
  0
VPORT
  2
*ACTIVE
 70
     0
 10
0.0
 20
0.0
 11
1.0
 21
1.0
 12
111.9975125580831
 22
73.215485388902977
 13
0.0
 23
0.0
 14
5.0
 24
5.0
 15
10.0
 25
10.0
 16
0.0
 26
0.0
 36
1.0
 17
0.0
 27
0.0
 37
0.0
 40
151.55361739755861
 41
2.0984455958549222
 42
50.0
 43
0.0
 44
0.0
 50
0.0
 51
0.0
 71
     0
 72
   500
 73
     1
 74
     0
 75
     0
 76
     0
 77
     0
 78
     2
  0
ENDTAB
  0
TABLE
  2
LTYPE
 70
     4
  0
LTYPE
  2
CONTINUOUS
 70
     0
  3
Solid Line
 72
    65
 73
     0
 40
0.0
  0
LTYPE
  2
CENTER
 70
     0
  3
____ _ ____ _ ____ _ ____ _ ____ _ ____ _ ____
 72
    65
 73
     4
 40
2.0
 49
1.25
 49
-0.25
 49
0.25
 49
-0.25
  0
LTYPE
  2
HIDDEN
 70
     0
  3
_ _ _ _ _ _ _ _ _ _ _ _ _ _ _ _ _ _ _ _ _ _ _
 72
    65
 73
     2
 40
0.375
 49
0.25
 49
-0.125
  0
LTYPE
  2
PHANTOM2
 70
     0
  3
___ _ _ ___ _ _ ___ _ _ ___ _ _
 72
    65
 73
     6
 40
1.25
 49
0.625
 49
-0.125
 49
0.125
 49
-0.125
 49
0.125
 49
-0.125
  0
ENDTAB
  0
TABLE
  2
LAYER
 70
     4
  0
LAYER
  2
0
 70
     0
 62
     7
  6
CONTINUOUS
  0
LAYER
  2
1
 70
     0
 62
     1
  6
CENTER
  0
LAYER
  2
3
 70
     0
 62
     3
  6
CONTINUOUS
  0
LAYER
  2
2
 70
     0
 62
     2
  6
HIDDEN
  0
ENDTAB
  0
TABLE
  2
STYLE
 70
     2
  0
STYLE
  2
STANDARD
 70
     0
 40
0.0
 41
1.0
 50
0.0
 71
     0
 42
4.000000000000048
  3
SIMPLEX
  4
BIGFONT
  0
STYLE
  2
STANDARD1
 70
     0
 40
0.0
 41
1.0
 50
0.0
 71
     0
 42
3.0
  3
txt
  4

  0
ENDTAB
  0
TABLE
  2
VIEW
 70
     0
  0
ENDTAB
  0
TABLE
  2
UCS
 70
     0
  0
ENDTAB
  0
TABLE
  2
APPID
 70
     4
  0
APPID
  2
ACAD
 70
     0
  0
APPID
  2
ACAD_MLEADERVER
 70
     0
  0
APPID
  2
ACAD_EXEMPT_FROM_CAD_STANDARDS
 70
     0
  0
APPID
  2
ACAD_NAV_VCDISPLAY
 70
     0
  0
ENDTAB
  0
TABLE
  2
DIMSTYLE
 70
     2
  0
DIMSTYLE
  2
STANDARD
 70
     0
  3

  4

  5

  6

  7

 40
1.0
 41
0.18
 42
0.0625
 43
0.38
 44
0.18
 45
0.0
 46
0.0
 47
0.0
 48
0.0
140
0.18
141
0.09
142
0.0
143
25.399999999999999
144
1.0
145
0.0
146
1.0
147
0.09
 71
     0
 72
     0
 73
     1
 74
     1
 75
     0
 76
     0
 77
     0
 78
     0
170
     0
171
     2
172
     0
173
     0
174
     0
175
     0
176
     0
177
     0
178
     0
  0
DIMSTYLE
  2
ISO-25
 70
     0
  3

  4

  5

  6

  7

 40
1.0
 41
2.5
 42
0.625
 43
3.75
 44
1.25
 45
0.0
 46
0.0
 47
0.0
 48
0.0
140
2.5
141
2.5
142
0.0
143
0.0393700787
144
1.0
145
0.0
146
1.0
147
0.625
 71
     0
 72
     0
 73
     0
 74
     0
 75
     0
 76
     0
 77
     1
 78
     8
170
     0
171
     3
172
     1
173
     0
174
     0
175
     0
176
     0
177
     0
178
     0
  0
ENDTAB
  0
ENDSEC
  0
SECTION
  2
BLOCKS
  0
BLOCK
  8
0
  2
$MODEL_SPACE
 70
     0
 10
0.0
 20
0.0
 30
0.0
  3
$MODEL_SPACE
  1

  0
ENDBLK
  5
3B1
  8
0
  0
BLOCK
 67
     1
  8
0
  2
$PAPER_SPACE
 70
     0
 10
0.0
 20
0.0
 30
0.0
  3
$PAPER_SPACE
  1

  0
ENDBLK
  5
3AF
 67
     1
  8
0
  0
ENDSEC
  0
SECTION
  2
ENTITIES
  0
LINE
  5
B8F
  8
2
 10
17.500000000000909
 20
49.515171176965573
 30
0.0
 11
27.000000000000909
 21
44.030343619663363
 31
0.0
  0
LINE
  5
B90
  8
2
 10
27.000000000000909
 20
44.030343619663363
 30
0.0
 11
36.5
 21
49.515171176965573
 31
0.0
  0
LINE
  5
B91
  8
2
 10
36.5
 20
49.515171176965573
 30
0.0
 11
36.5
 21
60.484826291570009
 31
0.0
  0
LINE
  5
B92
  8
2
 10
36.5
 20
60.484826291570009
 30
0.0
 11
27.0
 21
65.969653848868575
 31
0.0
  0
LINE
  5
B93
  8
2
 10
27.0
 20
65.969653848868575
 30
0.0
 11
17.499999999999091
 21
60.484826291566371
 31
0.0
  0
LINE
  5
B94
  8
2
 10
17.499999999999091
 20
60.484826291566371
 30
0.0
 11
17.500000000000909
 21
49.515171176965573
 31
0.0
  0
CIRCLE
  5
B95
  8
0
 10
26.99999999999989
 20
54.999998734265937
 30
0.0
 40
3.9999999999999849
  0
CIRCLE
  5
B96
  8
3
 10
26.99999999999989
 20
54.999998734265937
 30
0.0
 40
7.187999999994573
  0
CIRCLE
  5
B97
  8
0
 10
26.99999999999989
 20
54.999998734265937
 30
0.0
 40
7.9999999999515552
  0
LINE
  5
B98
  8
1
 10
10.0
 20
54.999998734265937
 30
0.0
 11
44.0
 21
54.999998734265937
 31
0.0
  0
LINE
  5
B99
  8
1
 10
190.00000000000011
 20
54.999998734266107
 30
0.0
 11
224.00000000000011
 21
54.999998734266107
 31
0.0
  0
LINE
  5
B9A
  8
1
 10
207.0
 20
20.000000000000171
 30
0.0
 11
207.0
 21
89.999997468531603
 31
0.0
  0
LINE
  5
B9B
  8
0
 10
122.50000000004751
 20
45.499993339468062
 30
0.0
 11
122.50000000004751
 21
64.499998734265944
 31
0.0
  0
LINE
  5
B9C
  8
0
 10
121.6514942291694
 20
44.030343628595517
 30
0.0
 11
112.50000000004751
 21
44.030343628595517
 31
0.0
  0
LINE
  5
B9D
  8
0
 10
112.50000000004751
 20
49.515171181429587
 30
0.0
 11
121.6514942291694
 21
49.515171181429537
 31
0.0
  0
LINE
  5
B9E
  8
0
 10
121.6514942291694
 20
65.969653839942055
 30
0.0
 11
112.50000000004751
 21
65.969653839941984
 31
0.0
  0
LINE
  5
B9F
  8
0
 10
112.50000000004751
 20
60.484826287101043
 30
0.0
 11
121.6514942291694
 21
60.484826287101043
 31
0.0
  0
LINE
  5
BA0
  8
0
 10
122.50000000004751
 20
64.499998734265944
 30
0.0
 11
121.6514942291694
 21
65.969653839942055
 31
0.0
  0
ARC
  5
BA1
  8
0
 10
117.64393676090791
 20
63.227240063521599
 30
0.0
 40
4.8560632391392371
 50
325.61575270219703
 51
0.0
  0
ARC
  5
BA2
  8
0
 10
104.3485056998468
 20
54.999998734265311
 30
0.0
 40
18.151494300200689
 50
342.41204631707149
 51
17.58795368292834
  0
ARC
  5
BA3
  8
0
 10
117.64393676090791
 20
46.7727520102124
 30
0.0
 40
4.8560632391392371
 50
0.0
 51
34.384247297806048
  0
LINE
  5
BA4
  8
0
 10
122.50000000004751
 20
45.499993339468062
 30
0.0
 11
121.6514942291694
 21
44.030338233792008
 31
0.0
  0
LINE
  5
BA5
  8
0
 10
112.50000000004751
 20
65.969653839941984
 30
0.0
 11
112.50000000004739
 21
44.030343628595517
 31
0.0
  0
LINE
  5
BA6
  8
0
 10
87.500000000047649
 20
46.999998734276453
 30
0.0
 11
97.036267268964338
 21
46.999998734271678
 31
0.0
  0
LINE
  5
BA7
  8
0
 10
87.500000000047322
 20
62.999998734255087
 30
0.0
 11
97.036267268964338
 21
62.999998734259968
 31
0.0
  0
LINE
  5
BA8
  8
1
 10
160.49999999995251
 20
54.99999873426588
 30
0.0
 11
73.500000000047493
 21
54.99999873426588
 31
0.0
  0
LINE
  5
BA9
  8
0
 10
86.500000000047507
 20
61.99999873425525
 30
0.0
 11
87.500000000047493
 21
62.999998734255257
 31
0.0
  0
LINE
  5
BAA
  8
3
 10
109.50000000004751
 20
62.187998734260532
 30
0.0
 11
105.03626726896429
 21
62.187998734260532
 31
0.0
  0
LINE
  5
BAB
  8
3
 10
109.50000000004739
 20
47.811998734271242
 30
0.0
 11
105.03626726896429
 21
47.811998734271242
 31
0.0
  0
LINE
  5
BAC
  8
0
 10
86.500000000047507
 20
47.999998734276573
 30
0.0
 11
87.500000000047493
 21
46.999998734276573
 31
0.0
  0
LINE
  5
BAD
  8
0
 10
86.500000000047507
 20
61.99999873425525
 30
0.0
 11
86.500000000047507
 21
47.999998734276573
 31
0.0
  0
LINE
  5
BAE
  8
0
 10
87.500000000047493
 20
62.999998734255257
 30
0.0
 11
87.500000000047493
 21
46.999998734276573
 31
0.0
  0
LINE
  5
BAF
  8
0
 10
80.800000000047504
 20
58.999998734265887
 30
0.0
 11
80.800000000047504
 21
50.999998734265887
 31
0.0
  0
LINE
  5
BB0
  8
0
 10
80.800000000047504
 20
50.999998734265887
 30
0.0
 11
86.500000000047507
 21
50.999998734265887
 31
0.0
  0
LINE
  5
BB1
  8
0
 10
80.800000000047504
 20
58.999998734265887
 30
0.0
 11
86.500000000047507
 21
58.999998734265887
 31
0.0
  0
LINE
  5
BB2
  8
0
 10
109.50000000004751
 20
62.999998734266342
 30
0.0
 11
109.50000000004739
 21
46.999998734265482
 31
0.0
  0
LINE
  5
BB3
  8
3
 10
109.50000000004751
 20
62.187998734260532
 30
0.0
 11
110.90642525580481
 21
62.999998734267081
 31
0.0
  0
LINE
  5
BB4
  8
3
 10
109.50000000004751
 20
47.811998734271242
 30
0.0
 11
110.90642525580481
 21
46.999998734264693
 31
0.0
  0
LINE
  5
BB5
  8
1
 10
160.49999999995251
 20
134.99999873426589
 30
0.0
 11
73.500000000047436
 21
134.99999873426589
 31
0.0
  0
LINE
  5
BB6
  8
0
 10
87.500000000047606
 20
142.99999873425531
 30
0.0
 11
97.036267268964295
 21
142.99999873426009
 31
0.0
  0
LINE
  5
BB7
  8
0
 10
87.500000000047265
 20
126.9999987342767
 30
0.0
 11
97.036267268964295
 21
126.9999987342718
 31
0.0
  0
LINE
  5
BB8
  8
3
 10
109.50000000004751
 20
127.8119987342712
 30
0.0
 11
105.03626726896429
 21
127.8119987342712
 31
0.0
  0
LINE
  5
BB9
  8
3
 10
109.50000000004739
 20
142.1879987342605
 30
0.0
 11
105.03626726896429
 21
142.18799873426039
 31
0.0
  0
LINE
  5
BBA
  8
0
 10
87.500000000047436
 20
126.9999987342765
 30
0.0
 11
87.500000000047436
 21
142.9999987342552
 31
0.0
  0
LINE
  5
BBB
  8
0
 10
86.500000000047436
 20
127.9999987342765
 30
0.0
 11
86.500000000047436
 21
141.9999987342552
 31
0.0
  0
LINE
  5
BBC
  8
0
 10
86.500000000047436
 20
141.9999987342552
 30
0.0
 11
87.500000000047436
 21
142.9999987342552
 31
0.0
  0
LINE
  5
BBD
  8
0
 10
86.500000000047436
 20
127.9999987342765
 30
0.0
 11
87.500000000047436
 21
126.9999987342765
 31
0.0
  0
ARC
  5
BBE
  8
0
 10
108.6189976524842
 20
139.74999873426589
 30
0.0
 40
13.719683889994901
 50
339.74384199960662
 51
20.256158000392521
  0
LINE
  5
BBF
  8
0
 10
112.50000000004739
 20
144.4999987342658
 30
0.0
 11
112.50000000004739
 21
125.4999987342659
 31
0.0
  0
LINE
  5
BC0
  8
0
 10
122.50000000004751
 20
144.2205869695587
 30
0.0
 11
122.50000000004751
 21
125.77941049897289
 31
0.0
  0
LINE
  5
BC1
  8
0
 10
122.33868154247909
 20
144.49999873426589
 30
0.0
 11
112.50000000004739
 21
144.4999987342658
 31
0.0
  0
LINE
  5
BC2
  8
0
 10
122.33868154247909
 20
144.49999873426589
 30
0.0
 11
122.50000000004751
 21
144.22058696955881
 31
0.0
  0
LINE
  5
BC3
  8
0
 10
122.33868154247909
 20
125.4999987342658
 30
0.0
 11
112.50000000004739
 21
125.4999987342659
 31
0.0
  0
LINE
  5
BC4
  8
0
 10
121.49017576644781
 20
134.99999873426589
 30
0.0
 11
112.50000000004739
 21
134.9999987342658
 31
0.0
  0
LINE
  5
BC5
  8
0
 10
109.50000000004751
 20
126.9999987342654
 30
0.0
 11
109.50000000004739
 21
142.99999873426631
 31
0.0
  0
LINE
  5
BC6
  8
3
 10
109.50000000004751
 20
142.1879987342605
 30
0.0
 11
110.90642525580471
 21
142.99999873426711
 31
0.0
  0
LINE
  5
BC7
  8
3
 10
109.50000000004751
 20
127.8119987342712
 30
0.0
 11
110.90642525580471
 21
126.99999873426469
 31
0.0
  0
ARC
  5
BC8
  8
0
 10
108.6189976524842
 20
130.24999873426589
 30
0.0
 40
13.719683889994901
 50
339.74384199960662
 51
20.256158000392521
  0
LINE
  5
BC9
  8
0
 10
122.33868154247909
 20
125.4999987342658
 30
0.0
 11
122.50000000004751
 21
125.77941049897289
 31
0.0
  0
LINE
  5
BCA
  8
0
 10
80.800000000047504
 20
58.999998734265887
 30
0.0
 11
79.08864659448605
 21
58.011948384886402
 31
0.0
  0
ARC
  5
BCB
  8
0
 10
86.500000000047507
 20
54.999998734265937
 30
0.0
 40
8.0
 50
157.88333686751579
 51
202.11666313248341
  0
LINE
  5
BCC
  8
0
 10
79.08864659448605
 20
58.011948384886402
 30
0.0
 11
79.088646594486093
 21
51.988049083645357
 31
0.0
  0
LINE
  5
BCD
  8
0
 10
80.800000000047504
 20
50.999998734265887
 30
0.0
 11
79.08864659448605
 21
51.988049083645357
 31
0.0
  0
LINE
  5
BCE
  8
0
 10
80.800000000047433
 20
130.99999873426589
 30
0.0
 11
79.088646594485994
 21
131.98804908364531
 31
0.0
  0
LINE
  5
BCF
  8
0
 10
79.088646594485994
 20
138.01194838488641
 30
0.0
 11
79.08864659448605
 21
131.98804908364531
 31
0.0
  0
ARC
  5
BD0
  8
0
 10
86.500000000047436
 20
134.99999873426589
 30
0.0
 40
8.0
 50
157.88333686751579
 51
202.11666313248341
  0
LINE
  5
BD1
  8
0
 10
80.800000000047433
 20
138.99999873426589
 30
0.0
 11
79.088646594485994
 21
138.01194838488641
 31
0.0
  0
LINE
  5
BD2
  8
0
 10
80.800000000047433
 20
138.99999873426589
 30
0.0
 11
86.500000000047436
 21
138.99999873426589
 31
0.0
  0
LINE
  5
BD3
  8
0
 10
80.800000000047433
 20
130.99999873426589
 30
0.0
 11
86.500000000047436
 21
130.99999873426589
 31
0.0
  0
LINE
  5
BD4
  8
0
 10
80.800000000047433
 20
138.99999873426589
 30
0.0
 11
80.800000000047433
 21
130.99999873426589
 31
0.0
  0
CIRCLE
  5
BD5
  8
0
 10
26.999999999999829
 20
54.999998734265937
 30
0.0
 40
3.0119496506205792
  0
LINE
  5
BD6
  8
0
 10
39.0
 20
48.071795503990408
 30
0.0
 11
39.0
 21
61.928201964541422
 31
0.0
  0
LINE
  5
BD7
  8
0
 10
39.0
 20
61.928201964541422
 30
0.0
 11
27.0
 21
68.856405194817
 31
0.0
  0
LINE
  5
BD8
  8
0
 10
27.0
 20
68.856405194817
 30
0.0
 11
15.0
 21
61.928201964541422
 31
0.0
  0
LINE
  5
BD9
  8
0
 10
15.0
 20
61.928201964541422
 30
0.0
 11
15.0
 21
48.071795503990408
 31
0.0
  0
LINE
  5
BDA
  8
0
 10
15.0
 20
48.071795503990408
 30
0.0
 11
27.0
 21
41.143592273714823
 31
0.0
  0
LINE
  5
BDB
  8
0
 10
27.0
 20
41.143592273714823
 30
0.0
 11
39.0
 21
48.071795503990408
 31
0.0
  0
CIRCLE
  5
BDC
  8
0
 10
27.0
 20
54.99999873426588
 30
0.0
 40
12.0
  0
ARC
  5
BDD
  8
0
 10
103.1702418868269
 20
65.392289765850634
 30
0.0
 40
6.1339746178626706
 50
180.00002816960259
 51
214.38424729781269
  0
ARC
  5
BDE
  8
0
 10
119.9644705955298
 20
54.999995718482921
 30
0.0
 40
22.928203326565392
 50
162.41204631709221
 51
197.58795368294199
  0
ARC
  5
BDF
  8
0
 10
103.1702418868269
 20
44.607690881522039
 30
0.0
 40
6.1339746178626706
 50
145.61575270218719
 51
179.99997183039409
  0
LINE
  5
BE0
  8
0
 10
97.036267268964338
 20
66.999995718475475
 30
0.0
 11
98.108064032174397
 21
68.856402167742999
 31
0.0
  0
LINE
  5
BE1
  8
0
 10
97.036267268964338
 20
42.999995718475418
 30
0.0
 11
98.108064032180522
 21
41.143589269197321
 31
0.0
  0
LINE
  5
BE2
  8
0
 10
103.96447050574849
 20
48.071792493844612
 30
0.0
 11
98.108064032178945
 21
48.071792493844612
 31
0.0
  0
LINE
  5
BE3
  8
0
 10
98.108064032180522
 20
41.143589269197321
 30
0.0
 11
103.9644705057482
 21
41.143589269197321
 31
0.0
  0
LINE
  5
BE4
  8
0
 10
103.9644705057528
 20
61.928198943107759
 30
0.0
 11
98.108064032175861
 21
61.928198943107759
 31
0.0
  0
LINE
  5
BE5
  8
0
 10
98.108064032174397
 20
68.856402167742999
 30
0.0
 11
103.96447050575441
 21
68.856402167742999
 31
0.0
  0
LINE
  5
BE6
  8
0
 10
97.036267268964338
 20
66.999995718475475
 30
0.0
 11
97.036267268964338
 21
42.999995718475418
 31
0.0
  0
LINE
  5
BE7
  8
0
 10
105.03626726896429
 20
66.999995718475475
 30
0.0
 11
105.03626726896429
 21
42.999995718475418
 31
0.0
  0
LINE
  5
BE8
  8
0
 10
105.03626726896429
 20
42.999995718475418
 30
0.0
 11
103.9644705057482
 21
41.143589269197321
 31
0.0
  0
LINE
  5
BE9
  8
0
 10
105.03626726896429
 20
66.999995718475475
 30
0.0
 11
103.96447050575441
 21
68.856402167742999
 31
0.0
  0
ARC
  5
BEA
  8
0
 10
98.902292651101774
 20
44.607690881522039
 30
0.0
 40
6.1339746178626706
 50
0.0000281696026548
 51
34.384247297812728
  0
ARC
  5
BEB
  8
0
 10
82.108063942398957
 20
54.999995718482921
 30
0.0
 40
22.928203326565392
 50
342.4120463170579
 51
17.587953682907841
  0
ARC
  5
BEC
  8
0
 10
98.902292651101774
 20
65.392289765850634
 30
0.0
 40
6.1339746178626706
 50
325.61575270218719
 51
359.99997183039409
  0
ARC
  5
BED
  8
0
 10
114.65506942088039
 20
128.99999873429911
 30
0.0
 40
17.330127017333279
 50
159.74384199764691
 51
200.25615800235309
  0
ARC
  5
BEE
  8
0
 10
87.417465117046078
 20
128.99999873429911
 30
0.0
 40
17.330127017333279
 50
339.74384199764688
 51
20.2561580023531
  0
LINE
  5
BEF
  8
0
 10
97.036267268943703
 20
146.49999873429911
 30
0.0
 11
97.036267268982144
 21
123.4999987342327
 31
0.0
  0
LINE
  5
BF0
  8
0
 10
105.0362672689444
 20
123.4999987342327
 30
0.0
 11
105.0362672689828
 21
146.49999873429911
 31
0.0
  0
ARC
  5
BF1
  8
0
 10
114.65506942088039
 20
140.99999873429911
 30
0.0
 40
17.330127017333279
 50
159.74384199764691
 51
200.25615800235309
  0
ARC
  5
BF2
  8
0
 10
87.417465117046078
 20
140.99999873429911
 30
0.0
 40
17.330127017333279
 50
339.74384199764688
 51
20.2561580023531
  0
LINE
  5
BF3
  8
0
 10
104.7475921343794
 20
146.99999873431409
 30
0.0
 11
97.324942403538472
 21
146.99999873429911
 31
0.0
  0
LINE
  5
BF4
  8
0
 10
97.324942403547112
 20
146.99999873431409
 30
0.0
 11
97.036267268943703
 21
146.49999873429911
 31
0.0
  0
LINE
  5
BF5
  8
0
 10
104.7475921343794
 20
146.99999873431409
 30
0.0
 11
105.0362672689828
 21
146.49999873429911
 31
0.0
  0
LINE
  5
BF6
  8
0
 10
98.396739173376346
 20
134.99999873429911
 30
0.0
 11
103.6757953645501
 21
134.99999873429911
 31
0.0
  0
LINE
  5
BF7
  8
0
 10
104.7475921343794
 20
122.99999873428411
 30
0.0
 11
97.324942403538472
 21
122.9999987342991
 31
0.0
  0
LINE
  5
BF8
  8
0
 10
97.324942403547112
 20
122.99999873428411
 30
0.0
 11
97.036267268943703
 21
123.4999987342991
 31
0.0
  0
LINE
  5
BF9
  8
0
 10
104.7475921343794
 20
122.99999873428411
 30
0.0
 11
105.0362672689828
 21
123.4999987342991
 31
0.0
  0
LINE
  5
BFA
  8
0
 10
105.03626726896429
 20
46.999998734267642
 30
0.0
 11
112.50000000004751
 21
46.999998734263947
 31
0.0
  0
LINE
  5
BFB
  8
3
 10
97.036267268964338
 20
47.811998734271242
 30
0.0
 11
86.688000000052895
 21
47.811998734271242
 31
0.0
  0
LINE
  5
BFC
  8
0
 10
105.03626726896439
 20
62.999998734264068
 30
0.0
 11
112.50000000004751
 21
62.999998734267884
 31
0.0
  0
LINE
  5
BFD
  8
3
 10
97.036267268964295
 20
62.187998734260532
 30
0.0
 11
86.688000000052824
 21
62.187998734260532
 31
0.0
  0
LINE
  5
BFE
  8
3
 10
97.036267268964295
 20
127.8119987342712
 30
0.0
 11
86.688000000052753
 21
127.8119987342712
 31
0.0
  0
LINE
  5
BFF
  8
0
 10
105.03626726896429
 20
126.99999873426771
 30
0.0
 11
112.50000000004751
 21
126.9999987342639
 31
0.0
  0
LINE
  5
C00
  8
3
 10
97.036267268964295
 20
142.18799873426039
 30
0.0
 11
86.688000000052824
 21
142.1879987342605
 31
0.0
  0
LINE
  5
C01
  8
0
 10
105.03626726896429
 20
142.9999987342641
 30
0.0
 11
112.50000000004739
 21
142.99999873426779
 31
0.0
  0
TEXT
  5
C02
  8
0
 62
     3
 10
0.0
 20
0.0
 30
0.0
 40
5.0
  1
NDXT16W-SUS
  7
STANDARD1
  0
ARC
  5
C03
  8
0
 10
206.99999999985391
 20
55.021906844850662
 30
0.0
 40
29.97809062368092
 50
81.726099745324277
 51
98.273900254274167
  0
ARC
  5
C04
  8
0
 10
45.99855753309992
 20
54.999998734265937
 30
0.0
 40
170.00142387756591
 50
350.79164786630292
 51
9.2083521336970833
  0
ARC
  5
C05
  8
0
 10
368.00144246669993
 20
54.99999873426583
 30
0.0
 40
170.00142387740749
 50
170.7916478663029
 51
189.2083532472009
  0
ARC
  5
C06
  8
0
 10
210.84782608689599
 20
81.724411438809568
 30
0.0
 40
3.0000000000330651
 50
9.2084299298244723
 51
81.060314445396997
  0
ARC
  5
C07
  8
0
 10
203.15217391295471
 20
81.724411438964296
 30
0.0
 40
2.999999999900044
 50
98.939685553739182
 51
170.79157007324719
  0
ARC
  5
C08
  8
0
 10
206.99999999985391
 20
54.978090623681112
 30
0.0
 40
29.97809062368092
 50
261.72609974572578
 51
278.27390025467571
  0
ARC
  5
C09
  8
0
 10
210.84782608689639
 20
28.275586029722209
 30
0.0
 40
3.0000000000330651
 50
278.93968555460299
 51
350.79157007017551
  0
ARC
  5
C0A
  8
0
 10
203.15217391295511
 20
28.275586029567481
 30
0.0
 40
2.999999999900044
 50
189.2084299267494
 51
261.0603144462641
  0
LINE
  5
C0B
  8
1
 10
26.999999999999829
 20
20.0
 30
0.0
 11
26.999999999999829
 21
89.999997468531433
 31
0.0
  0
ARC
  5
C0C
  8
0
 10
26.999999999853738
 20
55.021906844850541
 30
0.0
 40
29.97809062368092
 50
81.726099745324277
 51
98.273900254274167
  0
ARC
  5
C0D
  8
0
 10
-134.00144246690019
 20
54.99999873426583
 30
0.0
 40
170.00142387756591
 50
350.79164786630292
 51
357.03563417669801
  0
ARC
  5
C0E
  8
0
 10
-134.00144246690019
 20
54.99999873426583
 30
0.0
 40
170.00142387756591
 50
2.9643658233019861
 51
9.2083521336970833
  0
ARC
  5
C0F
  8
0
 10
188.0014424666997
 20
54.999998734265709
 30
0.0
 40
170.00142387740749
 50
170.7916478663029
 51
177.03563417670449
  0
ARC
  5
C10
  8
0
 10
188.0014424666997
 20
54.999998734265709
 30
0.0
 40
170.00142387740749
 50
182.9643658232954
 51
189.2083532472009
  0
ARC
  5
C11
  8
0
 10
30.84782608689585
 20
81.724411438809454
 30
0.0
 40
3.0000000000330651
 50
9.2084299298244723
 51
81.060314445396997
  0
ARC
  5
C12
  8
0
 10
23.152173912954542
 20
81.724411438964054
 30
0.0
 40
2.999999999900044
 50
98.939685553739182
 51
170.79157007324719
  0
ARC
  5
C13
  8
0
 10
26.999999999853738
 20
54.978090623680878
 30
0.0
 40
29.97809062368092
 50
261.72609974572578
 51
278.27390025467571
  0
ARC
  5
C14
  8
0
 10
30.847826086896191
 20
28.275586029722088
 30
0.0
 40
3.0000000000330651
 50
278.93968555460299
 51
350.79157007017551
  0
ARC
  5
C15
  8
0
 10
23.152173912954879
 20
28.275586029567371
 30
0.0
 40
2.999999999900044
 50
189.2084299267494
 51
261.0603144462641
  0
LINE
  5
C16
  8
0
 10
219.00000000000011
 20
48.071795503990593
 30
0.0
 11
219.00000000000011
 21
61.928201964541579
 31
0.0
  0
LINE
  5
C17
  8
0
 10
219.00000000000011
 20
61.928201964541579
 30
0.0
 11
215.77250099443219
 21
63.79159938421548
 31
0.0
  0
LINE
  5
C18
  8
0
 10
198.227499005525
 20
63.79159938419064
 30
0.0
 11
195.00000000000011
 21
61.928201964541579
 31
0.0
  0
LINE
  5
C19
  8
0
 10
195.00000000000011
 20
61.928201964541579
 30
0.0
 11
195.00000000000011
 21
48.071795503990593
 31
0.0
  0
LINE
  5
C1A
  8
0
 10
195.00000000000011
 20
48.071795503990593
 30
0.0
 11
198.227499005525
 21
46.208398084341518
 31
0.0
  0
LINE
  5
C1B
  8
0
 10
215.77250099443219
 20
46.208398084316677
 30
0.0
 11
219.00000000000011
 21
48.071795503990593
 31
0.0
  0
ARC
  5
C1C
  8
0
 10
207.00000000000011
 20
54.999998734266057
 30
0.0
 40
12.0
 50
137.19698941860699
 51
222.80301058139281
  0
ARC
  5
C1D
  8
0
 10
207.00000000000011
 20
54.999998734266057
 30
0.0
 40
12.0
 50
317.19698941829938
 51
42.803010581700399
  0
ARC
  5
C1E
  8
0
 10
143.26944553384749
 20
68.962973563467017
 30
0.0
 40
4.9999999999999982
 50
272.63999999999987
 51
348.91263023217238
  0
ARC
  5
C1F
  8
0
 10
143.26944553384749
 20
41.037018510266982
 30
0.0
 40
5.0000000000000009
 50
11.068321704028911
 51
87.360000000000127
  0
ARC
  5
C20
  8
0
 10
-14.50000000005244
 20
54.99999603686706
 30
0.0
 40
170.000000000005
 50
350.17085015299563
 51
9.8292439689985791
  0
LINE
  5
C21
  8
0
 10
143.4997474840475
 20
63.968280278466978
 30
0.0
 11
122.99946932854751
 21
63.023026231866993
 31
0.0
  0
LINE
  5
C22
  8
0
 10
122.99946932854751
 20
46.976965841867013
 30
0.0
 11
143.4997474840475
 21
46.031711795367009
 31
0.0
  0
LINE
  5
C23
  8
0
 10
122.99946932854751
 20
63.023026231866993
 30
0.0
 11
122.50000000004751
 21
62.499996036867003
 31
0.0
  0
LINE
  5
C24
  8
0
 10
122.50000000004751
 20
47.499996036867003
 30
0.0
 11
122.99946932854751
 21
46.976965841867013
 31
0.0
  0
ARC
  5
C25
  8
0
 10
152.01922256644889
 20
26.149545301533749
 30
0.0
 40
1.000000078417512
 50
271.73493198969351
 51
350.18964215230272
  0
ARC
  5
C26
  8
0
 10
152.01922257671379
 20
83.850446847763294
 30
0.0
 40
1.000000002578356
 50
9.8263544201226978
 51
88.265068467099056
  0
ARC
  5
C27
  8
0
 10
147.0886678844476
 20
84.499996036867003
 30
0.0
 40
0.5
 50
88.265349574201664
 51
180.0
  0
LINE
  5
C28
  8
0
 10
146.5886678844476
 20
84.499996036867003
 30
0.0
 11
146.5947142050475
 21
83.801624237666999
 31
0.0
  0
ARC
  5
C29
  8
0
 10
147.08866788444749
 20
25.49999603686706
 30
0.0
 40
0.5
 50
180.0
 51
271.73465042579829
  0
LINE
  5
C2A
  8
0
 10
146.5947142050475
 20
26.198367836167002
 30
0.0
 11
146.58866788444749
 21
25.49999603686706
 31
0.0
  0
LINE
  5
C2B
  8
0
 10
147.1038032527475
 20
25.000225168767031
 30
0.0
 11
152.0494982172475
 21
25.150003635666959
 31
0.0
  0
LINE
  5
C2C
  8
0
 10
152.0494982172475
 20
84.849988438067044
 30
0.0
 11
147.10380325274761
 21
84.999766904967032
 31
0.0
  0
POLYLINE
  5
C2D
  8
0
 66
     1
 10
0.0
 20
0.0
 30
0.0
 70
   128
  0
VERTEX
  5
1078
  8
0
 10
148.25942816964749
 20
66.385226334967001
 30
0.0
  0
VERTEX
  5
1079
  8
0
 10
148.19008814034751
 20
64.742953514767009
 30
0.0
  0
VERTEX
  5
107A
  8
0
 10
147.84935139024759
 20
63.086634205167002
 30
0.0
  0
VERTEX
  5
107B
  8
0
 10
147.41696426334761
 20
61.797874742767021
 30
0.0
  0
VERTEX
  5
107C
  8
0
 10
146.8732233646476
 20
60.550766394366967
 30
0.0
  0
VERTEX
  5
107D
  8
0
 10
145.51993834574759
 20
58.118939629366992
 30
0.0
  0
VERTEX
  5
107E
  8
0
 10
144.67804242724759
 20
56.781633685567037
 30
0.0
  0
VERTEX
  5
107F
  8
0
 10
144.25875497894759
 20
56.103885481566977
 30
0.0
  0
VERTEX
  5
1080
  8
0
 10
143.93655986034759
 20
55.382172414367012
 30
0.0
  0
VERTEX
  5
1081
  8
0
 10
143.8790190752475
 20
54.927748925266997
 30
0.0
  0
VERTEX
  5
1082
  8
0
 10
143.98288149214761
 20
54.481414290367013
 30
0.0
  0
VERTEX
  5
1083
  8
0
 10
144.40784253594751
 20
53.657764582867003
 30
0.0
  0
VERTEX
  5
1084
  8
0
 10
144.90374549934751
 20
52.860937646566981
 30
0.0
  0
VERTEX
  5
1085
  8
0
 10
145.8738438489475
 20
51.292893503366997
 30
0.0
  0
VERTEX
  5
1086
  8
0
 10
146.7609558295475
 20
49.67840400196701
 30
0.0
  0
VERTEX
  5
1087
  8
0
 10
147.5143666260476
 20
47.943743052367033
 30
0.0
  0
VERTEX
  5
1088
  8
0
 10
148.04182379674759
 20
46.131380474867001
 30
0.0
  0
VERTEX
  5
1089
  8
0
 10
148.2301988773475
 20
44.889547559166999
 30
0.0
  0
VERTEX
  5
108A
  8
0
 10
148.25942816964749
 20
43.614765738867042
 30
0.0
  0
SEQEND
  5
108B
  8
0
  0
ARC
  5
C2E
  8
0
 10
-28.070160233452409
 20
51.8485621363671
 30
0.0
 40
176.52172429910561
 50
352.16844491880312
 51
357.32648758589528
  0
ARC
  5
C2F
  8
0
 10
-29.178723856852429
 20
58.049517840467111
 30
0.0
 40
177.63384201965641
 50
2.6896697756947701
 51
7.8153966400998138
  0
POLYLINE
  5
C30
  8
0
 66
     1
 10
0.0
 20
0.0
 30
0.0
 70
   128
  0
VERTEX
  5
108C
  8
0
 10
146.8051364494475
 20
27.795500801167009
 30
0.0
  0
VERTEX
  5
108D
  8
0
 10
146.67630152964759
 20
26.83918548166702
 30
0.0
  0
VERTEX
  5
108E
  8
0
 10
146.5947142050475
 20
26.198367836167002
 30
0.0
  0
SEQEND
  5
108F
  8
0
  0
POLYLINE
  5
C31
  8
0
 66
     1
 10
0.0
 20
0.0
 30
0.0
 70
   128
  0
VERTEX
  5
1090
  8
0
 10
146.5947142050475
 20
83.801624237666999
 30
0.0
  0
VERTEX
  5
1091
  8
0
 10
146.70214815964749
 20
82.964724075966998
 30
0.0
  0
VERTEX
  5
1092
  8
0
 10
146.80513689954759
 20
82.204488011567037
 30
0.0
  0
SEQEND
  5
1093
  8
0
  0
LINE
  5
C32
  8
0
 10
122.99946932854751
 20
63.023026231866993
 30
0.0
 11
122.99946932854751
 21
46.976965841867013
 31
0.0
  0
LINE
  5
C33
  8
0
 10
143.4997474840475
 20
46.031711795367009
 30
0.0
 11
143.4997474840475
 21
63.968280278466978
 31
0.0
  0
LINE
  5
C34
  8
0
 10
146.5886678844476
 20
140.9801023539658
 30
0.0
 11
146.5886678844476
 21
129.0333217301658
 31
0.0
  0
ARC
  5
C35
  8
0
 10
-14.50000000005244
 20
134.99999873426589
 30
0.0
 40
170.000000000005
 50
356.96527529344098
 51
3.0347247065590288
  0
LINE
  5
C36
  8
0
 10
155.2615975419173
 20
143.9999987342658
 30
0.0
 11
143.8881672627476
 21
143.9999987342658
 31
0.0
  0
LINE
  5
C37
  8
0
 10
143.8881672627476
 20
125.9999987342658
 30
0.0
 11
155.2615975419173
 21
125.9999987342659
 31
0.0
  0
ARC
  5
C38
  8
0
 10
143.19587736554681
 20
150.08407781017891
 30
0.0
 40
6.1233392445405199
 50
272.8444658175892
 51
276.49160170328321
  0
ARC
  5
C39
  8
0
 10
143.19534773472029
 20
119.9094333409205
 30
0.0
 40
6.1298438568230411
 50
83.51033399248432
 51
87.153598457342099
  0
LINE
  5
C3A
  8
0
 10
143.4997474840475
 20
143.9682829758658
 30
0.0
 11
122.99946932854751
 21
143.02302892936581
 31
0.0
  0
LINE
  5
C3B
  8
0
 10
122.99946932854751
 20
126.9769685392659
 30
0.0
 11
143.4997474840475
 21
126.0317144927658
 31
0.0
  0
LINE
  5
C3C
  8
0
 10
122.99946932854751
 20
143.02302892936581
 30
0.0
 11
122.50000000004751
 21
142.4999987342658
 31
0.0
  0
LINE
  5
C3D
  8
0
 10
122.50000000004751
 20
127.4999987342658
 30
0.0
 11
122.99946932854751
 21
126.9769685392659
 31
0.0
  0
LINE
  5
C3E
  8
0
 10
153.0045434212476
 20
141.39608758296589
 30
0.0
 11
153.0045434212476
 21
128.60390988566579
 31
0.0
  0
POLYLINE
  5
C3F
  8
0
 66
     1
 10
0.0
 20
0.0
 30
0.0
 70
   128
  0
VERTEX
  5
1094
  8
0
 10
146.80513689954759
 20
141.80916301446581
 30
0.0
  0
VERTEX
  5
1095
  8
0
 10
146.6763019070475
 20
141.48159958296591
 30
0.0
  0
VERTEX
  5
1096
  8
0
 10
146.5886678844476
 20
140.9801023539658
 30
0.0
  0
SEQEND
  5
1097
  8
0
  0
LINE
  5
C40
  8
0
 10
146.80513689954759
 20
141.80916301446581
 30
0.0
 11
153.17096021134759
 21
141.80916301446581
 31
0.0
  0
POLYLINE
  5
C41
  8
0
 66
     1
 10
0.0
 20
0.0
 30
0.0
 70
   128
  0
VERTEX
  5
1098
  8
0
 10
153.0045434212476
 20
141.39608758296589
 30
0.0
  0
VERTEX
  5
1099
  8
0
 10
153.08171083444751
 20
141.65344444366579
 30
0.0
  0
VERTEX
  5
109A
  8
0
 10
153.17096021134759
 20
141.80916301446581
 30
0.0
  0
SEQEND
  5
109B
  8
0
  0
LINE
  5
C42
  8
0
 10
153.17096021134759
 20
128.19083445416589
 30
0.0
 11
146.80513689954759
 21
128.19083445416589
 31
0.0
  0
POLYLINE
  5
C43
  8
0
 66
     1
 10
0.0
 20
0.0
 30
0.0
 70
   128
  0
VERTEX
  5
109C
  8
0
 10
146.5886678844476
 20
129.0333217301658
 30
0.0
  0
VERTEX
  5
109D
  8
0
 10
146.70214815964749
 20
128.42057643436581
 30
0.0
  0
VERTEX
  5
109E
  8
0
 10
146.80513689954759
 20
128.19083445416589
 30
0.0
  0
SEQEND
  5
109F
  8
0
  0
POLYLINE
  5
C44
  8
0
 66
     1
 10
0.0
 20
0.0
 30
0.0
 70
   128
  0
VERTEX
  5
10A0
  8
0
 10
153.17096021134759
 20
128.19083445416589
 30
0.0
  0
VERTEX
  5
10A1
  8
0
 10
153.08496678044759
 20
128.33847659616589
 30
0.0
  0
VERTEX
  5
10A2
  8
0
 10
153.0045434212476
 20
128.60390988566579
 30
0.0
  0
SEQEND
  5
10A3
  8
0
  0
POLYLINE
  5
C45
  8
0
 66
     1
 10
0.0
 20
0.0
 30
0.0
 70
   128
  0
VERTEX
  5
10A4
  8
0
 10
155.2615975419173
 20
125.9999987342659
 30
0.0
  0
VERTEX
  5
10A5
  8
0
 10
155.22188920914749
 20
126.0418630923658
 30
0.0
  0
VERTEX
  5
10A6
  8
0
 10
155.0306785173475
 20
126.2433378732658
 30
0.0
  0
VERTEX
  5
10A7
  8
0
 10
154.68166646304749
 20
126.6104451093658
 30
0.0
  0
VERTEX
  5
10A8
  8
0
 10
154.04367263754759
 20
127.2795962927658
 30
0.0
  0
VERTEX
  5
10A9
  8
0
 10
153.17096021134759
 20
128.19083445416589
 30
0.0
  0
SEQEND
  5
10AA
  8
0
  0
POLYLINE
  5
C46
  8
0
 66
     1
 10
0.0
 20
0.0
 30
0.0
 70
   128
  0
VERTEX
  5
10AB
  8
0
 10
153.17096021134759
 20
141.80916301446581
 30
0.0
  0
VERTEX
  5
10AC
  8
0
 10
153.87919116214749
 20
142.54828157796581
 30
0.0
  0
VERTEX
  5
10AD
  8
0
 10
154.4423390210475
 20
143.1382407029659
 30
0.0
  0
VERTEX
  5
10AE
  8
0
 10
154.86178423634749
 20
143.57890722556581
 30
0.0
  0
VERTEX
  5
10AF
  8
0
 10
155.13258503814751
 20
143.86401707816589
 30
0.0
  0
VERTEX
  5
10B0
  8
0
 10
155.2615975419173
 20
143.9999987342658
 30
0.0
  0
VERTEX
  5
10B1
  8
0
 10
155.2456342712475
 20
143.98315478506589
 30
0.0
  0
SEQEND
  5
10B2
  8
0
  0
POLYLINE
  5
C47
  8
0
 66
     1
 10
0.0
 20
0.0
 30
0.0
 70
   128
  0
VERTEX
  5
10B3
  8
0
 10
143.8881672627476
 20
143.9999987342658
 30
0.0
  0
VERTEX
  5
10B4
  8
0
 10
143.98288149214761
 20
143.99920777066581
 30
0.0
  0
VERTEX
  5
10B5
  8
0
 10
144.40784253594751
 20
143.9946998714658
 30
0.0
  0
VERTEX
  5
10B6
  8
0
 10
144.90374549934751
 20
143.98654064046579
 30
0.0
  0
VERTEX
  5
10B7
  8
0
 10
145.87420976434751
 20
143.9596446995659
 30
0.0
  0
VERTEX
  5
10B8
  8
0
 10
146.7609558296476
 20
143.91668613796591
 30
0.0
  0
VERTEX
  5
10B9
  8
0
 10
147.50936161524751
 20
143.8540954748658
 30
0.0
  0
VERTEX
  5
10BA
  8
0
 10
148.04182379674759
 20
143.7685107087658
 30
0.0
  0
VERTEX
  5
10BB
  8
0
 10
148.2301988773475
 20
143.6990819126658
 30
0.0
  0
VERTEX
  5
10BC
  8
0
 10
148.25942816964749
 20
143.6183247815658
 30
0.0
  0
SEQEND
  5
10BD
  8
0
  0
ARC
  5
C48
  8
0
 10
121.3343355262476
 20
163.77291412966579
 30
0.0
 40
33.632842366442532
 50
319.2284417568016
 51
323.18356727239848
  0
POLYLINE
  5
C49
  8
0
 66
     1
 10
0.0
 20
0.0
 30
0.0
 70
   128
  0
VERTEX
  5
10BE
  8
0
 10
148.25942816964749
 20
126.3816726870659
 30
0.0
  0
VERTEX
  5
10BF
  8
0
 10
148.19008814034751
 20
126.2794201953658
 30
0.0
  0
VERTEX
  5
10C0
  8
0
 10
147.84935139024759
 20
126.1924421205659
 30
0.0
  0
VERTEX
  5
10C1
  8
0
 10
147.4189440893476
 20
126.1361639273659
 30
0.0
  0
VERTEX
  5
10C2
  8
0
 10
146.8732233646476
 20
126.0906436403658
 30
0.0
  0
VERTEX
  5
10C3
  8
0
 10
145.51993834574759
 20
126.02861234566581
 30
0.0
  0
VERTEX
  5
10C4
  8
0
 10
144.67804242724759
 20
126.00933496926579
 30
0.0
  0
VERTEX
  5
10C5
  8
0
 10
144.26978664204759
 20
126.0035929049658
 30
0.0
  0
VERTEX
  5
10C6
  8
0
 10
143.93655986034759
 20
126.0004283195658
 30
0.0
  0
VERTEX
  5
10C7
  8
0
 10
143.8881672627476
 20
125.9999987342658
 30
0.0
  0
SEQEND
  5
10C8
  8
0
  0
ARC
  5
C4A
  8
0
 10
124.2151432058475
 20
108.5428151521658
 30
0.0
 40
29.939146239859799
 50
36.572338343101308
 51
41.015652627800399
  0
LINE
  5
C4B
  8
0
 10
122.99946932854751
 20
143.02302892936581
 30
0.0
 11
122.99946932854751
 21
126.9769685392659
 31
0.0
  0
LINE
  5
C4C
  8
0
 10
143.4997474840475
 20
126.0317144927658
 30
0.0
 11
143.4997474840475
 21
143.9682829758658
 31
0.0
  0
LINE
  5
C4D
  8
0
 10
197.50000000000111
 20
49.515171176965673
 30
0.0
 11
198.1000581417818
 21
49.168727447279139
 31
0.0
  0
LINE
  5
C4E
  8
0
 10
215.89994185817571
 20
49.168727447253779
 30
0.0
 11
216.5000000000002
 21
49.515171176965673
 31
0.0
  0
LINE
  5
C4F
  8
0
 10
216.5000000000002
 20
49.515171176965673
 30
0.0
 11
216.5000000000002
 21
60.48482629157013
 31
0.0
  0
LINE
  5
C50
  8
0
 10
216.5000000000002
 20
60.48482629157013
 30
0.0
 11
215.89994185817559
 21
60.831270021281853
 31
0.0
  0
LINE
  5
C51
  8
0
 10
198.1000581417818
 20
60.831270021254049
 30
0.0
 11
197.49999999999929
 21
60.484826291566492
 31
0.0
  0
LINE
  5
C52
  8
0
 10
197.49999999999929
 20
60.484826291566492
 30
0.0
 11
197.50000000000111
 21
49.515171176965673
 31
0.0
  0
ARC
  5
FAB
  8
0
 10
26.999999999999829
 20
54.999998734265709
 30
0.0
 40
14.279320999999999
 50
232.87529784209269
 51
307.12470215768792
  0
ARC
  5
FAC
  8
0
 10
26.999999999999829
 20
54.999998734265709
 30
0.0
 40
14.279320999999999
 50
52.875297842312001
 51
127.12470215790719
  0
ENDSEC
  0
EOF
