  0
SECTION
  2
HEADER
  9
$ACADVER
  1
AC1009
  9
$INSBASE
 10
0.0
 20
0.0
 30
0.0
  9
$EXTMIN
 10
0.0
 20
-2.960436562073669
 30
0.0
  9
$EXTMAX
 10
185.00000000000151
 20
171.34999999999991
 30
0.0
  9
$LIMMIN
 10
0.0
 20
0.0
  9
$LIMMAX
 10
375.0
 20
270.0
  9
$ORTHOMODE
 70
     1
  9
$REGENMODE
 70
     1
  9
$FILLMODE
 70
     1
  9
$QTEXTMODE
 70
     0
  9
$MIRRTEXT
 70
     0
  9
$DRAGMODE
 70
     2
  9
$LTSCALE
 40
5.0
  9
$OSMODE
 70
    37
  9
$ATTMODE
 70
     1
  9
$TEXTSIZE
 40
0.2
  9
$TRACEWID
 40
0.05
  9
$TEXTSTYLE
  7
STANDARD
  9
$CLAYER
  8
0
  9
$CELTYPE
  6
BYLAYER
  9
$CECOLOR
 62
   256
  9
$DIMSCALE
 40
1.0
  9
$DIMASZ
 40
3.0
  9
$DIMEXO
 40
2.0
  9
$DIMDLI
 40
0.38
  9
$DIMRND
 40
0.0
  9
$DIMDLE
 40
0.0
  9
$DIMEXE
 40
2.0
  9
$DIMTP
 40
0.0
  9
$DIMTM
 40
0.0
  9
$DIMTXT
 40
3.2000000000000002
  9
$DIMCEN
 40
0.0
  9
$DIMTSZ
 40
0.0
  9
$DIMTOL
 70
     0
  9
$DIMLIM
 70
     0
  9
$DIMTIH
 70
     0
  9
$DIMTOH
 70
     0
  9
$DIMSE1
 70
     0
  9
$DIMSE2
 70
     0
  9
$DIMTAD
 70
     1
  9
$DIMZIN
 70
     0
  9
$DIMBLK
  1

  9
$DIMASO
 70
     0
  9
$DIMSHO
 70
     0
  9
$DIMPOST
  1

  9
$DIMAPOST
  1

  9
$DIMALT
 70
     0
  9
$DIMALTD
 70
     2
  9
$DIMALTF
 40
25.399999999999999
  9
$DIMLFAC
 40
1.0
  9
$DIMTOFL
 70
     0
  9
$DIMTVP
 40
1.6000000000000001
  9
$DIMTIX
 70
     1
  9
$DIMSOXD
 70
     0
  9
$DIMSAH
 70
     0
  9
$DIMBLK1
  1

  9
$DIMBLK2
  1

  9
$DIMSTYLE
  2
STANDARD
  9
$DIMCLRD
 70
     4
  9
$DIMCLRE
 70
     4
  9
$DIMCLRT
 70
     4
  9
$DIMTFAC
 40
1.0
  9
$DIMGAP
 40
0.09
  9
$LUNITS
 70
     2
  9
$LUPREC
 70
     1
  9
$SKETCHINC
 40
0.1
  9
$FILLETRAD
 40
0.0
  9
$AUNITS
 70
     0
  9
$AUPREC
 70
     1
  9
$MENU
  1
E:\r13\win\SUPPORT\ACAD
  9
$ELEVATION
 40
0.0
  9
$PELEVATION
 40
0.0
  9
$THICKNESS
 40
0.0
  9
$LIMCHECK
 70
     0
  9
$BLIPMODE
 70
     0
  9
$CHAMFERA
 40
0.0
  9
$CHAMFERB
 40
0.0
  9
$SKPOLY
 70
     0
  9
$TDCREATE
 40
2449840.6508564819
  9
$TDUPDATE
 40
2457968.425439259
  9
$TDINDWG
 40
0.1179335532
  9
$TDUSRTIMER
 40
0.1179335532
  9
$USRTIMER
 70
     1
  9
$ANGBASE
 50
0.0
  9
$ANGDIR
 70
     0
  9
$PDMODE
 70
     0
  9
$PDSIZE
 40
0.0
  9
$PLINEWID
 40
0.0
  9
$COORDS
 70
     1
  9
$SPLFRAME
 70
     0
  9
$SPLINETYPE
 70
     6
  9
$SPLINESEGS
 70
     8
  9
$ATTDIA
 70
     0
  9
$ATTREQ
 70
     1
  9
$HANDLING
 70
     1
  9
$HANDSEED
  5
12C2
  9
$SURFTAB1
 70
     6
  9
$SURFTAB2
 70
     6
  9
$SURFTYPE
 70
     6
  9
$SURFU
 70
     6
  9
$SURFV
 70
     6
  9
$UCSNAME
  2

  9
$UCSORG
 10
0.0
 20
0.0
 30
0.0
  9
$UCSXDIR
 10
1.0
 20
0.0
 30
0.0
  9
$UCSYDIR
 10
0.0
 20
1.0
 30
0.0
  9
$PUCSNAME
  2

  9
$PUCSORG
 10
0.0
 20
0.0
 30
0.0
  9
$PUCSXDIR
 10
1.0
 20
0.0
 30
0.0
  9
$PUCSYDIR
 10
0.0
 20
1.0
 30
0.0
  9
$USERI1
 70
     0
  9
$USERI2
 70
     1
  9
$USERI3
 70
     1
  9
$USERI4
 70
     0
  9
$USERI5
 70
     0
  9
$USERR1
 40
0.0
  9
$USERR2
 40
0.0
  9
$USERR3
 40
0.0
  9
$USERR4
 40
0.0
  9
$USERR5
 40
0.0
  9
$WORLDVIEW
 70
     1
  9
$SHADEDGE
 70
     3
  9
$SHADEDIF
 70
    70
  9
$TILEMODE
 70
     1
  9
$MAXACTVP
 70
    16
  9
$PLIMCHECK
 70
     0
  9
$PEXTMIN
 10
1.0000000000000000E+020
 20
1.0000000000000000E+020
 30
1.0000000000000000E+020
  9
$PEXTMAX
 10
-1.0000000000000000E+020
 20
-1.0000000000000000E+020
 30
-1.0000000000000000E+020
  9
$PLIMMIN
 10
0.0
 20
0.0
  9
$PLIMMAX
 10
12.0
 20
9.0
  9
$UNITMODE
 70
     0
  9
$VISRETAIN
 70
     0
  9
$PLINEGEN
 70
     0
  9
$PSLTSCALE
 70
     0
  0
ENDSEC
  0
SECTION
  2
TABLES
  0
TABLE
  2
VPORT
 70
     1
  0
VPORT
  2
*ACTIVE
 70
     0
 10
0.0
 20
0.0
 11
1.0
 21
1.0
 12
181.62393162393161
 22
100.0
 13
0.0
 23
0.0
 14
10.0
 24
10.0
 15
10.0
 25
10.0
 16
0.0
 26
0.0
 36
1.0
 17
0.0
 27
0.0
 37
0.0
 40
200.0
 41
1.816239316239316
 42
50.0
 43
0.0
 44
0.0
 50
0.0
 51
0.0
 71
     0
 72
   500
 73
     1
 74
     0
 75
     0
 76
     0
 77
     0
 78
     2
  0
ENDTAB
  0
TABLE
  2
LTYPE
 70
     3
  0
LTYPE
  2
CONTINUOUS
 70
     0
  3
Solid Line
 72
    65
 73
     0
 40
0.0
  0
LTYPE
  2
CENTER
 70
     0
  3
____ _ ____ _ ____ _ ____ _ ____ _ ____ _ ____
 72
    65
 73
     4
 40
2.0
 49
1.25
 49
-0.25
 49
0.25
 49
-0.25
  0
LTYPE
  2
PHANTOM2
 70
     0
  3
___ _ _ ___ _ _ ___ _ _ ___ _ _
 72
    65
 73
     6
 40
1.25
 49
0.625
 49
-0.125
 49
0.125
 49
-0.125
 49
0.125
 49
-0.125
  0
ENDTAB
  0
TABLE
  2
LAYER
 70
     3
  0
LAYER
  2
0
 70
     0
 62
     7
  6
CONTINUOUS
  0
LAYER
  2
1
 70
     0
 62
     1
  6
CENTER
  0
LAYER
  2
3
 70
     0
 62
     3
  6
CONTINUOUS
  0
ENDTAB
  0
TABLE
  2
STYLE
 70
     2
  0
STYLE
  2
STANDARD
 70
     0
 40
0.0
 41
1.0
 50
0.0
 71
     0
 42
0.2
  3
TXT
  4
BIGFONT
  0
STYLE
  2
STANDARD1
 70
     0
 40
0.0
 41
1.0
 50
0.0
 71
     0
 42
3.0
  3
txt
  4

  0
ENDTAB
  0
TABLE
  2
VIEW
 70
     1
  0
VIEW
  2
ALL
 70
     0
 40
270.0
 10
220.99159663865549
 20
135.0
 41
0.0
 11
0.0
 21
0.0
 31
1.0
 12
0.0
 22
0.0
 32
0.0
 42
0.0
 43
0.0
 44
0.0
 50
0.0
 71
     0
  0
ENDTAB
  0
TABLE
  2
UCS
 70
     0
  0
ENDTAB
  0
TABLE
  2
APPID
 70
    13
  0
APPID
  2
ACAD
 70
     0
  0
APPID
  2
GENIUS_GENODEF_13
 70
     0
  0
APPID
  2
GENIUS_GENOENT_13
 70
     0
  0
APPID
  2
GENIUS_GENOBJ_13
 70
     0
  0
APPID
  2
GENIUS_GENOLIS_13
 70
     0
  0
APPID
  2
GENIUS_GENOREF_13
 70
     0
  0
APPID
  2
GENIUS_GENOBJ-N-FIL_13
 70
     0
  0
APPID
  2
ACAD_MLEADERVER
 70
     0
  0
APPID
  2
ACAD_DSTYLE_DIMJAG
 70
     0
  0
APPID
  2
ACAD_DSTYLE_DIMTALN
 70
     0
  0
APPID
  2
ACAD_NAV_VCDISPLAY
 70
     0
  0
APPID
  2
ACAD_EXEMPT_FROM_CAD_STANDARDS
 70
     0
  0
APPID
  2
ACADANNOTATIVE
 70
     0
  0
ENDTAB
  0
TABLE
  2
DIMSTYLE
 70
     1
  0
DIMSTYLE
  2
STANDARD
 70
     0
  3

  4

  5

  6

  7

 40
1.0
 41
0.18
 42
0.0625
 43
0.38
 44
0.18
 45
0.0
 46
0.0
 47
0.0
 48
0.0
140
0.18
141
0.09
142
0.0
143
25.399999999999999
144
1.0
145
0.0
146
1.0
147
0.09
 71
     0
 72
     0
 73
     1
 74
     1
 75
     0
 76
     0
 77
     0
 78
     0
170
     0
171
     2
172
     0
173
     0
174
     0
175
     0
176
     0
177
     0
178
     0
  0
ENDTAB
  0
ENDSEC
  0
SECTION
  2
BLOCKS
  0
BLOCK
  8
0
  2
$MODEL_SPACE
 70
     0
 10
0.0
 20
0.0
 30
0.0
  3
$MODEL_SPACE
  1

  0
ENDBLK
  5
DC
  8
0
  0
BLOCK
 67
     1
  8
0
  2
$PAPER_SPACE
 70
     0
 10
0.0
 20
0.0
 30
0.0
  3
$PAPER_SPACE
  1

  0
ENDBLK
  5
DA
 67
     1
  8
0
  0
ENDSEC
  0
SECTION
  2
ENTITIES
  0
TEXT
  5
452
  8
0
 62
     3
 10
0.0
 20
0.0
 30
0.0
 40
10.0
  1
NGR
  7
STANDARD1
  0
LINE
  5
107F
  8
0
 10
161.44337567299911
 20
148.84999999999849
 30
0.0
 11
162.8867513459432
 21
146.35000000003359
 31
0.0
  0
LINE
  5
1080
  8
0
 10
157.11324865405979
 20
146.3499999999662
 30
0.0
 11
158.5566243270064
 21
148.8499999999971
 31
0.0
  0
LINE
  5
1081
  8
0
 10
158.5566243270064
 20
143.85000000000269
 30
0.0
 11
157.11324865405979
 21
146.3499999999662
 31
0.0
  0
LINE
  5
1082
  8
0
 10
161.44337567299661
 20
143.85000000000269
 30
0.0
 11
158.5566243270064
 21
143.85000000000269
 31
0.0
  0
LINE
  5
1083
  8
0
 10
162.8867513459432
 20
146.35000000003359
 30
0.0
 11
161.44337567299661
 21
143.85000000000269
 31
0.0
  0
CIRCLE
  5
1084
  8
0
 10
160.00000000000151
 20
146.34999999999991
 30
0.0
 40
8.0
  0
LINE
  5
1085
  8
0
 10
158.5566243270064
 20
148.8499999999971
 30
0.0
 11
161.44337567299911
 21
148.84999999999849
 31
0.0
  0
LINE
  5
108E
  8
0
 10
148.50000000000151
 20
150.24999999999989
 30
0.0
 11
142.00000000000151
 21
150.24999999999989
 31
0.0
  0
LINE
  5
1091
  8
0
 10
171.50000000000151
 20
142.4499999999999
 30
0.0
 11
178.00000000000151
 21
142.4499999999999
 31
0.0
  0
LINE
  5
109B
  8
0
 10
142.00000000000151
 20
142.4499999999999
 30
0.0
 11
148.50000000000151
 21
142.4499999999999
 31
0.0
  0
LINE
  5
109E
  8
0
 10
178.00000000000151
 20
150.24999999999989
 30
0.0
 11
171.50000000000151
 21
150.24999999999989
 31
0.0
  0
LINE
  5
10A1
  8
0
 10
169.50000000000151
 20
148.24999999999989
 30
0.0
 11
169.50000000000151
 21
144.4499999999999
 31
0.0
  0
LINE
  5
10A4
  8
0
 10
150.50000000000151
 20
144.4499999999999
 30
0.0
 11
150.50000000000151
 21
148.24999999999989
 31
0.0
  0
ARC
  5
10A6
  8
0
 10
178.00000000000151
 20
144.4499999999999
 30
0.0
 40
2.0
 50
270.0
 51
0.0
  0
ARC
  5
10A7
  8
0
 10
142.00000000000151
 20
148.24999999999989
 30
0.0
 40
2.0000000000000142
 50
90.0
 51
180.0
  0
ARC
  5
10A8
  8
0
 10
142.00000000000151
 20
144.4499999999999
 30
0.0
 40
2.0000000000000142
 50
180.0
 51
270.0
  0
ARC
  5
10A9
  8
0
 10
178.00000000000151
 20
148.24999999999989
 30
0.0
 40
2.0
 50
0.0
 51
90.0
  0
ARC
  5
10AA
  8
0
 10
171.50000000000151
 20
144.4499999999999
 30
0.0
 40
2.0
 50
180.0
 51
270.0
  0
ARC
  5
10AB
  8
0
 10
171.50000000000151
 20
148.24999999999989
 30
0.0
 40
2.0
 50
90.0
 51
180.0
  0
ARC
  5
10AC
  8
0
 10
148.50000000000151
 20
144.4499999999999
 30
0.0
 40
2.0
 50
270.0
 51
0.0
  0
ARC
  5
10AD
  8
0
 10
148.50000000000151
 20
148.24999999999989
 30
0.0
 40
2.0
 50
0.0
 51
90.0
  0
LINE
  5
10AE
  8
0
 10
142.00000000000151
 20
166.34999999999991
 30
0.0
 11
178.00000000000151
 21
166.34999999999991
 31
0.0
  0
LINE
  5
10B7
  8
0
 10
180.00000000000151
 20
164.34999999999991
 30
0.0
 11
180.00000000000151
 21
128.34999999999991
 31
0.0
  0
LINE
  5
10BF
  8
0
 10
178.00000000000151
 20
126.34999999999989
 30
0.0
 11
142.00000000000151
 21
126.34999999999989
 31
0.0
  0
LINE
  5
10C5
  8
0
 10
140.00000000000151
 20
128.34999999999991
 30
0.0
 11
140.00000000000151
 21
164.34999999999991
 31
0.0
  0
ARC
  5
10C6
  8
0
 10
142.00000000000151
 20
164.34999999999991
 30
0.0
 40
2.0000000000000142
 50
90.0
 51
180.0
  0
ARC
  5
10C7
  8
0
 10
142.00000000000151
 20
128.34999999999991
 30
0.0
 40
2.0000000000000142
 50
180.0
 51
270.0
  0
ARC
  5
10C8
  8
0
 10
178.00000000000151
 20
128.34999999999991
 30
0.0
 40
2.0
 50
270.0
 51
0.0
  0
ARC
  5
10C9
  8
0
 10
178.00000000000151
 20
164.34999999999991
 30
0.0
 40
2.0
 50
0.0
 51
90.0
  0
LINE
  5
10CA
  8
0
 10
153.00000000000151
 20
62.25
 30
0.0
 11
153.00000000000151
 21
61.849999999999987
 31
0.0
  0
LINE
  5
10CB
  8
0
 10
167.00000000000151
 20
61.849999999999987
 30
0.0
 11
167.00000000000151
 21
62.25
 31
0.0
  0
LINE
  5
10D2
  8
0
 10
167.00000000000151
 20
61.849999999999987
 30
0.0
 11
153.00000000000151
 21
61.849999999999987
 31
0.0
  0
ARC
  5
10DC
  8
0
 10
141.00000000000151
 20
64.849999999999994
 30
0.0
 40
1.0
 50
90.0
 51
180.0
  0
LINE
  5
10DD
  8
0
 10
142.00000000000151
 20
65.849999999999966
 30
0.0
 11
141.00000000000151
 21
65.849999999999966
 31
0.0
  0
LINE
  5
10DF
  8
0
 10
179.00000000000151
 20
65.849999999999994
 30
0.0
 11
178.00000000000151
 21
65.849999999999994
 31
0.0
  0
ARC
  5
10E0
  8
0
 10
179.00000000000151
 20
64.849999999999994
 30
0.0
 40
1.0
 50
0.0
 51
90.0
  0
LINE
  5
10E9
  8
0
 10
180.00000000000151
 20
62.25
 30
0.0
 11
140.00000000000151
 21
62.25
 31
0.0
  0
LINE
  5
10EB
  8
0
 10
178.00000000000151
 20
65.849999999999994
 30
0.0
 11
142.00000000000151
 21
65.849999999999994
 31
0.0
  0
LINE
  5
10EE
  8
0
 10
180.00000000000151
 20
74.349999999999966
 30
0.0
 11
180.00000000000151
 21
62.25
 31
0.0
  0
LINE
  5
10F1
  8
0
 10
140.00000000000151
 20
62.25
 30
0.0
 11
140.00000000000151
 21
74.349999999999966
 31
0.0
  0
LINE
  5
10F2
  8
0
 10
150.50000000000151
 20
65.849999999999966
 30
0.0
 11
150.50000000000151
 21
74.349999999999966
 31
0.0
  0
LINE
  5
10F8
  8
0
 10
169.50000000000151
 20
74.349999999999966
 30
0.0
 11
169.50000000000151
 21
65.849999999999994
 31
0.0
  0
LINE
  5
10FC
  8
0
 10
171.50000000000151
 20
76.349999999999966
 30
0.0
 11
178.00000000000151
 21
76.349999999999966
 31
0.0
  0
LINE
  5
10FF
  8
0
 10
142.00000000000151
 20
76.349999999999966
 30
0.0
 11
148.50000000000151
 21
76.349999999999966
 31
0.0
  0
ARC
  5
1100
  8
0
 10
178.00000000000151
 20
74.349999999999966
 30
0.0
 40
2.0
 50
0.0
 51
90.0
  0
ARC
  5
1101
  8
0
 10
142.00000000000151
 20
74.349999999999966
 30
0.0
 40
2.0000000000000142
 50
90.0
 51
180.0
  0
ARC
  5
1102
  8
0
 10
148.50000000000151
 20
74.349999999999966
 30
0.0
 40
2.0
 50
0.0
 51
90.0
  0
ARC
  5
1103
  8
0
 10
171.50000000000151
 20
74.349999999999966
 30
0.0
 40
2.0
 50
90.0
 51
180.0
  0
LINE
  5
1104
  8
0
 10
62.999999999999957
 20
62.249999999999972
 30
0.0
 11
62.999999999999957
 21
61.849999999999937
 31
0.0
  0
LINE
  5
1105
  8
0
 10
76.999999999999986
 20
61.849999999999937
 30
0.0
 11
76.999999999999986
 21
62.249999999999972
 31
0.0
  0
LINE
  5
110E
  8
0
 10
76.999999999999986
 20
61.849999999999937
 30
0.0
 11
62.999999999999957
 21
61.849999999999937
 31
0.0
  0
LINE
  5
1121
  8
0
 10
88.999999999999986
 20
65.849999999999923
 30
0.0
 11
73.899999999999991
 21
65.849999999999923
 31
0.0
  0
ARC
  5
1122
  8
0
 10
88.999999999999986
 20
64.849999999999966
 30
0.0
 40
1.0
 50
0.0
 51
90.0
  0
ARC
  5
1124
  8
0
 10
50.999999999999979
 20
64.849999999999966
 30
0.0
 40
1.0
 50
90.0
 51
180.0
  0
LINE
  5
1125
  8
0
 10
66.09999999999998
 20
65.849999999999923
 30
0.0
 11
50.999999999999979
 21
65.849999999999923
 31
0.0
  0
LINE
  5
1130
  8
0
 10
49.999999999999993
 20
62.249999999999972
 30
0.0
 11
49.999999999999993
 21
64.849999999999966
 31
0.0
  0
LINE
  5
1131
  8
0
 10
89.999999999999986
 20
62.249999999999972
 30
0.0
 11
49.999999999999993
 21
62.249999999999972
 31
0.0
  0
LINE
  5
1132
  8
0
 10
89.999999999999986
 20
62.249999999999972
 30
0.0
 11
89.999999999999986
 21
64.849999999999966
 31
0.0
  0
LINE
  5
1134
  8
0
 10
73.899999999999991
 20
65.849999999999923
 30
0.0
 11
73.899999999999991
 21
74.349999999999966
 31
0.0
  0
LINE
  5
1137
  8
0
 10
66.09999999999998
 20
74.349999999999966
 30
0.0
 11
66.09999999999998
 21
65.849999999999923
 31
0.0
  0
LINE
  5
113D
  8
0
 10
71.899999999999991
 20
76.349999999999966
 30
0.0
 11
68.10000000000305
 21
76.349999999999966
 31
0.0
  0
ARC
  5
113E
  8
0
 10
68.09999999999998
 20
74.349999999999966
 30
0.0
 40
2.0
 50
89.999999999824126
 51
180.0
  0
ARC
  5
113F
  8
0
 10
71.899999999999991
 20
74.349999999999966
 30
0.0
 40
2.0
 50
0.0
 51
90.0
  0
LINE
  5
1178
  8
0
 10
166.50000000000151
 20
50.0
 30
0.0
 11
164.00000000170149
 21
50.0
 31
0.0
  0
LINE
  5
1179
  8
0
 10
155.99999999830149
 20
50.0
 30
0.0
 11
143.50000000000151
 21
50.0
 31
0.0
  0
LINE
  5
1181
  8
0
 10
166.50000000000151
 20
57.300000000000011
 30
0.0
 11
143.50000000000151
 21
57.300000000000011
 31
0.0
  0
ARC
  5
1183
  8
0
 10
160.00000000000151
 20
48.287116748181937
 30
0.0
 40
4.0440933566825468
 50
42.30438950532573
 51
137.69561049466961
  0
LINE
  5
1185
  8
0
 10
164.00000000000151
 20
50.000000001700009
 30
0.0
 11
162.99092867252449
 21
51.00907132917694
 31
0.0
  0
LINE
  5
1186
  8
0
 10
157.00907132747841
 20
51.009071329176919
 30
0.0
 11
156.00000000000151
 21
50.000000001700009
 31
0.0
  0
LINE
  5
1187
  8
0
 10
166.50000000000151
 20
57.300000000000011
 30
0.0
 11
166.50000000000151
 21
50.0
 31
0.0
  0
LINE
  5
1188
  8
0
 10
143.50000000000139
 20
57.300000000000011
 30
0.0
 11
143.50000000000151
 21
50.0
 31
0.0
  0
LINE
  5
119B
  8
0
 10
73.999999999999986
 20
57.300000000008218
 30
0.0
 11
73.999999999999986
 21
61.849999999999937
 31
0.0
  0
LINE
  5
119C
  8
0
 10
65.999999999999986
 20
61.849999999999937
 30
0.0
 11
65.999999999999986
 21
57.300000000008218
 31
0.0
  0
ARC
  5
11A0
  8
0
 10
63.30000000539998
 20
57.099999997508242
 30
0.0
 40
0.2000000025133401
 50
90.000000057296788
 51
201.82020887928419
  0
LINE
  5
11A1
  8
0
 10
63.300000005199983
 20
57.300000000008218
 30
0.0
 11
76.699999994816736
 21
57.300000000008218
 31
0.0
  0
ARC
  5
11A2
  8
0
 10
76.699999994599963
 20
57.099999997508242
 30
0.0
 40
0.2000000025133401
 50
338.17979112071941
 51
89.99999993789929
  0
ARC
  5
11A3
  8
0
 10
62.031994518799998
 20
62.972786016908231
 30
0.0
 40
16.000000011000012
 50
311.6056887420151
 51
338.17979005847758
  0
ARC
  5
11A4
  8
0
 10
69.999999999999986
 20
54.00000000170823
 30
0.0
 40
4.0000000017082771
 50
228.39431126594749
 51
311.60568873382368
  0
ARC
  5
11A5
  8
0
 10
77.968005481200052
 20
62.972786016908287
 30
0.0
 40
16.000000010995979
 50
201.8202099415237
 51
228.39431125792839
  0
LINE
  5
11C2
  8
3
 10
73.323500000000095
 20
57.300000000008218
 30
0.0
 11
73.323500000000124
 21
61.849999999999937
 31
0.0
  0
LINE
  5
11C3
  8
3
 10
66.676499999999905
 20
57.300000000008218
 30
0.0
 11
66.676499999999905
 21
61.849999999999937
 31
0.0
  0
LINE
  5
11C7
  8
0
 10
164.00000000000151
 20
57.300000000000011
 30
0.0
 11
164.00000000000151
 21
61.850000000000023
 31
0.0
  0
LINE
  5
11C8
  8
3
 10
163.32350000000159
 20
57.300000000000011
 30
0.0
 11
163.32350000000159
 21
61.850000000000023
 31
0.0
  0
LINE
  5
11C9
  8
3
 10
156.6765000000014
 20
57.300000000000011
 30
0.0
 11
156.6765000000014
 21
61.850000000000023
 31
0.0
  0
LINE
  5
11CA
  8
0
 10
156.00000000000151
 20
57.300000000000011
 30
0.0
 11
156.00000000000151
 21
61.850000000000023
 31
0.0
  0
LINE
  5
11D1
  8
1
 10
160.00000000000151
 20
171.34999999999991
 30
0.0
 11
160.00000000000151
 21
121.34999999999989
 31
0.0
  0
LINE
  5
11D2
  8
1
 10
185.00000000000151
 20
146.34999999999991
 30
0.0
 11
135.00000000000151
 21
146.34999999999991
 31
0.0
  0
LINE
  5
11DB
  8
1
 10
69.999999999999986
 20
81.349999999999966
 30
0.0
 11
69.999999999999986
 21
44.999999999999972
 31
0.0
  0
LINE
  5
11DC
  8
1
 10
160.00000000000151
 20
81.349999999999966
 30
0.0
 11
160.00000000000151
 21
45.0
 31
0.0
  0
ENDSEC
  0
EOF
