  0
SECTION
  2
HEADER
  9
$ACADVER
  1
AC1009
  9
$INSBASE
 10
0.0
 20
0.0
 30
0.0
  9
$EXTMIN
 10
0.0
 20
-1.4802182810368341
 30
0.0
  9
$EXTMAX
 10
107.0
 20
121.0
 30
0.0
  9
$LIMMIN
 10
0.0
 20
0.0
  9
$LIMMAX
 10
375.0
 20
270.0
  9
$ORTHOMODE
 70
     1
  9
$REGENMODE
 70
     1
  9
$FILLMODE
 70
     1
  9
$QTEXTMODE
 70
     0
  9
$MIRRTEXT
 70
     0
  9
$DRAGMODE
 70
     2
  9
$LTSCALE
 40
10.0
  9
$OSMODE
 70
    37
  9
$ATTMODE
 70
     1
  9
$TEXTSIZE
 40
0.2
  9
$TRACEWID
 40
0.05
  9
$TEXTSTYLE
  7
STANDARD
  9
$CLAYER
  8
0
  9
$CELTYPE
  6
BYLAYER
  9
$CECOLOR
 62
   256
  9
$DIMSCALE
 40
1.0
  9
$DIMASZ
 40
3.0
  9
$DIMEXO
 40
2.0
  9
$DIMDLI
 40
0.38
  9
$DIMRND
 40
0.0
  9
$DIMDLE
 40
0.0
  9
$DIMEXE
 40
2.0
  9
$DIMTP
 40
0.0
  9
$DIMTM
 40
0.0
  9
$DIMTXT
 40
3.0
  9
$DIMCEN
 40
0.0
  9
$DIMTSZ
 40
0.0
  9
$DIMTOL
 70
     0
  9
$DIMLIM
 70
     0
  9
$DIMTIH
 70
     0
  9
$DIMTOH
 70
     0
  9
$DIMSE1
 70
     0
  9
$DIMSE2
 70
     0
  9
$DIMTAD
 70
     1
  9
$DIMZIN
 70
     8
  9
$DIMBLK
  1

  9
$DIMASO
 70
     0
  9
$DIMSHO
 70
     0
  9
$DIMPOST
  1

  9
$DIMAPOST
  1

  9
$DIMALT
 70
     0
  9
$DIMALTD
 70
     2
  9
$DIMALTF
 40
25.399999999999999
  9
$DIMLFAC
 40
1.0
  9
$DIMTOFL
 70
     1
  9
$DIMTVP
 40
1.6000000000000001
  9
$DIMTIX
 70
     1
  9
$DIMSOXD
 70
     0
  9
$DIMSAH
 70
     0
  9
$DIMBLK1
  1

  9
$DIMBLK2
  1

  9
$DIMSTYLE
  2
STANDARD
  9
$DIMCLRD
 70
     0
  9
$DIMCLRE
 70
     0
  9
$DIMCLRT
 70
     0
  9
$DIMTFAC
 40
1.0
  9
$DIMGAP
 40
0.09
  9
$LUNITS
 70
     2
  9
$LUPREC
 70
     1
  9
$SKETCHINC
 40
0.1
  9
$FILLETRAD
 40
0.0
  9
$AUNITS
 70
     0
  9
$AUPREC
 70
     1
  9
$MENU
  1
E:\r13\win\SUPPORT\ACAD
  9
$ELEVATION
 40
0.0
  9
$PELEVATION
 40
0.0
  9
$THICKNESS
 40
0.0
  9
$LIMCHECK
 70
     0
  9
$BLIPMODE
 70
     0
  9
$CHAMFERA
 40
0.0
  9
$CHAMFERB
 40
0.0
  9
$SKPOLY
 70
     0
  9
$TDCREATE
 40
2449840.353356482
  9
$TDUPDATE
 40
2459783.417611354
  9
$TDINDWG
 40
0.0935208796
  9
$TDUSRTIMER
 40
2456693.1603281712
  9
$USRTIMER
 70
     1
  9
$ANGBASE
 50
0.0
  9
$ANGDIR
 70
     0
  9
$PDMODE
 70
     0
  9
$PDSIZE
 40
0.0
  9
$PLINEWID
 40
0.0
  9
$COORDS
 70
     1
  9
$SPLFRAME
 70
     0
  9
$SPLINETYPE
 70
     6
  9
$SPLINESEGS
 70
     8
  9
$ATTDIA
 70
     0
  9
$ATTREQ
 70
     1
  9
$HANDLING
 70
     1
  9
$HANDSEED
  5
B3E
  9
$SURFTAB1
 70
     6
  9
$SURFTAB2
 70
     6
  9
$SURFTYPE
 70
     6
  9
$SURFU
 70
     6
  9
$SURFV
 70
     6
  9
$UCSNAME
  2

  9
$UCSORG
 10
0.0
 20
0.0
 30
0.0
  9
$UCSXDIR
 10
1.0
 20
0.0
 30
0.0
  9
$UCSYDIR
 10
0.0
 20
1.0
 30
0.0
  9
$PUCSNAME
  2

  9
$PUCSORG
 10
0.0
 20
0.0
 30
0.0
  9
$PUCSXDIR
 10
1.0
 20
0.0
 30
0.0
  9
$PUCSYDIR
 10
0.0
 20
1.0
 30
0.0
  9
$USERI1
 70
     3
  9
$USERI2
 70
     1
  9
$USERI3
 70
     0
  9
$USERI4
 70
     0
  9
$USERI5
 70
     0
  9
$USERR1
 40
1.0
  9
$USERR2
 40
3.0
  9
$USERR3
 40
3.0
  9
$USERR4
 40
3.0
  9
$USERR5
 40
10.0
  9
$WORLDVIEW
 70
     1
  9
$SHADEDGE
 70
     3
  9
$SHADEDIF
 70
    70
  9
$TILEMODE
 70
     1
  9
$MAXACTVP
 70
    16
  9
$PLIMCHECK
 70
     0
  9
$PEXTMIN
 10
1.0000000000000000E+020
 20
1.0000000000000000E+020
 30
1.0000000000000000E+020
  9
$PEXTMAX
 10
-1.0000000000000000E+020
 20
-1.0000000000000000E+020
 30
-1.0000000000000000E+020
  9
$PLIMMIN
 10
0.0
 20
0.0
  9
$PLIMMAX
 10
0.0
 20
0.0
  9
$UNITMODE
 70
     0
  9
$VISRETAIN
 70
     0
  9
$PLINEGEN
 70
     0
  9
$PSLTSCALE
 70
     0
  0
ENDSEC
  0
SECTION
  2
TABLES
  0
TABLE
  2
VPORT
 70
     1
  0
VPORT
  2
*ACTIVE
 70
     0
 10
0.0
 20
0.0
 11
1.0
 21
1.0
 12
227.76442307692309
 22
100.0
 13
0.0
 23
0.0
 14
5.0
 24
5.0
 15
10.0
 25
10.0
 16
0.0
 26
0.0
 36
1.0
 17
0.0
 27
0.0
 37
0.0
 40
200.0
 41
2.2776442307692299
 42
50.0
 43
0.0
 44
0.0
 50
0.0
 51
0.0
 71
    16
 72
   100
 73
     1
 74
     0
 75
     0
 76
     0
 77
     0
 78
     2
  0
ENDTAB
  0
TABLE
  2
LTYPE
 70
     3
  0
LTYPE
  2
CONTINUOUS
 70
     0
  3
Solid Line
 72
    65
 73
     0
 40
0.0
  0
LTYPE
  2
CENTER
 70
     0
  3
____ _ ____ _ ____ _ ____ _ ____ _ ____ _ ____
 72
    65
 73
     4
 40
2.0
 49
1.25
 49
-0.25
 49
0.25
 49
-0.25
  0
LTYPE
  2
PHANTOM2
 70
     0
  3
___ _ _ ___ _ _ ___ _ _ ___ _ _
 72
    65
 73
     6
 40
1.25
 49
0.625
 49
-0.125
 49
0.125
 49
-0.125
 49
0.125
 49
-0.125
  0
ENDTAB
  0
TABLE
  2
LAYER
 70
     4
  0
LAYER
  2
0
 70
     0
 62
     7
  6
CONTINUOUS
  0
LAYER
  2
1
 70
     0
 62
     1
  6
CENTER
  0
LAYER
  2
3
 70
     0
 62
     3
  6
CONTINUOUS
  0
LAYER
  2
DEFPOINTS
 70
     0
 62
     7
  6
CONTINUOUS
  0
ENDTAB
  0
TABLE
  2
STYLE
 70
     2
  0
STYLE
  2
STANDARD
 70
     0
 40
0.0
 41
1.0
 50
0.0
 71
     0
 42
0.2
  3
TXT
  4
BIGFONT
  0
STYLE
  2
STANDARD1
 70
     0
 40
0.0
 41
1.0
 50
0.0
 71
     0
 42
3.0
  3
txt
  4

  0
ENDTAB
  0
TABLE
  2
VIEW
 70
     0
  0
ENDTAB
  0
TABLE
  2
UCS
 70
     0
  0
ENDTAB
  0
TABLE
  2
APPID
 70
     6
  0
APPID
  2
ACAD
 70
     0
  0
APPID
  2
ACAD_MLEADERVER
 70
     0
  0
APPID
  2
ACAD_EXEMPT_FROM_CAD_STANDARDS
 70
     0
  0
APPID
  2
ACAD_NAV_VCDISPLAY
 70
     0
  0
APPID
  2
ACAD_DSTYLE_DIMJAG
 70
     0
  0
APPID
  2
ACAD_DSTYLE_DIMTALN
 70
     0
  0
ENDTAB
  0
TABLE
  2
DIMSTYLE
 70
     1
  0
DIMSTYLE
  2
STANDARD
 70
     0
  3

  4

  5

  6

  7

 40
1.0
 41
0.18
 42
0.0625
 43
0.38
 44
0.18
 45
0.0
 46
0.0
 47
0.0
 48
0.0
140
0.18
141
0.09
142
0.0
143
25.399999999999999
144
1.0
145
0.0
146
1.0
147
0.09
 71
     0
 72
     0
 73
     1
 74
     1
 75
     0
 76
     0
 77
     0
 78
     0
170
     0
171
     2
172
     0
173
     0
174
     0
175
     0
176
     0
177
     0
178
     0
  0
ENDTAB
  0
ENDSEC
  0
SECTION
  2
BLOCKS
  0
BLOCK
  8
0
  2
$MODEL_SPACE
 70
     0
 10
0.0
 20
0.0
 30
0.0
  3
$MODEL_SPACE
  1

  0
ENDBLK
  5
FD
  8
0
  0
BLOCK
 67
     1
  8
0
  2
$PAPER_SPACE
 70
     0
 10
0.0
 20
0.0
 30
0.0
  3
$PAPER_SPACE
  1

  0
ENDBLK
  5
FB
 67
     1
  8
0
  0
ENDSEC
  0
SECTION
  2
ENTITIES
  0
TEXT
  5
1B6
  8
0
 62
     3
 10
0.0
 20
0.0
 30
0.0
 40
5.0
  1
NUT-G1/2-NK
  7
STANDARD1
  0
CIRCLE
  5
86E
  8
0
 10
50.0
 20
104.0
 30
0.0
 40
9.3155000000000001
  0
CIRCLE
  5
875
  8
3
 10
50.0
 20
104.0
 30
0.0
 40
10.48
  0
LINE
  5
877
  8
1
 10
33.0
 20
104.0
 30
0.0
 11
67.0
 21
104.0
 31
0.0
  0
LINE
  5
878
  8
1
 10
50.0
 20
87.0
 30
0.0
 11
50.0
 21
121.0
 31
0.0
  0
CIRCLE
  5
879
  8
0
 10
50.0
 20
104.0
 30
0.0
 40
11.999999999999989
  0
LINE
  5
A5D
  8
0
 10
60.86537511405129
 20
96.416720786429636
 30
0.0
 11
51.134624885999983
 21
90.798669522799983
 31
0.0
  0
ARC
  5
A5E
  8
0
 10
50.0
 20
104.0
 30
0.0
 40
13.249999999999989
 50
265.08762784149991
 51
274.91237215850009
  0
LINE
  5
A5F
  8
0
 10
39.134624885949812
 20
111.583279213571
 30
0.0
 11
48.865375114000017
 21
117.2013304772
 31
0.0
  0
ARC
  5
A60
  8
0
 10
50.0
 20
104.0
 30
0.0
 40
13.250000000000011
 50
85.087627841499895
 51
94.912372158500105
  0
LINE
  5
A61
  8
0
 10
37.999999999999993
 20
98.381948736438915
 30
0.0
 11
38.0
 21
109.61805126350001
 31
0.0
  0
ARC
  5
A62
  8
0
 10
50.0
 20
104.0
 30
0.0
 40
13.250000000000011
 50
145.08762784149951
 51
154.9123721584991
  0
ARC
  5
A63
  8
0
 10
50.0
 20
104.0
 30
0.0
 40
13.25
 50
25.0876278415009
 51
34.91237215850046
  0
LINE
  5
A64
  8
0
 10
51.134624886013938
 20
117.201330477192
 30
0.0
 11
60.865375114000017
 21
111.58327921359999
 31
0.0
  0
LINE
  5
A65
  8
0
 10
48.865375113986119
 20
90.798669522807998
 30
0.0
 11
39.13462488599999
 21
96.41672078640002
 31
0.0
  0
ARC
  5
A66
  8
0
 10
50.0
 20
104.0
 30
0.0
 40
13.25000000000002
 50
205.0876278415009
 51
214.9123721585004
  0
ARC
  5
A67
  8
0
 10
50.0
 20
104.0
 30
0.0
 40
13.25000000000051
 50
325.08762784149962
 51
334.91237215849912
  0
LINE
  5
A68
  8
0
 10
62.0
 20
109.618051263561
 30
0.0
 11
62.0
 21
98.381948736400005
 31
0.0
  0
LINE
  5
A8E
  8
0
 10
100.78108668989999
 20
117.25
 30
0.0
 11
100.0
 21
116.0
 31
0.0
  0
LINE
  5
A8F
  8
0
 10
100.0
 20
91.999999999999986
 30
0.0
 11
100.78108668989999
 21
90.749999999999986
 31
0.0
  0
LINE
  5
A90
  8
0
 10
104.0
 20
117.25
 30
0.0
 11
100.78108668989999
 21
117.25
 31
0.0
  0
LINE
  5
A91
  8
0
 10
100.78108668989999
 20
90.749999999999986
 30
0.0
 11
104.0
 21
90.749999999999986
 31
0.0
  0
LINE
  5
A92
  8
0
 10
104.0
 20
98.381948736399991
 30
0.0
 11
100.78108668989999
 21
98.381948736399991
 31
0.0
  0
ARC
  5
A93
  8
0
 10
121.6924740983
 20
104.1526160122
 30
0.0
 40
21.69301095174956
 50
180.40309413669991
 51
195.42727563219981
  0
ARC
  5
A94
  8
0
 10
121.5821335457
 20
103.862724812
 30
0.0
 40
21.582570117155498
 50
164.5340605049999
 51
179.63556972620009
  0
LINE
  5
A95
  8
0
 10
104.0
 20
109.61805126350001
 30
0.0
 11
100.78108668989999
 21
109.61805126350001
 31
0.0
  0
LINE
  5
A97
  8
0
 10
104.0
 20
96.416720786400006
 30
0.0
 11
100.78108668989999
 21
96.416720786400006
 31
0.0
  0
LINE
  5
A98
  8
0
 10
100.78108668989999
 20
98.381948736399991
 30
0.0
 11
100.78108668989999
 21
96.416720786400006
 31
0.0
  0
ARC
  5
A9A
  8
0
 10
105.8959537403
 20
93.4813558723
 30
0.0
 40
5.8973071924742131
 50
150.14896862690011
 51
178.77244626320021
  0
LINE
  5
A9C
  8
0
 10
100.78108668989999
 20
111.58327921359999
 30
0.0
 11
100.78108668989999
 21
109.61805126350001
 31
0.0
  0
LINE
  5
A9D
  8
0
 10
104.0
 20
111.58327921359999
 30
0.0
 11
100.78108668989999
 21
111.58327921359999
 31
0.0
  0
ARC
  5
AA0
  8
0
 10
105.9743723216
 20
114.5404494503
 30
0.0
 40
5.9762087865708224
 50
181.42045408300029
 51
209.65813102690041
  0
LINE
  5
AA1
  8
0
 10
104.0
 20
90.798669522799969
 30
0.0
 11
100.78108668989999
 21
90.798669522799969
 31
0.0
  0
ARC
  5
AA2
  8
0
 10
105.9743723216
 20
93.75583975939999
 30
0.0
 40
5.9762087865707931
 50
181.42045408300029
 51
209.65813102690041
  0
ARC
  5
AA4
  8
0
 10
105.8959537403
 20
114.2659655631
 30
0.0
 40
5.8973071924842788
 50
150.14896862699959
 51
178.77244626320021
  0
LINE
  5
AA5
  8
0
 10
104.0
 20
117.2013304772
 30
0.0
 11
100.78108668989999
 21
117.2013304772
 31
0.0
  0
LINE
  5
AA7
  8
0
 10
100.78108668989999
 20
117.25
 30
0.0
 11
100.78108668989999
 21
117.2013304772
 31
0.0
  0
LINE
  5
AA9
  8
0
 10
100.78108668989999
 20
90.798669522799969
 30
0.0
 11
100.78108668989999
 21
90.749999999999986
 31
0.0
  0
LINE
  5
AAA
  8
0
 10
100.0
 20
116.0
 30
0.0
 11
100.0
 21
91.999999999999986
 31
0.0
  0
LINE
  5
AAB
  8
0
 10
104.0
 20
90.750000000000014
 30
0.0
 11
104.0
 21
117.25
 31
0.0
  0
LINE
  5
AAD
  8
1
 10
97.0
 20
104.0
 30
0.0
 11
107.0
 21
104.0
 31
0.0
  0
LINE
  5
AD2
  8
0
 10
48.865375114000017
 20
50.0
 30
0.0
 11
48.865375114000017
 21
53.2189133101
 31
0.0
  0
LINE
  5
AD3
  8
0
 10
51.134624885999983
 20
53.2189133101
 30
0.0
 11
48.865375114000017
 21
53.2189133101
 31
0.0
  0
LINE
  5
AD4
  8
0
 10
51.134624885999983
 20
50.0
 30
0.0
 11
51.134624885999983
 21
53.2189133101
 31
0.0
  0
ARC
  5
AD7
  8
0
 10
56.152435165299998
 20
37.506773147099977
 30
0.0
 40
16.493931262777661
 50
90.529529062200396
 51
107.7113400743999
  0
ARC
  5
AD8
  8
0
 10
43.870011504799997
 20
37.646593056100009
 30
0.0
 40
16.35392355621109
 50
72.214548828299641
 51
89.544582035001014
  0
LINE
  5
AD9
  8
0
 10
39.13462488599999
 20
50.0
 30
0.0
 11
39.13462488599999
 21
53.2189133101
 31
0.0
  0
ARC
  5
ADA
  8
0
 10
44.152435165299998
 20
37.506773147099977
 30
0.0
 40
16.49393126277737
 50
90.529529062200396
 51
107.7113400743999
  0
ARC
  5
ADC
  8
0
 10
55.870011504799997
 20
37.646593056100009
 30
0.0
 40
16.353923556190399
 50
72.214548828299641
 51
89.544582035001014
  0
LINE
  5
ADD
  8
0
 10
60.865375114000017
 20
50.0
 30
0.0
 11
60.865375114000017
 21
53.2189133101
 31
0.0
  0
LINE
  5
ADF
  8
0
 10
62.0
 20
53.2189133101
 30
0.0
 11
60.865375114000017
 21
53.2189133101
 31
0.0
  0
LINE
  5
AE1
  8
0
 10
62.0
 20
53.999999999999993
 30
0.0
 11
38.0
 21
53.999999999999993
 31
0.0
  0
LINE
  5
AE2
  8
0
 10
39.13462488599999
 20
53.2189133101
 30
0.0
 11
38.0
 21
53.2189133101
 31
0.0
  0
LINE
  5
AE5
  8
0
 10
38.0
 20
50.0
 30
0.0
 11
38.0
 21
53.999999999999993
 31
0.0
  0
LINE
  5
AE6
  8
0
 10
38.0
 20
50.0
 30
0.0
 11
62.0
 21
50.0
 31
0.0
  0
LINE
  5
AE7
  8
0
 10
62.0
 20
50.0
 30
0.0
 11
62.0
 21
53.999999999999993
 31
0.0
  0
LINE
  5
AE9
  8
1
 10
50.0
 20
56.999999999999993
 30
0.0
 11
50.0
 21
46.999999999999993
 31
0.0
  0
ENDSEC
  0
EOF
