  0
SECTION
  2
HEADER
  9
$ACADVER
  1
AC1009
  9
$INSBASE
 10
0.0
 20
0.0
 30
0.0
  9
$EXTMIN
 10
0.0
 20
-1.4802182810368341
 30
0.0
  9
$EXTMAX
 10
106.0
 20
115.5
 30
0.0
  9
$LIMMIN
 10
0.0
 20
0.0
  9
$LIMMAX
 10
375.0
 20
270.0
  9
$ORTHOMODE
 70
     1
  9
$REGENMODE
 70
     1
  9
$FILLMODE
 70
     1
  9
$QTEXTMODE
 70
     0
  9
$MIRRTEXT
 70
     0
  9
$DRAGMODE
 70
     2
  9
$LTSCALE
 40
10.0
  9
$OSMODE
 70
    37
  9
$ATTMODE
 70
     1
  9
$TEXTSIZE
 40
0.2
  9
$TRACEWID
 40
0.05
  9
$TEXTSTYLE
  7
STANDARD
  9
$CLAYER
  8
0
  9
$CELTYPE
  6
BYLAYER
  9
$CECOLOR
 62
   256
  9
$DIMSCALE
 40
1.0
  9
$DIMASZ
 40
3.0
  9
$DIMEXO
 40
2.0
  9
$DIMDLI
 40
0.38
  9
$DIMRND
 40
0.0
  9
$DIMDLE
 40
0.0
  9
$DIMEXE
 40
2.0
  9
$DIMTP
 40
0.0
  9
$DIMTM
 40
0.0
  9
$DIMTXT
 40
3.0
  9
$DIMCEN
 40
0.0
  9
$DIMTSZ
 40
0.0
  9
$DIMTOL
 70
     0
  9
$DIMLIM
 70
     0
  9
$DIMTIH
 70
     0
  9
$DIMTOH
 70
     0
  9
$DIMSE1
 70
     0
  9
$DIMSE2
 70
     0
  9
$DIMTAD
 70
     1
  9
$DIMZIN
 70
     8
  9
$DIMBLK
  1

  9
$DIMASO
 70
     0
  9
$DIMSHO
 70
     0
  9
$DIMPOST
  1

  9
$DIMAPOST
  1

  9
$DIMALT
 70
     0
  9
$DIMALTD
 70
     2
  9
$DIMALTF
 40
25.399999999999999
  9
$DIMLFAC
 40
1.0
  9
$DIMTOFL
 70
     1
  9
$DIMTVP
 40
1.6000000000000001
  9
$DIMTIX
 70
     1
  9
$DIMSOXD
 70
     0
  9
$DIMSAH
 70
     0
  9
$DIMBLK1
  1

  9
$DIMBLK2
  1

  9
$DIMSTYLE
  2
STANDARD
  9
$DIMCLRD
 70
     0
  9
$DIMCLRE
 70
     0
  9
$DIMCLRT
 70
     0
  9
$DIMTFAC
 40
1.0
  9
$DIMGAP
 40
0.09
  9
$LUNITS
 70
     2
  9
$LUPREC
 70
     1
  9
$SKETCHINC
 40
0.1
  9
$FILLETRAD
 40
0.0
  9
$AUNITS
 70
     0
  9
$AUPREC
 70
     1
  9
$MENU
  1
E:\r13\win\SUPPORT\ACAD
  9
$ELEVATION
 40
0.0
  9
$PELEVATION
 40
0.0
  9
$THICKNESS
 40
0.0
  9
$LIMCHECK
 70
     0
  9
$BLIPMODE
 70
     0
  9
$CHAMFERA
 40
0.0
  9
$CHAMFERB
 40
0.0
  9
$SKPOLY
 70
     0
  9
$TDCREATE
 40
2449840.353356482
  9
$TDUPDATE
 40
2459783.4176289351
  9
$TDINDWG
 40
0.1504666782
  9
$TDUSRTIMER
 40
2456693.2193277888
  9
$USRTIMER
 70
     1
  9
$ANGBASE
 50
0.0
  9
$ANGDIR
 70
     0
  9
$PDMODE
 70
     0
  9
$PDSIZE
 40
0.0
  9
$PLINEWID
 40
0.0
  9
$COORDS
 70
     1
  9
$SPLFRAME
 70
     0
  9
$SPLINETYPE
 70
     6
  9
$SPLINESEGS
 70
     8
  9
$ATTDIA
 70
     0
  9
$ATTREQ
 70
     1
  9
$HANDLING
 70
     1
  9
$HANDSEED
  5
92B
  9
$SURFTAB1
 70
     6
  9
$SURFTAB2
 70
     6
  9
$SURFTYPE
 70
     6
  9
$SURFU
 70
     6
  9
$SURFV
 70
     6
  9
$UCSNAME
  2

  9
$UCSORG
 10
0.0
 20
0.0
 30
0.0
  9
$UCSXDIR
 10
1.0
 20
0.0
 30
0.0
  9
$UCSYDIR
 10
0.0
 20
1.0
 30
0.0
  9
$PUCSNAME
  2

  9
$PUCSORG
 10
0.0
 20
0.0
 30
0.0
  9
$PUCSXDIR
 10
1.0
 20
0.0
 30
0.0
  9
$PUCSYDIR
 10
0.0
 20
1.0
 30
0.0
  9
$USERI1
 70
     3
  9
$USERI2
 70
     1
  9
$USERI3
 70
     0
  9
$USERI4
 70
     0
  9
$USERI5
 70
     0
  9
$USERR1
 40
1.0
  9
$USERR2
 40
3.0
  9
$USERR3
 40
3.0
  9
$USERR4
 40
3.0
  9
$USERR5
 40
10.0
  9
$WORLDVIEW
 70
     1
  9
$SHADEDGE
 70
     3
  9
$SHADEDIF
 70
    70
  9
$TILEMODE
 70
     1
  9
$MAXACTVP
 70
    16
  9
$PLIMCHECK
 70
     0
  9
$PEXTMIN
 10
1.0000000000000000E+020
 20
1.0000000000000000E+020
 30
1.0000000000000000E+020
  9
$PEXTMAX
 10
-1.0000000000000000E+020
 20
-1.0000000000000000E+020
 30
-1.0000000000000000E+020
  9
$PLIMMIN
 10
0.0
 20
0.0
  9
$PLIMMAX
 10
0.0
 20
0.0
  9
$UNITMODE
 70
     0
  9
$VISRETAIN
 70
     0
  9
$PLINEGEN
 70
     0
  9
$PSLTSCALE
 70
     0
  0
ENDSEC
  0
SECTION
  2
TABLES
  0
TABLE
  2
VPORT
 70
     1
  0
VPORT
  2
*ACTIVE
 70
     0
 10
0.0
 20
0.0
 11
1.0
 21
1.0
 12
227.76442307692309
 22
100.0
 13
0.0
 23
0.0
 14
5.0
 24
5.0
 15
10.0
 25
10.0
 16
0.0
 26
0.0
 36
1.0
 17
0.0
 27
0.0
 37
0.0
 40
200.0
 41
2.2776442307692299
 42
50.0
 43
0.0
 44
0.0
 50
0.0
 51
0.0
 71
    16
 72
   100
 73
     1
 74
     0
 75
     0
 76
     0
 77
     0
 78
     2
  0
ENDTAB
  0
TABLE
  2
LTYPE
 70
     3
  0
LTYPE
  2
CONTINUOUS
 70
     0
  3
Solid Line
 72
    65
 73
     0
 40
0.0
  0
LTYPE
  2
CENTER
 70
     0
  3
____ _ ____ _ ____ _ ____ _ ____ _ ____ _ ____
 72
    65
 73
     4
 40
2.0
 49
1.25
 49
-0.25
 49
0.25
 49
-0.25
  0
LTYPE
  2
PHANTOM2
 70
     0
  3
___ _ _ ___ _ _ ___ _ _ ___ _ _
 72
    65
 73
     6
 40
1.25
 49
0.625
 49
-0.125
 49
0.125
 49
-0.125
 49
0.125
 49
-0.125
  0
ENDTAB
  0
TABLE
  2
LAYER
 70
     3
  0
LAYER
  2
0
 70
     0
 62
     7
  6
CONTINUOUS
  0
LAYER
  2
1
 70
     0
 62
     1
  6
CENTER
  0
LAYER
  2
3
 70
     0
 62
     3
  6
CONTINUOUS
  0
ENDTAB
  0
TABLE
  2
STYLE
 70
     2
  0
STYLE
  2
STANDARD
 70
     0
 40
0.0
 41
1.0
 50
0.0
 71
     0
 42
0.2
  3
TXT
  4
BIGFONT
  0
STYLE
  2
STANDARD1
 70
     0
 40
0.0
 41
1.0
 50
0.0
 71
     0
 42
3.0
  3
txt
  4

  0
ENDTAB
  0
TABLE
  2
VIEW
 70
     0
  0
ENDTAB
  0
TABLE
  2
UCS
 70
     0
  0
ENDTAB
  0
TABLE
  2
APPID
 70
     7
  0
APPID
  2
ACAD
 70
     0
  0
APPID
  2
ACAD_MLEADERVER
 70
     0
  0
APPID
  2
ACAD_NAV_VCDISPLAY
 70
     0
  0
APPID
  2
ACAD_EXEMPT_FROM_CAD_STANDARDS
 70
     0
  0
APPID
  2
ACAD_DSTYLE_DIMJAG
 70
     0
  0
APPID
  2
ACAD_DSTYLE_DIMTALN
 70
     0
  0
APPID
  2
ACAD_DSTYLE_DIMRADIAL_EXTENSION
 70
     0
  0
ENDTAB
  0
TABLE
  2
DIMSTYLE
 70
     1
  0
DIMSTYLE
  2
STANDARD
 70
     0
  3

  4

  5

  6

  7

 40
1.0
 41
0.18
 42
0.0625
 43
0.38
 44
0.18
 45
0.0
 46
0.0
 47
0.0
 48
0.0
140
0.18
141
0.09
142
0.0
143
25.399999999999999
144
1.0
145
0.0
146
1.0
147
0.09
 71
     0
 72
     0
 73
     1
 74
     1
 75
     0
 76
     0
 77
     0
 78
     0
170
     0
171
     2
172
     0
173
     0
174
     0
175
     0
176
     0
177
     0
178
     0
  0
ENDTAB
  0
ENDSEC
  0
SECTION
  2
BLOCKS
  0
BLOCK
  8
0
  2
$MODEL_SPACE
 70
     0
 10
0.0
 20
0.0
 30
0.0
  3
$MODEL_SPACE
  1

  0
ENDBLK
  5
FD
  8
0
  0
BLOCK
 67
     1
  8
0
  2
$PAPER_SPACE
 70
     0
 10
0.0
 20
0.0
 30
0.0
  3
$PAPER_SPACE
  1

  0
ENDBLK
  5
FB
 67
     1
  8
0
  0
ENDSEC
  0
SECTION
  2
ENTITIES
  0
TEXT
  5
1B6
  8
0
 62
     3
 10
0.0
 20
0.0
 30
0.0
 40
5.0
  1
NUT-G3/8-NK
  7
STANDARD1
  0
CIRCLE
  5
433
  8
0
 10
49.999999999999972
 20
103.0
 30
0.0
 40
9.4999999999999716
  0
LINE
  5
434
  8
1
 10
37.5
 20
103.0
 30
0.0
 11
62.5
 21
103.0
 31
0.0
  0
LINE
  5
435
  8
1
 10
49.999999999999972
 20
90.500000000000014
 30
0.0
 11
49.999999999999972
 21
115.5
 31
0.0
  0
CIRCLE
  5
462
  8
3
 10
50.0
 20
103.0
 30
0.0
 40
8.3300000000000001
  0
LINE
  5
7AA
  8
0
 10
58.62298334615712
 20
97.008826641475295
 30
0.0
 11
50.877016653799949
 21
92.536690686500009
 31
0.0
  0
ARC
  5
7AB
  8
0
 10
49.999999999999943
 20
103.0
 30
0.0
 40
10.5
 50
265.20876529679998
 51
274.7912347031999
  0
LINE
  5
7AF
  8
0
 10
41.377016653842787
 20
108.9911733585247
 30
0.0
 11
49.122983346199931
 21
113.46330931350001
 31
0.0
  0
ARC
  5
7B0
  8
0
 10
49.999999999999943
 20
103.0
 30
0.0
 40
10.5
 50
85.208765296800138
 51
94.791234703199848
  0
LINE
  5
7B2
  8
0
 10
40.499999999999943
 20
98.527864045000371
 30
0.0
 11
40.499999999999943
 21
107.472135955
 31
0.0
  0
ARC
  5
7B3
  8
0
 10
49.999999999999943
 20
103.0
 30
0.0
 40
10.5
 50
145.20876529679961
 51
154.7912347031999
  0
ARC
  5
7B5
  8
0
 10
49.999999999999943
 20
103.0
 30
0.0
 40
10.49999999999998
 50
25.208765296800031
 51
34.791234703200388
  0
LINE
  5
7B8
  8
0
 10
50.877016653898529
 20
113.4633093134431
 30
0.0
 11
58.622983346199931
 21
108.99117335850001
 31
0.0
  0
LINE
  5
7BA
  8
0
 10
49.122983346101329
 20
92.536690686556923
 30
0.0
 11
41.377016653799949
 21
97.008826641499994
 31
0.0
  0
ARC
  5
7BB
  8
0
 10
49.999999999999943
 20
103.0
 30
0.0
 40
10.50000000000002
 50
205.20876529680001
 51
214.79123470320039
  0
ARC
  5
7BD
  8
0
 10
49.999999999999943
 20
103.0
 30
0.0
 40
10.500000000000011
 50
325.20876529679953
 51
334.7912347031999
  0
LINE
  5
7C0
  8
0
 10
59.49999999999995
 20
107.4721359549995
 30
0.0
 11
59.499999999999943
 21
98.527864045000015
 31
0.0
  0
CIRCLE
  5
7C2
  8
0
 10
49.999999999999972
 20
103.0
 30
0.0
 40
7.4749999999999943
  0
LINE
  5
842
  8
0
 10
100.6248693519
 20
113.5
 30
0.0
 11
99.999999999999986
 21
112.5
 31
0.0
  0
LINE
  5
843
  8
0
 10
99.999999999999986
 20
93.499999999999986
 30
0.0
 11
100.6248693519
 21
92.5
 31
0.0
  0
LINE
  5
844
  8
0
 10
100.6248693519
 20
92.5
 30
0.0
 11
103.0
 21
92.5
 31
0.0
  0
LINE
  5
845
  8
0
 10
103.0
 20
113.5
 30
0.0
 11
100.6248693519
 21
113.5
 31
0.0
  0
LINE
  5
846
  8
0
 10
103.0
 20
107.472135955
 30
0.0
 11
100.6248693519
 21
107.472135955
 31
0.0
  0
LINE
  5
847
  8
0
 10
100.6248693519
 20
108.99117335850001
 30
0.0
 11
100.6248693519
 21
107.472135955
 31
0.0
  0
LINE
  5
848
  8
0
 10
103.0
 20
108.99117335850001
 30
0.0
 11
100.6248693519
 21
108.99117335850001
 31
0.0
  0
LINE
  5
849
  8
0
 10
103.0
 20
97.008826641499994
 30
0.0
 11
100.6248693519
 21
97.008826641499994
 31
0.0
  0
LINE
  5
84A
  8
0
 10
100.6248693519
 20
98.527864045000015
 30
0.0
 11
100.6248693519
 21
97.008826641499994
 31
0.0
  0
LINE
  5
84B
  8
0
 10
103.0
 20
98.527864045000015
 30
0.0
 11
100.6248693519
 21
98.527864045000015
 31
0.0
  0
ARC
  5
84C
  8
0
 10
117.10627137659991
 20
102.8895485602
 30
0.0
 40
17.10662795318343
 50
164.46162450269961
 51
179.63005886789961
  0
ARC
  5
84E
  8
0
 10
104.7367964523999
 20
111.3455955535
 30
0.0
 40
4.738274828712516
 50
181.4313020556001
 51
209.79474651769939
  0
ARC
  5
84F
  8
0
 10
104.67702988789991
 20
94.671106217100004
 30
0.0
 40
4.678134435054365
 50
150.0190448922003
 51
178.75490653450029
  0
ARC
  5
850
  8
0
 10
117.19113992689999
 20
103.1223097009
 30
0.0
 40
17.191575019451701
 50
180.40763506359991
 51
195.50068156580011
  0
LINE
  5
852
  8
0
 10
103.0
 20
92.536690686500009
 30
0.0
 11
100.6248693519
 21
92.536690686500009
 31
0.0
  0
ARC
  5
853
  8
0
 10
104.7367964523999
 20
94.891112881600009
 30
0.0
 40
4.7382748287120613
 50
181.4313020556001
 51
209.79474651769939
  0
ARC
  5
854
  8
0
 10
104.67702988789991
 20
111.125588889
 30
0.0
 40
4.6781344350502332
 50
150.0190448920996
 51
178.75490653450029
  0
LINE
  5
855
  8
0
 10
103.0
 20
113.46330931350001
 30
0.0
 11
100.6248693519
 21
113.46330931350001
 31
0.0
  0
LINE
  5
856
  8
0
 10
100.6248693519
 20
113.5
 30
0.0
 11
100.6248693519
 21
113.46330931350001
 31
0.0
  0
LINE
  5
857
  8
0
 10
99.999999999999986
 20
112.5
 30
0.0
 11
99.999999999999957
 21
93.500000000000014
 31
0.0
  0
LINE
  5
858
  8
0
 10
100.6248693519
 20
92.536690686500009
 30
0.0
 11
100.6248693519
 21
92.5
 31
0.0
  0
LINE
  5
85A
  8
0
 10
102.9999999999999
 20
92.499999999999986
 30
0.0
 11
103.0
 21
113.5
 31
0.0
  0
LINE
  5
85B
  8
1
 10
96.999999999999972
 20
103.0
 30
0.0
 11
106.0
 21
103.0
 31
0.0
  0
LINE
  5
8A7
  8
0
 10
49.122983346199987
 20
50.0
 30
0.0
 11
49.122983346199987
 21
52.375130648100011
 31
0.0
  0
LINE
  5
8A8
  8
0
 10
50.877016653800013
 20
52.375130648100011
 30
0.0
 11
49.122983346199987
 21
52.375130648100011
 31
0.0
  0
LINE
  5
8A9
  8
0
 10
50.877016653800013
 20
50.0
 30
0.0
 11
50.877016653800013
 21
52.375130648100011
 31
0.0
  0
ARC
  5
8AA
  8
0
 10
54.871785808400013
 20
39.930219514900017
 30
0.0
 40
13.070347880313919
 50
90.53387360949958
 51
107.7964326994996
  0
ARC
  5
8AB
  8
0
 10
45.145411419399998
 20
40.036809119700003
 30
0.0
 40
12.963612790075359
 50
72.131952889700528
 51
89.537740801299208
  0
LINE
  5
8AC
  8
0
 10
41.377016653800013
 20
50.0
 30
0.0
 11
41.377016653800013
 21
52.375130648100011
 31
0.0
  0
ARC
  5
8AD
  8
0
 10
45.371785808399999
 20
39.930219514900017
 30
0.0
 40
13.070347880314481
 50
90.53387360949958
 51
107.7964326994996
  0
ARC
  5
8AE
  8
0
 10
54.645411419399998
 20
40.036809119600001
 30
0.0
 40
12.96361279008846
 50
72.131952889700528
 51
89.537740801299208
  0
LINE
  5
8AF
  8
0
 10
58.622983346199987
 20
50.0
 30
0.0
 11
58.622983346199987
 21
52.375130648100011
 31
0.0
  0
LINE
  5
8B0
  8
0
 10
59.5
 20
52.375130648100011
 30
0.0
 11
58.622983346199987
 21
52.375130648100011
 31
0.0
  0
LINE
  5
8B1
  8
0
 10
41.377016653800013
 20
52.375130648100011
 30
0.0
 11
40.499999999999993
 21
52.375130648100011
 31
0.0
  0
LINE
  5
8B2
  8
0
 10
59.499999999999993
 20
53.0
 30
0.0
 11
40.499999999999993
 21
53.0
 31
0.0
  0
LINE
  5
8B3
  8
0
 10
59.5
 20
50.0
 30
0.0
 11
59.499999999999993
 21
53.0
 31
0.0
  0
LINE
  5
8B4
  8
0
 10
40.499999999999993
 20
50.0
 30
0.0
 11
40.499999999999993
 21
53.0
 31
0.0
  0
LINE
  5
8B5
  8
0
 10
40.499999999999993
 20
50.0
 30
0.0
 11
59.5
 21
50.0
 31
0.0
  0
LINE
  5
8B6
  8
1
 10
50.0
 20
56.0
 30
0.0
 11
50.0
 21
47.0
 31
0.0
  0
ENDSEC
  0
EOF
