  0
SECTION
  2
HEADER
  9
$ACADVER
  1
AC1009
  9
$INSBASE
 10
0.0
 20
0.0
 30
0.0
  9
$EXTMIN
 10
0.0
 20
-2.960436562073669
 30
0.0
  9
$EXTMAX
 10
483.60127015166091
 20
497.42342870991718
 30
0.0
  9
$LIMMIN
 10
0.0
 20
0.0
  9
$LIMMAX
 10
750.0
 20
540.0
  9
$ORTHOMODE
 70
     1
  9
$REGENMODE
 70
     1
  9
$FILLMODE
 70
     1
  9
$QTEXTMODE
 70
     0
  9
$MIRRTEXT
 70
     1
  9
$DRAGMODE
 70
     2
  9
$LTSCALE
 40
10.0
  9
$OSMODE
 70
    37
  9
$ATTMODE
 70
     1
  9
$TEXTSIZE
 40
0.2
  9
$TRACEWID
 40
0.05
  9
$TEXTSTYLE
  7
STANDARD
  9
$CLAYER
  8
0
  9
$CELTYPE
  6
BYLAYER
  9
$CECOLOR
 62
   256
  9
$DIMSCALE
 40
2.0
  9
$DIMASZ
 40
3.0
  9
$DIMEXO
 40
2.0
  9
$DIMDLI
 40
0.3799999999999999
  9
$DIMRND
 40
0.0
  9
$DIMDLE
 40
0.0
  9
$DIMEXE
 40
2.0
  9
$DIMTP
 40
0.0
  9
$DIMTM
 40
0.0
  9
$DIMTXT
 40
3.0
  9
$DIMCEN
 40
0.09
  9
$DIMTSZ
 40
0.0
  9
$DIMTOL
 70
     0
  9
$DIMLIM
 70
     0
  9
$DIMTIH
 70
     0
  9
$DIMTOH
 70
     0
  9
$DIMSE1
 70
     0
  9
$DIMSE2
 70
     0
  9
$DIMTAD
 70
     1
  9
$DIMZIN
 70
     8
  9
$DIMBLK
  1

  9
$DIMASO
 70
     0
  9
$DIMSHO
 70
     0
  9
$DIMPOST
  1

  9
$DIMAPOST
  1

  9
$DIMALT
 70
     0
  9
$DIMALTD
 70
     2
  9
$DIMALTF
 40
25.399999999999999
  9
$DIMLFAC
 40
1.0
  9
$DIMTOFL
 70
     0
  9
$DIMTVP
 40
1.6000000000000001
  9
$DIMTIX
 70
     1
  9
$DIMSOXD
 70
     0
  9
$DIMSAH
 70
     0
  9
$DIMBLK1
  1

  9
$DIMBLK2
  1

  9
$DIMSTYLE
  2
STANDARD
  9
$DIMCLRD
 70
     0
  9
$DIMCLRE
 70
     0
  9
$DIMCLRT
 70
     0
  9
$DIMTFAC
 40
1.0
  9
$DIMGAP
 40
0.09
  9
$LUNITS
 70
     2
  9
$LUPREC
 70
     4
  9
$SKETCHINC
 40
0.1
  9
$FILLETRAD
 40
3.0
  9
$AUNITS
 70
     0
  9
$AUPREC
 70
     0
  9
$MENU
  1
E:\r13\win\SUPPORT\ACAD
  9
$ELEVATION
 40
0.0
  9
$PELEVATION
 40
0.0
  9
$THICKNESS
 40
0.0
  9
$LIMCHECK
 70
     0
  9
$BLIPMODE
 70
     0
  9
$CHAMFERA
 40
0.0
  9
$CHAMFERB
 40
0.0
  9
$SKPOLY
 70
     0
  9
$TDCREATE
 40
2449840.5968171302
  9
$TDUPDATE
 40
2456776.713930463
  9
$TDINDWG
 40
0.0260767593
  9
$TDUSRTIMER
 40
0.0260767593
  9
$USRTIMER
 70
     1
  9
$ANGBASE
 50
0.0
  9
$ANGDIR
 70
     0
  9
$PDMODE
 70
     0
  9
$PDSIZE
 40
0.0
  9
$PLINEWID
 40
0.0
  9
$COORDS
 70
     1
  9
$SPLFRAME
 70
     0
  9
$SPLINETYPE
 70
     6
  9
$SPLINESEGS
 70
     8
  9
$ATTDIA
 70
     0
  9
$ATTREQ
 70
     1
  9
$HANDLING
 70
     1
  9
$HANDSEED
  5
D9B
  9
$SURFTAB1
 70
     6
  9
$SURFTAB2
 70
     6
  9
$SURFTYPE
 70
     6
  9
$SURFU
 70
     6
  9
$SURFV
 70
     6
  9
$UCSNAME
  2

  9
$UCSORG
 10
0.0
 20
0.0
 30
0.0
  9
$UCSXDIR
 10
1.0
 20
0.0
 30
0.0
  9
$UCSYDIR
 10
0.0
 20
1.0
 30
0.0
  9
$PUCSNAME
  2

  9
$PUCSORG
 10
0.0
 20
0.0
 30
0.0
  9
$PUCSXDIR
 10
1.0
 20
0.0
 30
0.0
  9
$PUCSYDIR
 10
0.0
 20
1.0
 30
0.0
  9
$USERI1
 70
     0
  9
$USERI2
 70
     1
  9
$USERI3
 70
     1
  9
$USERI4
 70
     0
  9
$USERI5
 70
     0
  9
$USERR1
 40
0.0
  9
$USERR2
 40
0.0
  9
$USERR3
 40
0.0
  9
$USERR4
 40
0.0
  9
$USERR5
 40
0.0
  9
$WORLDVIEW
 70
     1
  9
$SHADEDGE
 70
     3
  9
$SHADEDIF
 70
    70
  9
$TILEMODE
 70
     1
  9
$MAXACTVP
 70
    16
  9
$PLIMCHECK
 70
     0
  9
$PEXTMIN
 10
1.0000000000000000E+020
 20
1.0000000000000000E+020
 30
1.0000000000000000E+020
  9
$PEXTMAX
 10
-1.0000000000000000E+020
 20
-1.0000000000000000E+020
 30
-1.0000000000000000E+020
  9
$PLIMMIN
 10
0.0
 20
0.0
  9
$PLIMMAX
 10
12.0
 20
9.0
  9
$UNITMODE
 70
     0
  9
$VISRETAIN
 70
     0
  9
$PLINEGEN
 70
     0
  9
$PSLTSCALE
 70
     0
  0
ENDSEC
  0
SECTION
  2
TABLES
  0
TABLE
  2
VPORT
 70
     1
  0
VPORT
  2
*ACTIVE
 70
     0
 10
0.0
 20
0.0
 11
1.0
 21
1.0
 12
557.54237221691756
 22
268.50032195623447
 13
0.0
 23
0.0
 14
20.0
 24
20.0
 15
20.0
 25
20.0
 16
0.0
 26
0.0
 36
1.0
 17
0.0
 27
0.0
 37
0.0
 40
547.77647652231894
 41
2.6019575856443709
 42
50.0
 43
0.0
 44
0.0
 50
0.0
 51
0.0
 71
     0
 72
   500
 73
     1
 74
     1
 75
     0
 76
     0
 77
     0
 78
     0
  0
ENDTAB
  0
TABLE
  2
LTYPE
 70
     4
  0
LTYPE
  2
CONTINUOUS
 70
     0
  3
実線
 72
    65
 73
     0
 40
0.0
  0
LTYPE
  2
CENTER
 70
     0
  3
____ _ ____ _ ____ _ ____ _ ____ _ ____ _ ____
 72
    65
 73
     4
 40
2.0
 49
1.25
 49
-0.25
 49
0.25
 49
-0.25
  0
LTYPE
  2
HIDDEN
 70
     0
  3
_ _ _ _ _ _ _ _ _ _ _ _ _ _ _ _ _ _ _ _ _ _ _
 72
    65
 73
     2
 40
0.375
 49
0.25
 49
-0.125
  0
LTYPE
  2
PHANTOM2
 70
     0
  3
___ _ _ ___ _ _ ___ _ _ ___ _ _
 72
    65
 73
     6
 40
1.25
 49
0.625
 49
-0.125
 49
0.125
 49
-0.125
 49
0.125
 49
-0.125
  0
ENDTAB
  0
TABLE
  2
LAYER
 70
     4
  0
LAYER
  2
0
 70
     0
 62
     7
  6
CONTINUOUS
  0
LAYER
  2
1
 70
     0
 62
     1
  6
CENTER
  0
LAYER
  2
2
 70
     0
 62
     2
  6
HIDDEN
  0
LAYER
  2
DEFPOINTS
 70
     0
 62
     7
  6
CONTINUOUS
  0
ENDTAB
  0
TABLE
  2
STYLE
 70
     2
  0
STYLE
  2
STANDARD
 70
     0
 40
0.0
 41
1.0
 50
0.0
 71
     0
 42
0.2
  3
C:/r13/com/fonts/Romans
  4
C:/r13/com/fonts/Extfont
  0
STYLE
  2
STANDARD1
 70
     0
 40
0.0
 41
1.0
 50
0.0
 71
     0
 42
3.0
  3
txt
  4

  0
ENDTAB
  0
TABLE
  2
VIEW
 70
     1
  0
VIEW
  2
ALL
 70
     0
 40
540.0
 10
441.98319327731087
 20
270.0
 41
0.0
 11
0.0
 21
0.0
 31
1.0
 12
0.0
 22
0.0
 32
0.0
 42
0.0
 43
0.0
 44
0.0
 50
0.0
 71
     0
  0
ENDTAB
  0
TABLE
  2
UCS
 70
     0
  0
ENDTAB
  0
TABLE
  2
APPID
 70
     4
  0
APPID
  2
ACAD
 70
     0
  0
APPID
  2
ACAD_MLEADERVER
 70
     0
  0
APPID
  2
ACAD_EXEMPT_FROM_CAD_STANDARDS
 70
     0
  0
APPID
  2
ACAD_NAV_VCDISPLAY
 70
     0
  0
ENDTAB
  0
TABLE
  2
DIMSTYLE
 70
     1
  0
DIMSTYLE
  2
STANDARD
 70
     0
  3

  4

  5

  6

  7

 40
1.0
 41
0.18
 42
0.0625
 43
0.38
 44
0.18
 45
0.0
 46
0.0
 47
0.0
 48
0.0
140
0.18
141
0.09
142
0.0
143
25.399999999999999
144
1.0
145
0.0
146
1.0
147
0.09
 71
     0
 72
     0
 73
     1
 74
     1
 75
     0
 76
     0
 77
     0
 78
     0
170
     0
171
     2
172
     0
173
     0
174
     0
175
     0
176
     0
177
     0
178
     0
  0
ENDTAB
  0
ENDSEC
  0
SECTION
  2
BLOCKS
  0
BLOCK
  8
0
  2
$MODEL_SPACE
 70
     0
 10
0.0
 20
0.0
 30
0.0
  3
$MODEL_SPACE
  1

  0
ENDBLK
  5
1C9
  8
0
  0
BLOCK
 67
     1
  8
0
  2
$PAPER_SPACE
 70
     0
 10
0.0
 20
0.0
 30
0.0
  3
$PAPER_SPACE
  1

  0
ENDBLK
  5
1C7
 67
     1
  8
0
  0
ENDSEC
  0
SECTION
  2
ENTITIES
  0
LINE
  5
2CA
  8
1
 10
353.60127015166091
 20
294.92342870991769
 30
0.0
 11
208.60127015166211
 21
294.92342870991769
 31
0.0
  0
LINE
  5
2CB
  8
1
 10
281.10127015166142
 20
222.4234287099184
 30
0.0
 11
281.10127015166142
 21
367.42342870991712
 31
0.0
  0
LINE
  5
2CC
  8
1
 10
418.6012701516608
 20
294.92342870991769
 30
0.0
 11
483.60127015166091
 21
294.92342870991769
 31
0.0
  0
LINE
  5
2CD
  8
1
 10
281.10127015166142
 20
294.92342870991769
 30
0.0
 11
218.3144283772896
 21
258.6734287099178
 31
0.0
  0
LINE
  5
2CE
  8
1
 10
281.10127015166142
 20
294.92342870991769
 30
0.0
 11
343.88811192603271
 21
258.67342870991808
 31
0.0
  0
LINE
  5
2D0
  8
1
 10
436.60127015166131
 20
222.4234287099184
 30
0.0
 11
436.60127015166148
 21
367.42342870991712
 31
0.0
  0
LINE
  5
2D1
  8
1
 10
291.35127015166131
 20
345.9234287099178
 30
0.0
 11
270.85127015166131
 21
345.9234287099178
 31
0.0
  0
CIRCLE
  5
2D6
  8
0
 10
281.10127015166142
 20
294.92342870991769
 30
0.0
 40
62.5
  0
ARC
  5
2D7
  8
0
 10
281.10127015166131
 20
294.92342870991769
 30
0.0
 40
46.499999999999972
 50
349.24927235435098
 51
70.75072764564942
  0
ARC
  5
2D8
  8
0
 10
281.10127015166142
 20
294.92342870991769
 30
0.0
 40
54.499999999999851
 50
105.9240845442084
 51
74.075915455791574
  0
ARC
  5
2D9
  8
0
 10
281.10127015166142
 20
294.92342870991769
 30
0.0
 40
19.5
 50
126.9069870273415
 51
173.09301297265861
  0
ARC
  5
2DA
  8
0
 10
281.10127015166142
 20
345.9234287099178
 30
0.0
 40
9.0
 50
194.05316476112441
 51
345.94683523887551
  0
LINE
  5
2DB
  8
0
 10
271.3816746753796
 20
314.25111466056887
 30
0.0
 11
272.41269509578871
 21
333.84050264833212
 31
0.0
  0
LINE
  5
2DC
  8
0
 10
290.82086562794331
 20
314.25111466056887
 30
0.0
 11
289.78984520753397
 21
333.84050264833218
 31
0.0
  0
LINE
  5
2DD
  8
0
 10
292.97973944315208
 20
276.84216913762378
 30
0.0
 11
310.46015729534929
 21
267.94036501963711
 31
0.0
  0
LINE
  5
2DE
  8
0
 10
302.6993349194338
 20
293.67700233156052
 30
0.0
 11
319.14873235122201
 21
282.98941846178411
 31
0.0
  0
LINE
  5
2DF
  8
0
 10
259.503205383889
 20
293.67700233156057
 30
0.0
 11
243.0538079521009
 21
282.98941846178411
 31
0.0
  0
LINE
  5
2E0
  8
0
 10
269.22280086017088
 20
276.84216913762378
 30
0.0
 11
251.7423830079735
 21
267.94036501963689
 31
0.0
  0
ARC
  5
2E1
  8
0
 10
281.10127015166142
 20
294.92342870991769
 30
0.0
 40
19.5
 50
246.9069870273421
 51
293.09301297265802
  0
ARC
  5
2E2
  8
0
 10
281.10127015166142
 20
294.92342870991769
 30
0.0
 40
19.5
 50
6.9069870273413798
 51
53.093012972658471
  0
ARC
  5
2E3
  8
0
 10
281.10127015166131
 20
294.92342870991769
 30
0.0
 40
46.499999999999972
 50
109.24927235435059
 51
190.75072764564899
  0
ARC
  5
2E4
  8
0
 10
281.10127015166131
 20
294.92342870991769
 30
0.0
 40
46.499999999999972
 50
229.24927235434839
 51
310.75072764565158
  0
ARC
  5
2E5
  8
0
 10
294.68226176100433
 20
342.52391890599603
 30
0.0
 40
5.0
 50
74.075915455791574
 51
165.94683523887551
  0
ARC
  5
2E6
  8
0
 10
267.52027854231869
 20
342.52391890599603
 30
0.0
 40
5.0
 50
14.05316476112446
 51
105.9240845442084
  0
ARC
  5
2E7
  8
0
 10
267.41960594912621
 20
334.1032968139462
 30
0.0
 40
5.0
 50
356.98721249581439
 51
109.24927235435059
  0
ARC
  5
2E8
  8
0
 10
266.38858552871687
 20
314.51390882618279
 30
0.0
 40
5.0
 50
306.90698702734147
 51
356.98721249581479
  0
ARC
  5
2E9
  8
0
 10
256.77907438716983
 20
297.86974729312368
 30
0.0
 40
5.0
 50
303.01278750418697
 51
353.09301297265858
  0
ARC
  5
2EA
  8
0
 10
240.32967695538159
 20
287.18216342334728
 30
0.0
 40
5.0
 50
190.75072764564899
 51
303.01278750418697
  0
ARC
  5
2EB
  8
0
 10
254.0113411579166
 20
263.48482589245981
 30
0.0
 40
5.0
 50
116.9872124958177
 51
229.24927235434839
  0
ARC
  5
2EC
  8
0
 10
271.49175901011409
 20
272.38663001044682
 30
0.0
 40
5.0
 50
66.906987027342069
 51
116.9872124958177
  0
ARC
  5
2ED
  8
0
 10
290.71078129320881
 20
272.38663001044671
 30
0.0
 40
5.0
 50
63.012787504182342
 51
113.0930129726579
  0
ARC
  5
2EE
  8
0
 10
308.19119914540602
 20
263.48482589245992
 30
0.0
 40
5.0
 50
310.75072764565158
 51
63.012787504182342
  0
ARC
  5
2EF
  8
0
 10
321.87286334794129
 20
287.18216342334722
 30
0.0
 40
5.0
 50
236.987212495813
 51
349.24927235435098
  0
ARC
  5
2F0
  8
0
 10
294.78293435419658
 20
334.10329681394632
 30
0.0
 40
5.0
 50
70.75072764564942
 51
183.01278750418561
  0
ARC
  5
2F1
  8
0
 10
295.81395477460569
 20
314.51390882618279
 30
0.0
 40
5.0
 50
183.01278750418521
 51
233.0930129726585
  0
ARC
  5
2F2
  8
0
 10
305.42346591615319
 20
297.86974729312368
 30
0.0
 40
5.0
 50
186.9069870273413
 51
236.987212495813
  0
ARC
  5
2F4
  8
0
 10
436.60127015166131
 20
349.42342870991757
 30
0.0
 40
8.0000000000001847
 50
0.0
 51
180.0
  0
LINE
  5
2F5
  8
0
 10
428.60127015166131
 20
240.42342870991791
 30
0.0
 11
428.6012701516604
 21
349.42342870991757
 31
0.0
  0
LINE
  5
2F8
  8
0
 10
473.60127015166103
 20
278.42342870991808
 30
0.0
 11
473.6012701516608
 21
311.42342870991729
 31
0.0
  0
LINE
  5
2FA
  8
0
 10
472.60127015166103
 20
277.4234287099182
 30
0.0
 11
461.60127015166103
 21
277.4234287099182
 31
0.0
  0
ARC
  5
2FB
  8
0
 10
472.60127015166103
 20
278.42342870991808
 30
0.0
 40
1.0
 50
270.0
 51
0.0000000000004071
  0
ARC
  5
2FC
  8
0
 10
472.6012701516608
 20
311.42342870991729
 30
0.0
 40
1.0
 50
0.0000000000004071
 51
90.0
  0
LINE
  5
2FD
  8
0
 10
461.60127015166103
 20
277.4234287099182
 30
0.0
 11
461.60127015166057
 21
312.42342870991803
 31
0.0
  0
LINE
  5
2FE
  8
0
 10
444.60127015166131
 20
349.42342870991757
 30
0.0
 11
444.60127015166131
 21
240.42342870991791
 31
0.0
  0
LINE
  5
300
  8
0
 10
460.73524474787649
 20
275.92342870991808
 30
0.0
 11
460.73524474787632
 21
313.92342870991769
 31
0.0
  0
LINE
  5
301
  8
0
 10
457.89471300674558
 20
313.92342870991729
 30
0.0
 11
460.73524474787649
 21
313.92342870991729
 31
0.0
  0
LINE
  5
302
  8
0
 10
461.60127015166103
 20
312.42342870991718
 30
0.0
 11
460.73524474787649
 21
313.92342870991729
 31
0.0
  0
LINE
  5
303
  8
0
 10
472.60127015166103
 20
312.42342870991729
 30
0.0
 11
461.60127015166103
 21
312.42342870991729
 31
0.0
  0
CIRCLE
  5
309
  8
0
 10
281.10127015166142
 20
294.92342870991769
 30
0.0
 40
17.783419243779161
  0
ARC
  5
324
  8
0
 10
436.6012701516604
 20
240.42342870991791
 30
0.0
 40
8.0000000000001847
 50
180.0
 51
0.0
  0
ARC
  5
44D
  8
2
 10
452.10127015166091
 20
294.92342870991769
 30
0.0
 40
19.5
 50
76.99717553319428
 51
112.31748819389399
  0
LINE
  5
44F
  8
0
 10
444.60127015166131
 20
319.74009537658389
 30
0.0
 11
445.05594068328509
 21
318.86106568211102
 31
0.0
  0
LINE
  5
450
  8
0
 10
445.34318257528611
 20
335.28183744209753
 30
0.0
 11
455.75577219221088
 21
316.40901876142078
 31
0.0
  0
ARC
  5
452
  8
0
 10
457.60127015166148
 20
342.04492024285588
 30
0.0
 40
14.0
 50
201.78678929825981
 51
208.8865817669105
  0
ARC
  5
453
  8
0
 10
440.61485246750539
 20
316.56395108774223
 30
0.0
 40
5.0
 50
328.27479736332572
 51
27.34987578006956
  0
ARC
  5
454
  8
0
 10
462.76039366442552
 20
320.27363750471142
 30
0.0
 40
8.0
 50
208.8865817669105
 51
232.53980751985981
  0
ARC
  5
455
  8
2
 10
452.10127015166091
 20
294.92342870991769
 30
0.0
 40
19.5
 50
247.68251180610591
 51
271.58709109889458
  0
LINE
  5
45B
  8
0
 10
461.60127015166103
 20
277.4234287099182
 30
0.0
 11
460.73524474787649
 21
275.92342870991808
 31
0.0
  0
LINE
  5
45C
  8
0
 10
456.48875234535922
 20
275.9234287099182
 30
0.0
 11
460.73524474787649
 21
275.92342870991808
 31
0.0
  0
LINE
  5
48E
  8
2
 10
444.60127015166171
 20
277.4234287099178
 30
0.0
 11
444.69636861323761
 21
276.8840985337095
 31
0.0
  0
LINE
  5
48F
  8
0
 10
444.60127015166171
 20
312.4234287099178
 30
0.0
 11
444.86775190969291
 21
313.93472185950043
 31
0.0
  0
LINE
  5
7F7
  8
0
 10
263.60127015166142
 20
458.42342870991803
 30
0.0
 11
262.0899770020788
 21
458.68991046794918
 31
0.0
  0
LINE
  5
7F8
  8
0
 10
298.60127015166142
 20
458.42342870991803
 30
0.0
 11
300.11256330124422
 21
458.68991046794918
 31
0.0
  0
LINE
  5
7F9
  8
0
 10
300.10127015166103
 20
470.31091090361542
 30
0.0
 11
300.10127015166103
 21
474.55740330613281
 31
0.0
  0
LINE
  5
7FA
  8
0
 10
298.60127015166103
 20
475.42342870991729
 30
0.0
 11
300.10127015166103
 21
474.55740330613281
 31
0.0
  0
ARC
  5
7FB
  8
0
 10
306.4514789464551
 20
476.58255222268173
 30
0.0
 40
8.0
 50
217.46019248014019
 51
241.1134182330895
  0
LINE
  5
7FC
  8
0
 10
305.91793681832729
 20
458.42342870991769
 30
0.0
 11
305.0389071238547
 21
458.87809924154141
 31
0.0
  0
LINE
  5
7FD
  8
0
 10
322.80439515166182
 20
458.42342870991769
 30
0.0
 11
302.58686020316452
 21
469.5779307504672
 31
0.0
  0
ARC
  5
7FE
  8
0
 10
302.74179252948591
 20
454.43701102576171
 30
0.0
 40
5.0
 50
62.650124219930461
 51
121.7252026366743
  0
ARC
  5
7FF
  8
0
 10
281.10127015166142
 20
465.92342870991712
 30
0.0
 40
19.5
 50
337.68251180610588
 51
13.00282446680567
  0
ARC
  5
800
  8
0
 10
255.75106135686781
 20
476.58255222268173
 30
0.0
 40
8.0
 50
298.88658176691041
 51
322.53980751985978
  0
ARC
  5
801
  8
0
 10
259.460747773837
 20
454.43701102576171
 30
0.0
 40
5.0
 50
58.274797363325668
 51
117.3498757800695
  0
ARC
  5
802
  8
0
 10
233.97977861872309
 20
471.4234287099178
 30
0.0
 40
14.0
 50
291.78678929825981
 51
298.88658176691041
  0
LINE
  5
803
  8
0
 10
240.74286141948181
 20
459.16534113354243
 30
0.0
 11
259.61568010015827
 21
469.5779307504672
 31
0.0
  0
LINE
  5
804
  8
0
 10
256.28460348499527
 20
458.42342870991752
 30
0.0
 11
257.16363317946832
 21
458.87809924154141
 31
0.0
  0
ARC
  5
805
  8
0
 10
281.10127015166142
 20
465.92342870991712
 30
0.0
 40
19.5
 50
166.99717553319431
 51
202.31748819389409
  0
ARC
  5
807
  8
0
 10
335.60127015166131
 20
450.42342870991661
 30
0.0
 40
8.0000000000001847
 50
270.0
 51
90.0
  0
LINE
  5
809
  8
0
 10
263.60127015166188
 20
486.42342870991729
 30
0.0
 11
263.60127015166188
 21
475.42342870991729
 31
0.0
  0
LINE
  5
80A
  8
0
 10
263.60127015166188
 20
475.42342870991729
 30
0.0
 11
262.10127015166188
 21
474.55740330613281
 31
0.0
  0
LINE
  5
80B
  8
0
 10
262.10127015166188
 20
470.31091090361542
 30
0.0
 11
262.10127015166188
 21
474.55740330613281
 31
0.0
  0
LINE
  5
80C
  8
0
 10
300.10127015166103
 20
474.55740330613281
 30
0.0
 11
262.10127015166142
 21
474.55740330613253
 31
0.0
  0
LINE
  5
80D
  8
0
 10
226.60127015166171
 20
458.42342870991752
 30
0.0
 11
335.60127015166131
 21
458.42342870991752
 31
0.0
  0
LINE
  5
80E
  8
0
 10
298.60127015166103
 20
475.42342870991729
 30
0.0
 11
263.6012701516612
 21
475.42342870991678
 31
0.0
  0
ARC
  5
80F
  8
0
 10
264.60127015166188
 20
486.42342870991712
 30
0.0
 40
1.0
 50
90.000000000000398
 51
180.0
  0
ARC
  5
810
  8
0
 10
297.60127015166103
 20
486.4234287099174
 30
0.0
 40
1.0
 50
0.0
 51
90.000000000000398
  0
LINE
  5
811
  8
0
 10
298.60127015166103
 20
486.42342870991729
 30
0.0
 11
298.60127015166103
 21
475.42342870991729
 31
0.0
  0
LINE
  5
812
  8
0
 10
297.60127015166103
 20
487.42342870991729
 30
0.0
 11
264.60127015166188
 21
487.42342870991712
 31
0.0
  0
LINE
  5
813
  8
0
 10
335.60127015166131
 20
442.42342870991752
 30
0.0
 11
226.60127015166171
 21
442.42342870991661
 31
0.0
  0
ARC
  5
814
  8
0
 10
226.6012701516614
 20
450.42342870991757
 30
0.0
 40
8.0000000000001847
 50
90.0
 51
270.0
  0
LINE
  5
815
  8
1
 10
353.60127015166091
 20
450.42342870991752
 30
0.0
 11
208.60127015166211
 21
450.4234287099178
 31
0.0
  0
LINE
  5
816
  8
1
 10
281.10127015166142
 20
432.42342870991712
 30
0.0
 11
281.10127015166142
 21
497.42342870991718
 31
0.0
  0
POLYLINE
  5
817
  8
0
 66
     1
 10
0.0
 20
0.0
 30
0.0
 70
   128
  0
VERTEX
  5
CE1
  8
0
 10
457.30374111366081
 20
312.94266063307077
 30
0.0
  0
VERTEX
  5
CE2
  8
0
 10
457.24674060289522
 20
312.71517402005861
 30
0.0
  0
VERTEX
  5
CE3
  8
0
 10
457.06509442893889
 20
312.48331509725949
 30
0.0
  0
VERTEX
  5
CE4
  8
0
 10
456.75789192906473
 20
312.26569363294988
 30
0.0
  0
VERTEX
  5
CE5
  8
0
 10
456.34287693940558
 20
312.07844576566163
 30
0.0
  0
VERTEX
  5
CE6
  8
0
 10
455.31190818929173
 20
311.83071281195981
 30
0.0
  0
VERTEX
  5
CE7
  8
0
 10
454.16820039876143
 20
311.75299234556792
 30
0.0
  0
SEQEND
  5
CE8
  8
0
  0
LINE
  5
818
  8
0
 10
454.16820039883731
 20
311.75299234191772
 30
0.0
 11
448.11498635310699
 21
311.75299234191772
 31
0.0
  0
POLYLINE
  5
819
  8
0
 66
     1
 10
0.0
 20
0.0
 30
0.0
 70
   128
  0
VERTEX
  5
CE9
  8
0
 10
445.13350312619758
 20
313.13773892868608
 30
0.0
  0
VERTEX
  5
CEA
  8
0
 10
445.32139224305058
 20
312.67060738655869
 30
0.0
  0
VERTEX
  5
CEB
  8
0
 10
445.56872173640079
 20
312.43102673985521
 30
0.0
  0
VERTEX
  5
CEC
  8
0
 10
445.9252027887635
 20
312.20559607245173
 30
0.0
  0
VERTEX
  5
CED
  8
0
 10
446.36635636986659
 20
312.01834257047699
 30
0.0
  0
VERTEX
  5
CEE
  8
0
 10
446.916758812463
 20
311.86882934138771
 30
0.0
  0
VERTEX
  5
CEF
  8
0
 10
448.11498622659769
 20
311.75299226607399
 30
0.0
  0
SEQEND
  5
CF0
  8
0
  0
LINE
  5
81A
  8
0
 10
448.11498635220391
 20
295.03870205053113
 30
0.0
 11
454.16820039876143
 21
295.03870205053113
 31
0.0
  0
POLYLINE
  5
81B
  8
0
 66
     1
 10
0.0
 20
0.0
 30
0.0
 70
   128
  0
VERTEX
  5
CF1
  8
0
 10
445.13349871966079
 20
291.84675115819459
 30
0.0
  0
VERTEX
  5
CF2
  8
0
 10
445.32017654646211
 20
293.04376444880972
 30
0.0
  0
VERTEX
  5
CF3
  8
0
 10
445.56651626046528
 20
293.60216492824537
 30
0.0
  0
VERTEX
  5
CF4
  8
0
 10
445.92276151471128
 20
294.10153984163497
 30
0.0
  0
VERTEX
  5
CF5
  8
0
 10
446.37661483909108
 20
294.5080976347279
 30
0.0
  0
VERTEX
  5
CF6
  8
0
 10
446.91373537979939
 20
294.80575706008932
 30
0.0
  0
VERTEX
  5
CF7
  8
0
 10
448.11498635220391
 20
295.03870205053113
 30
0.0
  0
SEQEND
  5
CF8
  8
0
  0
POLYLINE
  5
81C
  8
0
 66
     1
 10
0.0
 20
0.0
 30
0.0
 70
   128
  0
VERTEX
  5
CF9
  8
0
 10
454.16820039876143
 20
295.03870205053113
 30
0.0
  0
VERTEX
  5
CFA
  8
0
 10
455.30765163484438
 20
294.88500690577888
 30
0.0
  0
VERTEX
  5
CFB
  8
0
 10
456.34044519110262
 20
294.37689289946798
 30
0.0
  0
VERTEX
  5
CFC
  8
0
 10
456.75555431758647
 20
293.97667406478013
 30
0.0
  0
VERTEX
  5
CFD
  8
0
 10
457.06437182079628
 20
293.48840302101479
 30
0.0
  0
VERTEX
  5
CFE
  8
0
 10
457.2463109689977
 20
292.941773299651
 30
0.0
  0
VERTEX
  5
CFF
  8
0
 10
457.3022444411651
 20
292.38381512351373
 30
0.0
  0
SEQEND
  5
D00
  8
0
  0
POLYLINE
  5
81D
  8
0
 66
     1
 10
0.0
 20
0.0
 30
0.0
 70
   128
  0
VERTEX
  5
D01
  8
0
 10
444.6012701516608
 20
268.59011785686562
 30
0.0
  0
VERTEX
  5
D02
  8
0
 10
447.91413983882393
 20
271.37036273668741
 30
0.0
  0
VERTEX
  5
D03
  8
0
 10
455.0323653849934
 20
277.48472676393749
 30
0.0
  0
SEQEND
  5
D04
  8
0
  0
POLYLINE
  5
81E
  8
0
 66
     1
 10
0.0
 20
0.0
 30
0.0
 70
   128
  0
VERTEX
  5
D05
  8
0
 10
455.03236523846329
 20
277.48472663427879
 30
0.0
  0
VERTEX
  5
D06
  8
0
 10
455.67936015822409
 20
277.95337472969322
 30
0.0
  0
VERTEX
  5
D07
  8
0
 10
456.57481550574289
 20
278.41941956684599
 30
0.0
  0
SEQEND
  5
D08
  8
0
  0
POLYLINE
  5
81F
  8
0
 66
     1
 10
0.0
 20
0.0
 30
0.0
 70
   128
  0
VERTEX
  5
D09
  8
0
 10
457.30374111366081
 20
279.4587402766781
 30
0.0
  0
VERTEX
  5
D0A
  8
0
 10
457.24674060289522
 20
279.11540378133299
 30
0.0
  0
VERTEX
  5
D0B
  8
0
 10
457.06509442893889
 20
278.80010124982027
 30
0.0
  0
VERTEX
  5
D0C
  8
0
 10
456.75789192906473
 20
278.53077530991482
 30
0.0
  0
VERTEX
  5
D0D
  8
0
 10
456.4755270188586
 20
278.38520201491218
 30
0.0
  0
SEQEND
  5
D0E
  8
0
  0
ARC
  5
821
  8
0
 10
452.10127015166091
 20
294.92342870991769
 30
0.0
 40
19.5
 50
271.58709109889458
 51
283.00282446680569
  0
LINE
  5
822
  8
2
 10
456.48875234535899
 20
313.92342870991729
 30
0.0
 11
457.89471300674541
 21
313.9234287099174
 31
0.0
  0
POLYLINE
  5
88C
  8
0
 66
     1
 10
0.0
 20
0.0
 30
0.0
 70
   128
  0
VERTEX
  5
D0F
  8
0
 10
290.0255211787977
 20
458.42342870991718
 30
0.0
  0
VERTEX
  5
D10
  8
0
 10
290.17020299394102
 20
459.90423472344372
 30
0.0
  0
VERTEX
  5
D11
  8
0
 10
290.33414411345677
 20
461.57339529411422
 30
0.0
  0
VERTEX
  5
D12
  8
0
 10
290.50111332173412
 20
463.26106354352089
 30
0.0
  0
VERTEX
  5
D13
  8
0
 10
290.67613588371103
 20
465.01129481223518
 30
0.0
  0
VERTEX
  5
D14
  8
0
 10
290.8375851962677
 20
466.60096662491708
 30
0.0
  0
SEQEND
  5
D15
  8
0
  0
LINE
  5
88D
  8
0
 10
290.83758517790449
 20
466.60096644588577
 30
0.0
 11
290.95092942410099
 21
467.99035883265981
 31
0.0
  0
LINE
  5
890
  8
0
 10
271.36495512541831
 20
466.60096644588538
 30
0.0
 11
271.25161087866502
 21
467.9903588400781
 31
0.0
  0
POLYLINE
  5
891
  8
0
 66
     1
 10
0.0
 20
0.0
 30
0.0
 70
   128
  0
VERTEX
  5
D16
  8
0
 10
272.17701899213091
 20
458.42342870991718
 30
0.0
  0
VERTEX
  5
D17
  8
0
 10
272.03234193520518
 20
459.90418657032222
 30
0.0
  0
VERTEX
  5
D18
  8
0
 10
271.86841288795529
 20
461.57322629464909
 30
0.0
  0
VERTEX
  5
D19
  8
0
 10
271.70143553655151
 20
463.26097667732768
 30
0.0
  0
VERTEX
  5
D1A
  8
0
 10
271.52641199600367
 20
465.01122129210461
 30
0.0
  0
VERTEX
  5
D1B
  8
0
 10
271.36495510705521
 20
466.60096662491708
 30
0.0
  0
SEQEND
  5
D1C
  8
0
  0
POLYLINE
  5
89F
  8
0
 66
     1
 10
0.0
 20
0.0
 30
0.0
 70
   128
  0
VERTEX
  5
D1D
  8
0
 10
271.2516108736387
 20
467.99035895701769
 30
0.0
  0
VERTEX
  5
D1E
  8
0
 10
271.38456333982469
 20
469.12981019310081
 30
0.0
  0
VERTEX
  5
D1F
  8
0
 10
271.82841429147851
 20
470.16260374935888
 30
0.0
  0
VERTEX
  5
D20
  8
0
 10
272.18268210367421
 20
470.57771287584291
 30
0.0
  0
VERTEX
  5
D21
  8
0
 10
272.62047594735321
 20
470.88653037905277
 30
0.0
  0
VERTEX
  5
D22
  8
0
 10
273.11791035900558
 20
471.06846952725402
 30
0.0
  0
VERTEX
  5
D23
  8
0
 10
273.6475944847258
 20
471.12589967191718
 30
0.0
  0
SEQEND
  5
D24
  8
0
  0
POLYLINE
  5
8A0
  8
0
 66
     1
 10
0.0
 20
0.0
 30
0.0
 70
   128
  0
VERTEX
  5
D25
  8
0
 10
288.55494581536078
 20
471.12589967191718
 30
0.0
  0
VERTEX
  5
D26
  8
0
 10
289.0827361084315
 20
471.06889916115148
 30
0.0
  0
VERTEX
  5
D27
  8
0
 10
289.58067992260942
 20
470.88725298719521
 30
0.0
  0
VERTEX
  5
D28
  8
0
 10
290.01731452903903
 20
470.58005048732099
 30
0.0
  0
VERTEX
  5
D29
  8
0
 10
290.3724831153001
 20
470.16503549766202
 30
0.0
  0
VERTEX
  5
D2A
  8
0
 10
290.81691445828562
 20
469.13406674754799
 30
0.0
  0
VERTEX
  5
D2B
  8
0
 10
290.95092942666167
 20
467.99035895701769
 30
0.0
  0
SEQEND
  5
D2C
  8
0
  0
LINE
  5
8A7
  8
1
 10
281.10127015166142
 20
157.42342870991831
 30
0.0
 11
281.10127015166142
 21
92.423428709918255
 31
0.0
  0
LINE
  5
8A8
  8
1
 10
353.60127015166091
 20
139.42342870991791
 30
0.0
 11
208.60127015166211
 21
139.42342870991769
 31
0.0
  0
ARC
  5
8A9
  8
0
 10
226.6012701516614
 20
139.4234287099178
 30
0.0
 40
8.0000000000001847
 50
90.000000000000028
 51
270.0
  0
LINE
  5
8AA
  8
0
 10
335.60127015166131
 20
147.42342870991791
 30
0.0
 11
226.60127015166171
 21
147.4234287099188
 31
0.0
  0
LINE
  5
8AB
  8
0
 10
297.60127015166103
 20
102.4234287099181
 30
0.0
 11
264.60127015166188
 21
102.4234287099183
 31
0.0
  0
LINE
  5
8AC
  8
0
 10
298.60127015166103
 20
103.4234287099181
 30
0.0
 11
298.60127015166103
 21
114.4234287099181
 31
0.0
  0
ARC
  5
8AD
  8
0
 10
297.60127015166103
 20
103.4234287099181
 30
0.0
 40
1.0
 50
269.9999999999996
 51
0.0
  0
ARC
  5
8AE
  8
0
 10
264.60127015166188
 20
103.4234287099183
 30
0.0
 40
1.0
 50
180.0
 51
269.9999999999996
  0
LINE
  5
8AF
  8
0
 10
298.60127015166103
 20
114.4234287099181
 30
0.0
 11
263.6012701516612
 21
114.4234287099186
 31
0.0
  0
LINE
  5
8B0
  8
0
 10
226.60127015166171
 20
131.42342870991791
 30
0.0
 11
335.60127015166131
 21
131.42342870991791
 31
0.0
  0
LINE
  5
8B1
  8
0
 10
300.10127015166103
 20
115.2894541137027
 30
0.0
 11
262.10127015166142
 21
115.2894541137029
 31
0.0
  0
LINE
  5
8B2
  8
0
 10
262.10127015166199
 20
118.12998585483339
 30
0.0
 11
262.10127015166188
 21
115.2894541137027
 31
0.0
  0
LINE
  5
8B3
  8
0
 10
263.60127015166188
 20
114.4234287099181
 30
0.0
 11
262.10127015166188
 21
115.2894541137027
 31
0.0
  0
LINE
  5
8B4
  8
0
 10
263.60127015166188
 20
103.4234287099181
 30
0.0
 11
263.60127015166188
 21
114.4234287099181
 31
0.0
  0
ARC
  5
8B6
  8
0
 10
335.60127015166131
 20
139.42342870991871
 30
0.0
 40
8.0000000000001847
 50
270.0
 51
90.000000000000028
  0
ARC
  5
8B7
  8
2
 10
281.10127015166142
 20
123.9234287099183
 30
0.0
 40
19.5
 50
157.68251180610591
 51
193.00282446680569
  0
LINE
  5
8B8
  8
0
 10
256.28460348499527
 20
131.42342870991791
 30
0.0
 11
257.16363317946832
 21
130.968758178294
 31
0.0
  0
LINE
  5
8B9
  8
0
 10
240.74286141948181
 20
130.681516286293
 30
0.0
 11
259.61568010015827
 21
120.2689266693682
 31
0.0
  0
ARC
  5
8BA
  8
0
 10
233.97977861872309
 20
118.4234287099176
 30
0.0
 40
14.0
 50
61.113418233089511
 51
68.213210701740195
  0
ARC
  5
8BB
  8
0
 10
259.460747773837
 20
135.4098463940737
 30
0.0
 40
5.0
 50
242.6501242199304
 51
301.72520263667428
  0
ARC
  5
8BC
  8
0
 10
255.75106135686781
 20
113.2643051971537
 30
0.0
 40
8.0
 50
37.460192480140158
 51
61.113418233089511
  0
ARC
  5
8BD
  8
2
 10
281.10127015166142
 20
123.9234287099183
 30
0.0
 40
19.5
 50
346.99717553319442
 51
22.317488193894079
  0
ARC
  5
8BE
  8
0
 10
302.74179252948591
 20
135.4098463940737
 30
0.0
 40
5.0
 50
238.27479736332569
 51
297.34987578006951
  0
LINE
  5
8BF
  8
0
 10
322.80439515166182
 20
131.42342870991769
 30
0.0
 11
302.58686020316452
 21
120.2689266693682
 31
0.0
  0
LINE
  5
8C0
  8
0
 10
305.91793681832729
 20
131.42342870991769
 30
0.0
 11
305.0389071238547
 21
130.968758178294
 31
0.0
  0
ARC
  5
8C1
  8
0
 10
306.4514789464551
 20
113.2643051971537
 30
0.0
 40
8.0
 50
118.8865817669105
 51
142.53980751985981
  0
LINE
  5
8C2
  8
0
 10
298.60127015166103
 20
114.4234287099181
 30
0.0
 11
300.10127015166103
 21
115.2894541137027
 31
0.0
  0
LINE
  5
8C4
  8
0
 10
298.60127015166142
 20
131.4234287099174
 30
0.0
 11
300.11256330124422
 21
131.1569469518862
 31
0.0
  0
LINE
  5
8C5
  8
0
 10
263.60127015166142
 20
131.4234287099174
 30
0.0
 11
262.0899770020788
 21
131.1569469518862
 31
0.0
  0
POLYLINE
  5
8C6
  8
0
 66
     1
 10
0.0
 20
0.0
 30
0.0
 70
   128
  0
VERTEX
  5
D2D
  8
0
 10
292.66054384894449
 20
118.7604089379693
 30
0.0
  0
VERTEX
  5
D2E
  8
0
 10
292.51864059514088
 20
118.7779582586839
 30
0.0
  0
VERTEX
  5
D2F
  8
0
 10
292.06887297093778
 20
118.95960443264021
 30
0.0
  0
VERTEX
  5
D30
  8
0
 10
291.66208993493558
 20
119.2668069325144
 30
0.0
  0
VERTEX
  5
D31
  8
0
 10
291.32234424840527
 20
119.6818219221734
 30
0.0
  0
VERTEX
  5
D32
  8
0
 10
290.88558552888719
 20
120.7127906722874
 30
0.0
  0
VERTEX
  5
D33
  8
0
 10
290.7512701463632
 20
121.8564984628176
 30
0.0
  0
SEQEND
  5
D34
  8
0
  0
LINE
  5
8C7
  8
0
 10
290.7512701510658
 20
121.8564984627417
 30
0.0
 11
290.7512701510658
 21
127.909712508472
 31
0.0
  0
POLYLINE
  5
8C8
  8
0
 66
     1
 10
0.0
 20
0.0
 30
0.0
 70
   128
  0
VERTEX
  5
D35
  8
0
 10
293.3936268164785
 20
130.8911957366652
 30
0.0
  0
VERTEX
  5
D36
  8
0
 10
292.43064364213399
 20
130.7032673890665
 30
0.0
  0
VERTEX
  5
D37
  8
0
 10
291.96974666154199
 20
130.4558934850491
 30
0.0
  0
VERTEX
  5
D38
  8
0
 10
291.55200404166618
 20
130.0994206572089
 30
0.0
  0
VERTEX
  5
D39
  8
0
 10
291.21506817720098
 20
129.6582695701639
 30
0.0
  0
VERTEX
  5
D3A
  8
0
 10
290.95188980253249
 20
129.10787827532371
 30
0.0
  0
VERTEX
  5
D3B
  8
0
 10
290.75127001952922
 20
127.9097126312397
 30
0.0
  0
SEQEND
  5
D3C
  8
0
  0
POLYLINE
  5
8C9
  8
0
 66
     1
 10
0.0
 20
0.0
 30
0.0
 70
   128
  0
VERTEX
  5
D3D
  8
0
 10
271.45127031310233
 20
127.9097126626626
 30
0.0
  0
VERTEX
  5
D3E
  8
0
 10
271.24953957061268
 20
129.11096268720939
 30
0.0
  0
VERTEX
  5
D3F
  8
0
 10
270.9857373074986
 20
129.66108938204439
 30
0.0
  0
VERTEX
  5
D40
  8
0
 10
270.64815687190293
 20
130.10193633668271
 30
0.0
  0
VERTEX
  5
D41
  8
0
 10
270.22942785967911
 20
130.45817983139071
 30
0.0
  0
VERTEX
  5
D42
  8
0
 10
269.76883366520781
 20
130.70451568470889
 30
0.0
  0
VERTEX
  5
D43
  8
0
 10
268.80891343417932
 20
130.891195807435
 30
0.0
  0
SEQEND
  5
D44
  8
0
  0
LINE
  5
8CA
  8
0
 10
271.45127015106561
 20
121.856498462742
 30
0.0
 11
271.45127015106561
 21
127.9097125084723
 31
0.0
  0
POLYLINE
  5
8CB
  8
0
 66
     1
 10
0.0
 20
0.0
 30
0.0
 70
   128
  0
VERTEX
  5
D45
  8
0
 10
271.45127015881133
 20
121.8564984628179
 30
0.0
  0
VERTEX
  5
D46
  8
0
 10
271.31801480849509
 20
120.71704722673491
 30
0.0
  0
VERTEX
  5
D47
  8
0
 10
270.88178651904752
 20
119.68425367047671
 30
0.0
  0
VERTEX
  5
D48
  8
0
 10
270.54285495814031
 20
119.26914454399279
 30
0.0
  0
VERTEX
  5
D49
  8
0
 10
270.1349385635591
 20
118.9603270407829
 30
0.0
  0
VERTEX
  5
D4A
  8
0
 10
269.68558249134082
 20
118.77838789258161
 30
0.0
  0
VERTEX
  5
D4B
  8
0
 10
269.5417771047305
 20
118.76053446798571
 30
0.0
  0
SEQEND
  5
D4C
  8
0
  0
LINE
  5
8CC
  8
2
 10
262.10127015166188
 20
119.53594651622009
 30
0.0
 11
262.10127015166182
 21
118.12998585483361
 31
0.0
  0
LINE
  5
8CD
  8
2
 10
300.10127015166029
 20
119.53594651622009
 30
0.0
 11
300.1012701516604
 21
118.12998585483361
 31
0.0
  0
LINE
  5
8CE
  8
0
 10
300.10127015166017
 20
118.12998585483339
 30
0.0
 11
300.10127015166029
 21
115.2894541137027
 31
0.0
  0
POLYLINE
  5
BA9
  8
0
  6
CONTINUOUS
 62
     7
 66
     1
 10
0.0
 20
0.0
 30
0.0
 70
   128
  0
VERTEX
  5
D4D
  8
0
  6
CONTINUOUS
 62
     7
 10
444.60127015166091
 20
278.97654708588698
 30
0.0
  0
VERTEX
  5
D4E
  8
0
  6
CONTINUOUS
 62
     7
 10
446.21020962647128
 20
280.61513515604582
 30
0.0
  0
VERTEX
  5
D4F
  8
0
  6
CONTINUOUS
 62
     7
 10
448.65929046854899
 20
283.13100104059532
 30
0.0
  0
VERTEX
  5
D50
  8
0
  6
CONTINUOUS
 62
     7
 10
451.08037234615227
 20
285.64990659501223
 30
0.0
  0
VERTEX
  5
D51
  8
0
  6
CONTINUOUS
 62
     7
 10
453.4205497090698
 20
288.13213702440851
 30
0.0
  0
VERTEX
  5
D52
  8
0
  6
CONTINUOUS
 62
     7
 10
457.3022444411651
 20
292.38381512351373
 30
0.0
  0
SEQEND
  5
D53
  8
0
  6
CONTINUOUS
 62
     7
  0
POLYLINE
  5
BAB
  8
0
  6
CONTINUOUS
 62
     7
 66
     1
 10
0.0
 20
0.0
 30
0.0
 70
   128
  0
VERTEX
  5
D54
  8
0
  6
CONTINUOUS
 62
     7
 10
292.66054384894443
 20
118.7604089379692
 30
0.0
  0
VERTEX
  5
D55
  8
0
  6
CONTINUOUS
 62
     7
 10
299.38537043121448
 20
122.60415876867
 30
0.0
  0
VERTEX
  5
D56
  8
0
  6
CONTINUOUS
 62
     7
 10
303.37658210372979
 20
124.9443328230207
 30
0.0
  0
VERTEX
  5
D57
  8
0
  6
CONTINUOUS
 62
     7
 10
307.44387870424339
 20
127.3653849474281
 30
0.0
  0
VERTEX
  5
D58
  8
0
  6
CONTINUOUS
 62
     7
 10
311.51826258513341
 20
129.8144788086486
 30
0.0
  0
VERTEX
  5
D59
  8
0
  6
CONTINUOUS
 62
     7
 10
314.1773871381078
 20
131.4234287099182
 30
0.0
  0
SEQEND
  5
D5A
  8
0
  6
CONTINUOUS
 62
     7
  0
POLYLINE
  5
BAC
  8
0
  6
CONTINUOUS
 62
     7
 66
     1
 10
0.0
 20
0.0
 30
0.0
 70
   128
  0
VERTEX
  5
D5B
  8
0
  6
CONTINUOUS
 62
     7
 10
248.0251535890857
 20
131.4234287099182
 30
0.0
  0
VERTEX
  5
D5C
  8
0
  6
CONTINUOUS
 62
     7
 10
250.68426171648329
 20
129.81448922782289
 30
0.0
  0
VERTEX
  5
D5D
  8
0
  6
CONTINUOUS
 62
     7
 10
254.7586226477699
 20
127.3654083876857
 30
0.0
  0
VERTEX
  5
D5E
  8
0
  6
CONTINUOUS
 62
     7
 10
258.82596785006967
 20
124.9443265132882
 30
0.0
  0
VERTEX
  5
D5F
  8
0
  6
CONTINUOUS
 62
     7
 10
262.81718627197921
 20
122.6041491549163
 30
0.0
  0
VERTEX
  5
D60
  8
0
  6
CONTINUOUS
 62
     7
 10
269.5417771047305
 20
118.76053446798571
 30
0.0
  0
SEQEND
  5
D61
  8
0
  6
CONTINUOUS
 62
     7
  0
TEXT
  5
C66
  8
0
 62
     3
 10
0.0
 20
0.0
 30
0.0
 40
10.0
  1
NV125
  7
STANDARD1
  0
ENDSEC
  0
EOF
