  0
SECTION
  2
HEADER
  9
$ACADVER
  1
AC1009
  9
$INSBASE
 10
0.0
 20
0.0
 30
0.0
  9
$EXTMIN
 10
0.0
 20
-2.960436562073669
 30
0.0
  9
$EXTMAX
 10
863.99999999999909
 20
1102.999999999998
 30
0.0
  9
$LIMMIN
 10
0.0
 20
0.0
  9
$LIMMAX
 10
1540.0
 20
1080.0
  9
$ORTHOMODE
 70
     1
  9
$REGENMODE
 70
     1
  9
$FILLMODE
 70
     1
  9
$QTEXTMODE
 70
     0
  9
$MIRRTEXT
 70
     1
  9
$DRAGMODE
 70
     2
  9
$LTSCALE
 40
20.0
  9
$OSMODE
 70
    37
  9
$ATTMODE
 70
     1
  9
$TEXTSIZE
 40
4.0
  9
$TRACEWID
 40
0.05
  9
$TEXTSTYLE
  7
STANDARD
  9
$CLAYER
  8
0
  9
$CELTYPE
  6
BYLAYER
  9
$CECOLOR
 62
   256
  9
$DIMSCALE
 40
4.0
  9
$DIMASZ
 40
3.0
  9
$DIMEXO
 40
2.0
  9
$DIMDLI
 40
0.38
  9
$DIMRND
 40
0.0
  9
$DIMDLE
 40
0.0
  9
$DIMEXE
 40
2.0
  9
$DIMTP
 40
0.0
  9
$DIMTM
 40
0.0
  9
$DIMTXT
 40
3.0
  9
$DIMCEN
 40
0.0
  9
$DIMTSZ
 40
0.0
  9
$DIMTOL
 70
     0
  9
$DIMLIM
 70
     0
  9
$DIMTIH
 70
     0
  9
$DIMTOH
 70
     0
  9
$DIMSE1
 70
     0
  9
$DIMSE2
 70
     0
  9
$DIMTAD
 70
     1
  9
$DIMZIN
 70
     8
  9
$DIMBLK
  1

  9
$DIMASO
 70
     0
  9
$DIMSHO
 70
     0
  9
$DIMPOST
  1

  9
$DIMAPOST
  1

  9
$DIMALT
 70
     0
  9
$DIMALTD
 70
     2
  9
$DIMALTF
 40
25.399999999999999
  9
$DIMLFAC
 40
1.0
  9
$DIMTOFL
 70
     0
  9
$DIMTVP
 40
1.6000000000000001
  9
$DIMTIX
 70
     1
  9
$DIMSOXD
 70
     0
  9
$DIMSAH
 70
     0
  9
$DIMBLK1
  1

  9
$DIMBLK2
  1

  9
$DIMSTYLE
  2
STANDARD
  9
$DIMCLRD
 70
     4
  9
$DIMCLRE
 70
     4
  9
$DIMCLRT
 70
     4
  9
$DIMTFAC
 40
1.0
  9
$DIMGAP
 40
0.09
  9
$LUNITS
 70
     2
  9
$LUPREC
 70
     1
  9
$SKETCHINC
 40
0.1
  9
$FILLETRAD
 40
3.0
  9
$AUNITS
 70
     0
  9
$AUPREC
 70
     0
  9
$MENU
  1
E:\r13\win\SUPPORT\ACAD
  9
$ELEVATION
 40
0.0
  9
$PELEVATION
 40
0.0
  9
$THICKNESS
 40
0.0
  9
$LIMCHECK
 70
     0
  9
$BLIPMODE
 70
     0
  9
$CHAMFERA
 40
1.1999999999999991
  9
$CHAMFERB
 40
1.1999999999999991
  9
$SKPOLY
 70
     0
  9
$TDCREATE
 40
2450059.5671413201
  9
$TDUPDATE
 40
2456776.714021828
  9
$TDINDWG
 40
0.4572121528
  9
$TDUSRTIMER
 40
0.4572121528
  9
$USRTIMER
 70
     1
  9
$ANGBASE
 50
0.0
  9
$ANGDIR
 70
     0
  9
$PDMODE
 70
     0
  9
$PDSIZE
 40
0.0
  9
$PLINEWID
 40
0.0
  9
$COORDS
 70
     1
  9
$SPLFRAME
 70
     0
  9
$SPLINETYPE
 70
     6
  9
$SPLINESEGS
 70
     8
  9
$ATTDIA
 70
     0
  9
$ATTREQ
 70
     1
  9
$HANDLING
 70
     1
  9
$HANDSEED
  5
2FED
  9
$SURFTAB1
 70
     6
  9
$SURFTAB2
 70
     6
  9
$SURFTYPE
 70
     6
  9
$SURFU
 70
     6
  9
$SURFV
 70
     6
  9
$UCSNAME
  2

  9
$UCSORG
 10
0.0
 20
0.0
 30
0.0
  9
$UCSXDIR
 10
1.0
 20
0.0
 30
0.0
  9
$UCSYDIR
 10
0.0
 20
1.0
 30
0.0
  9
$PUCSNAME
  2

  9
$PUCSORG
 10
0.0
 20
0.0
 30
0.0
  9
$PUCSXDIR
 10
1.0
 20
0.0
 30
0.0
  9
$PUCSYDIR
 10
0.0
 20
1.0
 30
0.0
  9
$USERI1
 70
     3
  9
$USERI2
 70
     1
  9
$USERI3
 70
     1
  9
$USERI4
 70
     0
  9
$USERI5
 70
     0
  9
$USERR1
 40
4.0
  9
$USERR2
 40
3.0
  9
$USERR3
 40
3.0
  9
$USERR4
 40
3.0
  9
$USERR5
 40
10.0
  9
$WORLDVIEW
 70
     1
  9
$SHADEDGE
 70
     3
  9
$SHADEDIF
 70
    70
  9
$TILEMODE
 70
     1
  9
$MAXACTVP
 70
    16
  9
$PLIMCHECK
 70
     0
  9
$PEXTMIN
 10
1.0000000000000000E+020
 20
1.0000000000000000E+020
 30
1.0000000000000000E+020
  9
$PEXTMAX
 10
-1.0000000000000000E+020
 20
-1.0000000000000000E+020
 30
-1.0000000000000000E+020
  9
$PLIMMIN
 10
0.0
 20
0.0
  9
$PLIMMAX
 10
12.0
 20
9.0
  9
$UNITMODE
 70
     0
  9
$VISRETAIN
 70
     0
  9
$PLINEGEN
 70
     0
  9
$PSLTSCALE
 70
     0
  0
ENDSEC
  0
SECTION
  2
TABLES
  0
TABLE
  2
VPORT
 70
     1
  0
VPORT
  2
*ACTIVE
 70
     0
 10
0.0
 20
0.0
 11
1.0
 21
1.0
 12
1561.1745513866231
 22
600.0
 13
0.0
 23
0.0
 14
20.0
 24
20.0
 15
10.0
 25
10.0
 16
0.0
 26
0.0
 36
1.0
 17
0.0
 27
0.0
 37
0.0
 40
1200.0
 41
2.6019575856443709
 42
50.0
 43
0.0
 44
0.0
 50
0.0
 51
0.0
 71
     0
 72
 10000
 73
     1
 74
     1
 75
     0
 76
     0
 77
     0
 78
     2
  0
ENDTAB
  0
TABLE
  2
LTYPE
 70
     4
  0
LTYPE
  2
CONTINUOUS
 70
     0
  3
実線
 72
    65
 73
     0
 40
0.0
  0
LTYPE
  2
CENTER
 70
     0
  3
____ _ ____ _ ____ _ ____ _ ____ _ ____ _ ____
 72
    65
 73
     4
 40
2.0
 49
1.25
 49
-0.25
 49
0.25
 49
-0.25
  0
LTYPE
  2
HIDDEN
 70
     0
  3
_ _ _ _ _ _ _ _ _ _ _ _ _ _ _ _ _ _ _ _ _ _ _
 72
    65
 73
     2
 40
0.375
 49
0.25
 49
-0.125
  0
LTYPE
  2
PHANTOM2
 70
     0
  3
___ _ _ ___ _ _ ___ _ _ ___ _ _
 72
    65
 73
     6
 40
1.25
 49
0.625
 49
-0.125
 49
0.125
 49
-0.125
 49
0.125
 49
-0.125
  0
ENDTAB
  0
TABLE
  2
LAYER
 70
     4
  0
LAYER
  2
0
 70
     0
 62
     7
  6
CONTINUOUS
  0
LAYER
  2
1
 70
     0
 62
     1
  6
CENTER
  0
LAYER
  2
2
 70
     0
 62
     2
  6
HIDDEN
  0
LAYER
  2
DEFPOINTS
 70
     0
 62
     7
  6
CONTINUOUS
  0
ENDTAB
  0
TABLE
  2
STYLE
 70
     2
  0
STYLE
  2
STANDARD
 70
     0
 40
0.0
 41
1.0
 50
0.0
 71
     0
 42
4.0
  3
SIMPLEX
  4
BIGFONT
  0
STYLE
  2
STANDARD1
 70
     0
 40
0.0
 41
1.0
 50
0.0
 71
     0
 42
3.0
  3
txt
  4

  0
ENDTAB
  0
TABLE
  2
VIEW
 70
     1
  0
VIEW
  2
ALL
 70
     0
 40
270.0
 10
220.59941989218049
 20
135.0
 41
441.19883978436093
 11
0.0
 21
0.0
 31
1.0
 12
0.0
 22
0.0
 32
0.0
 42
50.0
 43
0.0
 44
0.0
 50
0.0
 71
     0
  0
ENDTAB
  0
TABLE
  2
UCS
 70
     0
  0
ENDTAB
  0
TABLE
  2
APPID
 70
     4
  0
APPID
  2
ACAD
 70
     0
  0
APPID
  2
ACAD_EXEMPT_FROM_CAD_STANDARDS
 70
     0
  0
APPID
  2
ACAD_MLEADERVER
 70
     0
  0
APPID
  2
ACAD_NAV_VCDISPLAY
 70
     0
  0
ENDTAB
  0
TABLE
  2
DIMSTYLE
 70
     1
  0
DIMSTYLE
  2
STANDARD
 70
     0
  3

  4

  5

  6

  7

 40
1.0
 41
0.18
 42
0.0625
 43
0.38
 44
0.18
 45
0.0
 46
0.0
 47
0.0
 48
0.0
140
0.18
141
0.09
142
0.0
143
25.399999999999999
144
1.0
145
0.0
146
1.0
147
0.09
 71
     0
 72
     0
 73
     1
 74
     1
 75
     0
 76
     0
 77
     0
 78
     0
170
     0
171
     2
172
     0
173
     0
174
     0
175
     0
176
     0
177
     0
178
     0
  0
ENDTAB
  0
ENDSEC
  0
SECTION
  2
BLOCKS
  0
BLOCK
  8
0
  2
$MODEL_SPACE
 70
     0
 10
0.0
 20
0.0
 30
0.0
  3
$MODEL_SPACE
  1

  0
ENDBLK
  5
1C2E
  8
0
  0
BLOCK
 67
     1
  8
0
  2
$PAPER_SPACE
 70
     0
 10
0.0
 20
0.0
 30
0.0
  3
$PAPER_SPACE
  1

  0
ENDBLK
  5
1C2C
 67
     1
  8
0
  0
ENDSEC
  0
SECTION
  2
ENTITIES
  0
ARC
  5
1D69
  8
0
 10
374.21360612533999
 20
795.08238953973478
 30
0.0
 40
8.5
 50
83.298768863526774
 51
181.36935944090729
  0
ARC
  5
1D6A
  8
0
 10
325.78639387465631
 20
795.08238953973341
 30
0.0
 40
8.5
 50
358.63064055909268
 51
96.701231136473211
  0
ARC
  5
1D6B
  8
0
 10
161.48641632238829
 20
675.71146849768593
 30
0.0
 40
8.5
 50
155.2987688635292
 51
253.369359440902
  0
ARC
  5
1D6C
  8
0
 10
146.52158474672589
 20
629.65445272066404
 30
0.0
 40
8.5
 50
70.630640559095085
 51
168.70123113647099
  0
ARC
  5
1D6D
  8
0
 10
209.278591820846
 20
436.50824520624951
 30
0.0
 40
8.5
 50
227.29876886353011
 51
325.36935944090271
  0
ARC
  5
1D6E
  8
0
 10
248.4570295218532
 20
408.04344403566142
 30
0.0
 40
8.5
 50
142.63064055909209
 51
240.70123113647321
  0
ARC
  5
1D6F
  8
0
 10
451.54297047814498
 20
408.04344403565989
 30
0.0
 40
8.5
 50
299.29876886352667
 51
37.369359440908461
  0
ARC
  5
1D70
  8
0
 10
490.72140817914982
 20
436.50824520625059
 30
0.0
 40
8.5
 50
214.63064055909729
 51
312.70123113646991
  0
ARC
  5
1D71
  8
0
 10
553.47841525327249
 20
629.65445272066472
 30
0.0
 40
8.5
 50
11.29876886352654
 51
109.3693594409049
  0
ARC
  5
1D72
  8
0
 10
538.51358367760713
 20
675.71146849768547
 30
0.0
 40
8.5
 50
286.63064055909791
 51
24.701231136468099
  0
LINE
  5
1DD6
  8
0
 10
216.27266875202849
 20
431.67783239980071
 30
0.0
 11
305.18152953338671
 21
560.41122167419769
 31
0.0
  0
LINE
  5
1DD7
  8
0
 10
296.93703344965252
 20
585.78517154340977
 30
0.0
 11
149.3406664339029
 21
637.67335404447545
 31
0.0
  0
ARC
  5
1DD8
  8
0
 10
349.9999999999996
 20
588.99999999999773
 30
0.0
 40
48.5
 50
191.36643116244269
 51
204.63356883755509
  0
ARC
  5
1DD9
  8
0
 10
298.1874526022043
 20
565.24163448064655
 30
0.0
 40
8.5
 50
325.36935944090271
 51
24.633568837555121
  0
ARC
  5
1DDA
  8
0
 10
294.11795176247551
 20
577.7662702195986
 30
0.0
 40
8.5
 50
11.366431162442741
 51
70.630640559095085
  0
ARC
  5
1DDB
  8
0
 10
349.9999999999996
 20
588.99999999999579
 30
0.0
 40
216.0
 50
220.61201101311829
 51
227.29876886353011
  0
ARC
  5
1DDC
  8
0
 10
130.01255048830191
 20
586.65009418512795
 30
0.0
 40
4.0
 50
0.6120102081696942
 51
43.736502519511603
  0
ARC
  5
1DDD
  8
0
 10
130.71235000082291
 20
606.68973029299957
 30
0.0
 40
4.0
 50
312.26349748449621
 51
355.38798979583231
  0
ARC
  5
1DDE
  8
0
 10
130.04071124110601
 20
584.76782695507052
 30
0.0
 40
4.0
 50
317.97778319848828
 51
1.1022755098318371
  0
ARC
  5
1DDF
  8
0
 10
140.12792632573539
 20
596.32889430019725
 30
0.0
 40
10.0
 50
132.26349748449621
 51
223.73650251950161
  0
ARC
  5
1DE0
  8
0
 10
349.99999999999818
 20
588.99999999999886
 30
0.0
 40
216.0
 50
180.61201020816969
 51
181.10227550983021
  0
ARC
  5
1DE1
  8
0
 10
349.99999999999818
 20
588.99999999999886
 30
0.0
 40
216.0
 50
168.70123113647099
 51
175.38798898687909
  0
ARC
  5
1DE2
  8
0
 10
349.99999999999818
 20
588.99999999999886
 30
0.0
 40
216.0
 50
186.32629592217069
 51
186.8165612238295
  0
ARC
  5
1DE3
  8
0
 10
131.5551267137896
 20
562.88798485424229
 30
0.0
 40
4.0
 50
323.6920689124903
 51
6.8165612238311502
  0
ARC
  5
1DE4
  8
0
 10
131.33969260328669
 20
564.75809477009705
 30
0.0
 40
4.0
 50
6.3262959221690886
 51
49.450788233504618
  0
ARC
  5
1DE5
  8
0
 10
140.44110558088479
 20
575.39596494279635
 30
0.0
 40
10.0
 50
137.97778319848891
 51
229.45078823350431
  0
ARC
  5
1DE6
  8
0
 10
349.99999999999818
 20
588.99999999999886
 30
0.0
 40
216.0
 50
192.04058163616989
 51
192.53084693782969
  0
ARC
  5
1DE7
  8
0
 10
135.24054547752749
 20
541.26765569123063
 30
0.0
 40
4.0
 50
329.40635462648612
 51
12.53084693782967
  0
ARC
  5
1DE8
  8
0
 10
134.83997909030359
 20
543.10702230035815
 30
0.0
 40
4.0
 50
12.0405816361683
 51
55.165073947511573
  0
ARC
  5
1DE9
  8
0
 10
142.8369752769197
 20
554.59823859765436
 30
0.0
 40
10.0
 50
143.6920689124934
 51
235.16507394750261
  0
ARC
  5
1DEA
  8
0
 10
349.99999999999818
 20
588.99999999999886
 30
0.0
 40
216.0
 50
197.75486735016941
 51
198.2451326518304
  0
ARC
  5
1DEB
  8
0
 10
141.06034018490431
 20
520.12171201058413
 30
0.0
 40
4.0
 50
335.12064034048751
 51
18.24513265183046
  0
ARC
  5
1DEC
  8
0
 10
140.4786225296773
 20
521.91205486125375
 30
0.0
 40
4.0
 50
17.754867350166879
 51
60.879359661514322
  0
ARC
  5
1DED
  8
0
 10
147.29172418441249
 20
534.14241241294656
 30
0.0
 40
10.0
 50
149.40635462649649
 51
240.8793596615032
  0
ARC
  5
1DEE
  8
0
 10
349.99999999999818
 20
588.99999999999886
 30
0.0
 40
216.0
 50
203.46915306416841
 51
203.9594183658277
  0
ARC
  5
1DEF
  8
0
 10
148.956671101469
 20
499.66031170080117
 30
0.0
 40
4.0
 50
340.8349260544889
 51
23.959418365833521
  0
ARC
  5
1DF0
  8
0
 10
148.1995835496441
 20
501.38383756141911
 30
0.0
 40
4.0
 50
23.469153064168431
 51
66.593645375503982
  0
ARC
  5
1DF1
  8
0
 10
153.7610790073436
 20
514.23178557944857
 30
0.0
 40
10.0
 50
155.12064034049601
 51
246.59364537550391
  0
ARC
  5
1DF2
  8
0
 10
349.99999999999818
 20
588.99999999999886
 30
0.0
 40
216.0
 50
209.18343877817159
 51
209.67370407982889
  0
ARC
  5
1DF3
  8
0
 10
158.85106094300269
 20
480.08680935081708
 30
0.0
 40
4.0
 50
346.54921176848978
 51
29.673704079829779
  0
ARC
  5
1DF4
  8
0
 10
157.9261277708051
 20
481.72638904705491
 30
0.0
 40
4.0
 50
29.183438778170199
 51
72.307931089501508
  0
ARC
  5
1DF5
  8
0
 10
162.18074439100741
 20
495.06423885184358
 30
0.0
 40
10.0
 50
160.83492605449069
 51
252.30793108950141
  0
ARC
  5
1DF6
  8
0
 10
349.99999999999818
 20
588.99999999999886
 30
0.0
 40
216.0
 50
214.8977244921667
 51
215.3879897938325
  0
ARC
  5
1DF7
  8
0
 10
170.64517481802559
 20
461.59573522073811
 30
0.0
 40
4.0
 50
352.26349748248992
 51
35.387989793832553
  0
ARC
  5
1DF8
  8
0
 10
169.56158842686361
 20
463.13507387296352
 30
0.0
 40
4.0
 50
34.897724492166709
 51
78.022216803504264
  0
ARC
  5
1DF9
  8
0
 10
172.46704191813319
 20
476.83026792087958
 30
0.0
 40
10.0
 50
166.54921176849319
 51
258.02221680350419
  0
ARC
  5
1DFA
  8
0
 10
184.51774174258961
 20
459.71109018161189
 30
0.0
 40
10.0
 50
172.26349748249319
 51
263.73650251751019
  0
ARC
  5
1DFB
  8
0
 10
182.99032708237721
 20
445.79466088183221
 30
0.0
 40
4.0
 50
40.612010206167731
 51
83.736502517510189
  0
LINE
  5
1DFC
  8
0
 10
159.0537093781206
 20
667.56702640977642
 30
0.0
 11
308.96078704425281
 21
622.79048003656123
 31
0.0
  0
LINE
  5
1DFD
  8
0
 10
330.54515801158192
 20
638.47244348457093
 30
0.0
 11
334.28396638206368
 21
794.87926031644884
 31
0.0
  0
ARC
  5
1DFE
  8
0
 10
349.99999999999733
 20
588.99999999999739
 30
0.0
 40
48.5
 50
119.36643116244009
 51
132.63356883755591
  0
ARC
  5
1DFF
  8
0
 10
311.39349398852028
 20
630.93492212447075
 30
0.0
 40
8.5
 50
253.369359440902
 51
312.6335688375558
  0
ARC
  5
1E00
  8
0
 10
322.04758550417449
 20
638.67557270785551
 30
0.0
 40
8.5
 50
299.36643116244022
 51
358.63064055909268
  0
ARC
  5
1E01
  8
0
 10
349.99999999999591
 20
588.99999999999704
 30
0.0
 40
216.0
 50
148.61201101312199
 51
155.2987688635292
  0
ARC
  5
1E02
  8
0
 10
279.78524631377059
 20
797.49433652927326
 30
0.0
 40
4.0
 50
288.61201020816259
 51
331.73650251950693
  0
ARC
  5
1E03
  8
0
 10
299.0603227603699
 20
803.0213757612122
 30
0.0
 40
4.0
 50
240.26349748449459
 51
283.38798979582839
  0
ARC
  5
1E04
  8
0
 10
278.00380595040627
 20
796.88590149977233
 30
0.0
 40
4.0
 50
245.97778319849331
 51
289.10227550982933
  0
ARC
  5
1E05
  8
0
 10
292.11615527138218
 20
790.86495614502235
 30
0.0
 40
10.0
 50
60.263497484494579
 51
151.7365025195063
  0
ARC
  5
1E06
  8
0
 10
349.99999999999818
 20
588.99999999999886
 30
0.0
 40
216.0
 50
108.6120102081762
 51
109.1022755098293
  0
ARC
  5
1E07
  8
0
 10
349.99999999999818
 20
588.99999999999886
 30
0.0
 40
216.0
 50
96.701231136473211
 51
103.38798898687629
  0
ARC
  5
1E08
  8
0
 10
349.99999999999818
 20
588.99999999999886
 30
0.0
 40
216.0
 50
114.3262959221744
 51
114.8165612238252
  0
ARC
  5
1E09
  8
0
 10
257.66281966250841
 20
788.68436375270198
 30
0.0
 40
4.0
 50
251.69206891248851
 51
294.8165612238252
  0
ARC
  5
1E0A
  8
0
 10
259.3748270828566
 20
789.46714951267631
 30
0.0
 40
4.0
 50
294.32629592217421
 51
337.45078823350912
  0
ARC
  5
1E0B
  8
0
 10
272.30453411300692
 20
784.09847406015683
 30
0.0
 40
10.0
 50
65.977783198493341
 51
157.4507882335073
  0
ARC
  5
1E0C
  8
0
 10
349.99999999999818
 20
588.99999999999886
 30
0.0
 40
216.0
 50
120.0405816361687
 51
120.5308469378306
  0
ARC
  5
1E0D
  8
0
 10
238.23952175696331
 20
778.49827308682165
 30
0.0
 40
4.0
 50
257.40635462649237
 51
300.53084693783057
  0
ARC
  5
1E0E
  8
0
 10
239.8650815354022
 20
779.44762990070603
 30
0.0
 40
4.0
 50
300.04058163616872
 51
343.16507394750892
  0
ARC
  5
1E0F
  8
0
 10
253.26508540071879
 20
775.39301568854034
 30
0.0
 40
10.0
 50
71.692068912488509
 51
163.16507394750721
  0
ARC
  5
1E10
  8
0
 10
349.99999999999818
 20
588.99999999999886
 30
0.0
 40
216.0
 50
125.7548673501727
 51
126.2451326518307
  0
ARC
  5
1E11
  8
0
 10
219.92694969462701
 20
766.4288634474558
 30
0.0
 40
4.0
 50
263.12064034049263
 51
306.24513265183072
  0
ARC
  5
1E12
  8
0
 10
221.4499062877658
 20
767.53535618071794
 30
0.0
 40
4.0
 50
305.75486735017267
 51
348.8793596615094
  0
ARC
  5
1E13
  8
0
 10
235.18703172963981
 20
764.8350997865557
 30
0.0
 40
10.0
 50
77.406354626492472
 51
168.8793596615069
  0
ARC
  5
1E14
  8
0
 10
349.99999999999818
 20
588.99999999999886
 30
0.0
 40
216.0
 50
131.46915306417111
 51
131.9594183658256
  0
ARC
  5
1E15
  8
0
 10
202.90710204391101
 20
752.5960860500021
 30
0.0
 40
4.0
 50
268.8349260544947
 51
311.95941836583529
  0
ARC
  5
1E16
  8
0
 10
204.3123196249112
 20
753.8487178807469
 30
0.0
 40
4.0
 50
311.46915306417048
 51
354.59364537550772
  0
ARC
  5
1E17
  8
0
 10
218.25004091904771
 20
752.52965566577279
 30
0.0
 40
10.0
 50
83.120640340492571
 51
174.5936453755061
  0
ARC
  5
1E18
  8
0
 10
349.99999999999818
 20
588.99999999999886
 30
0.0
 40
216.0
 50
137.18343877816909
 51
137.67370407982651
  0
ARC
  5
1E19
  8
0
 10
187.3491296972449
 20
737.13741725086379
 30
0.0
 40
4.0
 50
274.54921176848512
 51
317.67370407982719
  0
ARC
  5
1E1A
  8
0
 10
188.6226425824668
 20
738.52373896118945
 30
0.0
 40
4.0
 50
317.18343877816579
 51
0.3079310895069012
  0
ARC
  5
1E1B
  8
0
 10
202.62244039286981
 20
738.59898035830884
 30
0.0
 40
10.0
 50
88.834926054494659
 51
180.30793108950519
  0
ARC
  5
1E1C
  8
0
 10
349.99999999999818
 20
588.99999999999886
 30
0.0
 40
216.0
 50
142.8977244921694
 51
143.38798979382611
  0
ARC
  5
1E1D
  8
0
 10
173.40765477351189
 20
720.206492245655
 30
0.0
 40
4.0
 50
280.26349748248748
 51
323.38798979383517
  0
ARC
  5
1E1E
  8
0
 10
174.53680621975349
 20
721.71272594757409
 30
0.0
 40
4.0
 50
322.8977244921669
 51
6.022216803509127
  0
ARC
  5
1E1F
  8
0
 10
188.4595442661188
 20
723.18152317397846
 30
0.0
 40
10.0
 50
94.549211768498154
 51
186.02221680350749
  0
ARC
  5
1E20
  8
0
 10
175.9021097634415
 20
706.43050972885328
 30
0.0
 40
10.0
 50
100.26349748248749
 51
191.73650251750621
  0
ARC
  5
1E21
  8
0
 10
162.19480190686221
 20
703.5827542398838
 30
0.0
 40
4.0
 50
328.61201020617091
 51
11.73650251750785
  0
LINE
  5
1E22
  8
0
 10
365.71603361793268
 20
794.8792603164502
 30
0.0
 11
369.45484198841399
 21
638.47244348457036
 31
0.0
  0
LINE
  5
1E23
  8
0
 10
391.03921295574452
 20
622.79048003656169
 30
0.0
 11
540.94629062187414
 21
667.56702640977585
 31
0.0
  0
ARC
  5
1E24
  8
0
 10
349.99999999999682
 20
588.99999999999932
 30
0.0
 40
48.5
 50
47.366431162443533
 51
60.633568837559451
  0
ARC
  5
1E25
  8
0
 10
377.95241449582181
 20
638.67557270785494
 30
0.0
 40
8.5
 50
181.36935944090729
 51
240.63356883755949
  0
ARC
  5
1E26
  8
0
 10
388.60650601147699
 20
630.93492212447131
 30
0.0
 40
8.5
 50
227.36643116244349
 51
286.63064055909791
  0
ARC
  5
1E27
  8
0
 10
349.99999999999551
 20
589.00000000000091
 30
0.0
 40
216.0
 50
76.612011013123677
 51
83.298768863526774
  0
ARC
  5
1E28
  8
0
 10
526.59234522190388
 20
720.20649225182035
 30
0.0
 40
4.0
 50
216.6120102081683
 51
259.73650251951159
  0
ARC
  5
1E29
  8
0
 10
537.80519808913368
 20
703.58275424644091
 30
0.0
 40
4.0
 50
168.263497484493
 51
211.38798979582981
  0
ARC
  5
1E2A
  8
0
 10
525.46319377560985
 20
721.7127259537001
 30
0.0
 40
4.0
 50
173.97778319848859
 51
217.10227550982779
  0
ARC
  5
1E2B
  8
0
 10
524.09789023245503
 20
706.43050973493189
 30
0.0
 40
10.0
 50
348.26349748449309
 51
79.736502519511617
  0
ARC
  5
1E2C
  8
0
 10
349.99999999999818
 20
588.99999999999886
 30
0.0
 40
216.0
 50
36.612010208168293
 51
37.102275509826939
  0
ARC
  5
1E2D
  8
0
 10
349.99999999999818
 20
588.99999999999886
 30
0.0
 40
216.0
 50
24.701231136468099
 51
31.387988986877978
  0
ARC
  5
1E2E
  8
0
 10
349.99999999999818
 20
588.99999999999886
 30
0.0
 40
216.0
 50
42.326295922170637
 51
42.81656122382882
  0
ARC
  5
1E2F
  8
0
 10
511.37735741230972
 20
738.52373896682354
 30
0.0
 40
4.0
 50
179.69206891248959
 51
222.81656122382941
  0
ARC
  5
1E30
  8
0
 10
512.65087029757967
 20
737.13741725654245
 30
0.0
 40
4.0
 50
222.32629592217
 51
265.45078823350133
  0
ARC
  5
1E31
  8
0
 10
511.54045572919313
 20
723.18152317961858
 30
0.0
 40
10.0
 50
353.97778319849351
 51
85.450788233501356
  0
ARC
  5
1E32
  8
0
 10
349.99999999999818
 20
588.99999999999886
 30
0.0
 40
216.0
 50
48.040581636171858
 51
48.530846937828777
  0
ARC
  5
1E33
  8
0
 10
495.68768036933028
 20
753.84871788583325
 30
0.0
 40
4.0
 50
185.40635462648939
 51
228.5308469378287
  0
ARC
  5
1E34
  8
0
 10
497.09289795037409
 20
752.59608605513745
 30
0.0
 40
4.0
 50
228.04058163617131
 51
271.16507394751198
  0
ARC
  5
1E35
  8
0
 10
497.37755960190412
 20
738.59898036345442
 30
0.0
 40
10.0
 50
359.69206891249291
 51
91.165073947511999
  0
ARC
  5
1E36
  8
0
 10
349.99999999999818
 20
588.99999999999898
 30
0.0
 40
216.0
 50
53.754867350172027
 51
54.245132651830801
  0
ARC
  5
1E37
  8
0
 10
478.55009370599771
 20
767.53535618520596
 30
0.0
 40
4.0
 50
191.12064034049001
 51
234.2451326518308
  0
ARC
  5
1E38
  8
0
 10
480.07305029917552
 20
766.4288634519969
 30
0.0
 40
4.0
 50
233.75486735017211
 51
276.87935966150189
  0
ARC
  5
1E39
  8
0
 10
481.74995907523947
 20
752.5296556703729
 30
0.0
 40
10.0
 50
5.4063546264927602
 51
96.879359661501994
  0
ARC
  5
1E3A
  8
0
 10
349.99999999999818
 20
588.99999999999886
 30
0.0
 40
216.0
 50
59.469153064166129
 51
59.959418365832647
  0
ARC
  5
1E3B
  8
0
 10
460.13491845794579
 20
779.44762990455115
 30
0.0
 40
4.0
 50
196.83492605449101
 51
239.9594183658327
  0
ARC
  5
1E3C
  8
0
 10
461.76047823641738
 20
778.49827309072361
 30
0.0
 40
4.0
 50
239.46915306416619
 51
282.59364537550982
  0
ARC
  5
1E3D
  8
0
 10
464.81296826421737
 20
764.83509979056441
 30
0.0
 40
10.0
 50
11.120640340493329
 51
102.59364537550989
  0
ARC
  5
1E3E
  8
0
 10
349.99999999999818
 20
588.99999999999886
 30
0.0
 40
216.0
 50
65.183438778170057
 51
65.673704079827147
  0
ARC
  5
1E3F
  8
0
 10
440.62517291014137
 20
789.46714951584033
 30
0.0
 40
4.0
 50
202.54921176849129
 51
245.6737040798273
  0
ARC
  5
1E40
  8
0
 10
442.33718033051719
 20
788.68436375592557
 30
0.0
 40
4.0
 50
245.18343877817011
 51
288.30793108950132
  0
ARC
  5
1E41
  8
0
 10
446.73491459277011
 20
775.39301569191775
 30
0.0
 40
10.0
 50
16.8349260544936
 51
108.30793108950139
  0
ARC
  5
1E42
  8
0
 10
349.99999999999818
 20
588.99999999999886
 30
0.0
 40
216.0
 50
70.897724492169758
 51
71.387989793830755
  0
ARC
  5
1E43
  8
0
 10
420.21475367894698
 20
797.4943365317248
 30
0.0
 40
4.0
 50
208.26349748249359
 51
251.3879897938308
  0
ARC
  5
1E44
  8
0
 10
421.99619404233221
 20
796.88590150228595
 30
0.0
 40
4.0
 50
250.89772449216969
 51
294.02221680350351
  0
ARC
  5
1E45
  8
0
 10
427.69546588017778
 20
784.0984740628694
 30
0.0
 40
10.0
 50
22.54921176849215
 51
114.0222168035036
  0
ARC
  5
1E46
  8
0
 10
407.88384472156662
 20
790.86495614704324
 30
0.0
 40
10.0
 50
28.263497482494522
 51
119.73650251750099
  0
ARC
  5
1E47
  8
0
 10
400.93967723215422
 20
803.02137576299071
 30
0.0
 40
4.0
 50
256.61201020616687
 51
299.73650251750098
  0
LINE
  5
1E48
  8
0
 10
550.65933356609537
 20
637.67335404447601
 30
0.0
 11
403.06296655034379
 21
585.78517154341012
 31
0.0
  0
LINE
  5
1E49
  8
0
 10
394.81847046661102
 20
560.41122167419758
 30
0.0
 11
483.7273312479673
 21
431.67783239980179
 31
0.0
  0
ARC
  5
1E4A
  8
0
 10
349.99999999999818
 20
589.00000000000057
 30
0.0
 40
48.5
 50
335.36643116244261
 51
348.63356883755603
  0
ARC
  5
1E4B
  8
0
 10
405.88204823752028
 20
577.7662702195986
 30
0.0
 40
8.5
 50
109.3693594409049
 51
168.63356883755429
  0
ARC
  5
1E4C
  8
0
 10
401.81254739779303
 20
565.24163448064621
 30
0.0
 40
8.5
 50
155.36643116244349
 51
214.63064055909729
  0
ARC
  5
1E4D
  8
0
 10
349.9999999999996
 20
589.00000000000205
 30
0.0
 40
216.0
 50
4.6120110131208678
 51
11.29876886352654
  0
ARC
  5
1E4E
  8
0
 10
529.35482518641902
 20
461.59573522699981
 30
0.0
 40
4.0
 50
144.61201020816679
 51
187.73650251950761
  0
ARC
  5
1E4F
  8
0
 10
517.00967292261976
 20
445.79466088766321
 30
0.0
 40
4.0
 50
96.263497484494977
 51
139.38798979583331
  0
ARC
  5
1E50
  8
0
 10
530.4384115775274
 20
463.13507387926319
 30
0.0
 40
4.0
 50
101.9777831984933
 51
145.10227550982719
  0
ARC
  5
1E51
  8
0
 10
515.48225826192117
 20
459.71109018738957
 30
0.0
 40
10.0
 50
276.26349748449491
 51
7.7365025195076136
  0
ARC
  5
1E52
  8
0
 10
349.99999999999818
 20
588.99999999999886
 30
0.0
 40
216.0
 50
324.61201020816941
 51
325.1022755098262
  0
ARC
  5
1E53
  8
0
 10
349.99999999999818
 20
588.99999999999886
 30
0.0
 40
216.0
 50
312.70123113646991
 51
319.38798898687912
  0
ARC
  5
1E54
  8
0
 10
349.99999999999818
 20
588.99999999999886
 30
0.0
 40
216.0
 50
330.32629592217091
 51
330.81656122382788
  0
ARC
  5
1E55
  8
0
 10
542.07387223293654
 20
481.7263890537605
 30
0.0
 40
4.0
 50
107.6920689124949
 51
150.81656122383109
  0
ARC
  5
1E56
  8
0
 10
541.14893906079624
 20
480.08680935749061
 30
0.0
 40
4.0
 50
150.32629592217
 51
193.45078823350721
  0
ARC
  5
1E57
  8
0
 10
527.53295808578014
 20
476.83026792707801
 30
0.0
 40
10.0
 50
281.97778319849328
 51
13.450788233507261
  0
ARC
  5
1E58
  8
0
 10
349.99999999999818
 20
588.99999999999886
 30
0.0
 40
216.0
 50
336.04058163616992
 51
336.53084693783057
  0
ARC
  5
1E59
  8
0
 10
551.80041645341134
 20
501.3838375684644
 30
0.0
 40
4.0
 50
113.4063546264838
 51
156.53084693783049
  0
ARC
  5
1E5A
  8
0
 10
551.04332890164642
 20
499.6603117078202
 30
0.0
 40
4.0
 50
156.04058163616989
 51
199.1650739475082
  0
ARC
  5
1E5B
  8
0
 10
537.81925561226899
 20
495.06423885840098
 30
0.0
 40
10.0
 50
287.6920689124949
 51
19.165073947507409
  0
ARC
  5
1E5C
  8
0
 10
349.99999999999858
 20
588.99999999999886
 30
0.0
 40
216.0
 50
341.75486735016932
 51
342.2451326518277
  0
ARC
  5
1E5D
  8
0
 10
559.5213774726617
 20
521.9120548685687
 30
0.0
 40
4.0
 50
119.1206403404837
 51
162.2451326518302
  0
ARC
  5
1E5E
  8
0
 10
558.93965981749704
 20
520.12171201787874
 30
0.0
 40
4.0
 50
161.75486735016841
 51
204.8793596615067
  0
ARC
  5
1E5F
  8
0
 10
546.23892099526336
 20
514.23178558630013
 30
0.0
 40
10.0
 50
293.4063546264976
 51
24.87935966150674
  0
ARC
  5
1E60
  8
0
 10
349.99999999999818
 20
588.99999999999886
 30
0.0
 40
216.0
 50
347.46915306416957
 51
347.95941836582978
  0
ARC
  5
1E61
  8
0
 10
565.16002091129519
 20
543.10702230786967
 30
0.0
 40
4.0
 50
124.83492605448519
 51
167.9594183658314
  0
ARC
  5
1E62
  8
0
 10
564.75945452413544
 20
541.26765569872839
 30
0.0
 40
4.0
 50
167.4691530641696
 51
210.5936453755111
  0
ARC
  5
1E63
  8
0
 10
552.70827581749973
 20
534.1424124200239
 30
0.0
 40
10.0
 50
299.12064034049803
 51
30.59364537550978
  0
ARC
  5
1E64
  8
0
 10
349.99999999999818
 20
588.99999999999886
 30
0.0
 40
216.0
 50
353.18343877816892
 51
353.6737040798298
  0
ARC
  5
1E65
  8
0
 10
568.66030739755649
 20
564.758094777731
 30
0.0
 40
4.0
 50
130.54921176848859
 51
173.6737040798314
  0
ARC
  5
1E66
  8
0
 10
568.44487328711875
 20
562.88798486186863
 30
0.0
 40
4.0
 50
173.18343877816969
 51
216.30793108950769
  0
ARC
  5
1E67
  8
0
 10
557.16302472427833
 20
554.59823860488746
 30
0.0
 40
10.0
 50
304.83492605448822
 51
36.307931089506781
  0
ARC
  5
1E68
  8
0
 10
349.99999999999818
 20
588.99999999999886
 30
0.0
 40
216.0
 50
358.89772449216991
 51
359.38798979383017
  0
ARC
  5
1E69
  8
0
 10
569.98744951177684
 20
586.6500941928083
 30
0.0
 40
4.0
 50
136.26349748248569
 51
179.38798979383171
  0
ARC
  5
1E6A
  8
0
 10
569.95928875903826
 20
584.76782696274984
 30
0.0
 40
4.0
 50
178.89772449216991
 51
222.0222168035047
  0
ARC
  5
1E6B
  8
0
 10
559.55889441958698
 20
575.39596495011301
 30
0.0
 40
10.0
 50
310.54921176849138
 51
42.022216803504712
  0
ARC
  5
1E6C
  8
0
 10
559.87207367400549
 20
596.32889430752493
 30
0.0
 40
10.0
 50
316.26349748249538
 51
47.73650251750918
  0
ARC
  5
1E6D
  8
0
 10
569.28764999855593
 20
606.68973030065604
 30
0.0
 40
4.0
 50
184.6120102061698
 51
227.73650251750919
  0
ARC
  5
1E6E
  8
0
 10
434.58754378004181
 20
385.91147881463212
 30
0.0
 40
4.0
 50
112.61201020616519
 51
155.73650251750871
  0
ARC
  5
1E6F
  8
0
 10
421.8242300983884
 20
391.6645496349613
 30
0.0
 40
10.0
 50
244.2634974824866
 51
335.73650251750701
  0
ARC
  5
1E70
  8
0
 10
401.8190535159747
 20
385.49376989215409
 30
0.0
 40
10.0
 50
238.5492117684918
 51
330.02221680350721
  0
ARC
  5
1E71
  8
0
 10
413.94612255200349
 20
378.49847171442121
 30
0.0
 40
4.0
 50
106.8977244921728
 51
150.02221680350809
  0
ARC
  5
1E72
  8
0
 10
415.74496721772988
 20
379.05334180906863
 30
0.0
 40
4.0
 50
64.263497482486542
 51
107.3879897938282
  0
ARC
  5
1E73
  8
0
 10
349.99999999999818
 20
588.99999999999898
 30
0.0
 40
216.0
 50
286.89772449217293
 51
287.38798979382818
  0
ARC
  5
1E74
  8
0
 10
381.29887589906639
 20
381.3455264930372
 30
0.0
 40
10.0
 50
232.83492605449621
 51
324.30793108950257
  0
ARC
  5
1E75
  8
0
 10
392.66917602908421
 20
373.17752337395592
 30
0.0
 40
4.0
 50
101.18343877816631
 51
144.3079310895117
  0
ARC
  5
1E76
  8
0
 10
394.51432905204638
 20
373.5505291047424
 30
0.0
 40
4.0
 50
58.54921176849156
 51
101.6737040798366
  0
ARC
  5
1E77
  8
0
 10
349.99999999999818
 20
588.99999999999886
 30
0.0
 40
216.0
 50
281.18343877816631
 51
281.67370407983663
  0
ARC
  5
1E78
  8
0
 10
360.46763599188313
 20
379.26104654418492
 30
0.0
 40
10.0
 50
227.1206403404932
 51
318.59364537550368
  0
ARC
  5
1E79
  8
0
 10
370.96816406488318
 20
370.00151576837681
 30
0.0
 40
4.0
 50
95.469153064168694
 51
138.59364537550471
  0
ARC
  5
1E7A
  8
0
 10
372.84128748537069
 20
370.18895003677028
 30
0.0
 40
4.0
 50
52.834926054486829
 51
95.95941836583232
  0
ARC
  5
1E7B
  8
0
 10
349.99999999999818
 20
588.99999999999886
 30
0.0
 40
216.0
 50
275.46915306416872
 51
275.95941836583228
  0
ARC
  5
1E7C
  8
0
 10
339.53236401543649
 20
379.26104654381942
 30
0.0
 40
10.0
 50
221.40635462649041
 51
312.87935966150172
  0
ARC
  5
1E7D
  8
0
 10
349.0587610658763
 20
369.00201348814721
 30
0.0
 40
4.0
 50
89.754867350170727
 51
132.87935966151159
  0
ARC
  5
1E7E
  8
0
 10
350.9412389418012
 20
369.00201348818013
 30
0.0
 40
4.0
 50
47.120640340489949
 51
90.245132651835547
  0
ARC
  5
1E7F
  8
0
 10
349.99999999999818
 20
588.99999999999886
 30
0.0
 40
216.0
 50
269.7548673501708
 51
270.24513265183549
  0
ARC
  5
1E80
  8
0
 10
318.70112410818052
 20
381.34552649194438
 30
0.0
 40
10.0
 50
215.69206891249229
 51
307.16507394751051
  0
ARC
  5
1E81
  8
0
 10
327.15871252226538
 20
370.18895003597288
 30
0.0
 40
4.0
 50
84.040581636171694
 51
127.16507394751051
  0
ARC
  5
1E82
  8
0
 10
329.0318359427593
 20
370.00151576764472
 30
0.0
 40
4.0
 50
41.406354626489488
 51
84.530846937833644
  0
ARC
  5
1E83
  8
0
 10
349.99999999999818
 20
588.99999999999886
 30
0.0
 40
216.0
 50
264.04058163617168
 51
264.5308469378337
  0
ARC
  5
1E84
  8
0
 10
298.18094649112709
 20
385.49376989034488
 30
0.0
 40
10.0
 50
209.977783198494
 51
301.45078823350872
  0
ARC
  5
1E85
  8
0
 10
305.48567095547241
 20
373.55052910318841
 30
0.0
 40
4.0
 50
78.326295922172136
 51
121.4507882335087
  0
ARC
  5
1E86
  8
0
 10
307.33082397844743
 20
373.17752337246623
 30
0.0
 40
4.0
 50
35.692068912490377
 51
78.816561223825673
  0
ARC
  5
1E87
  8
0
 10
349.99999999999818
 20
588.99999999999886
 30
0.0
 40
216.0
 50
258.32629592217211
 51
258.81656122382572
  0
ARC
  5
1E89
  8
0
 10
349.99999999999818
 20
588.99999999999886
 30
0.0
 40
216.0
 50
240.70123113647321
 51
247.3879889868752
  0
ARC
  5
1E8A
  8
0
 10
349.99999999999818
 20
588.99999999999886
 30
0.0
 40
216.0
 50
252.61201020816489
 51
253.10227550982859
  0
ARC
  5
1E8B
  8
0
 10
278.17576990849813
 20
391.6645496324536
 30
0.0
 40
10.0
 50
204.26349748449269
 51
295.73650251950932
  0
ARC
  5
1E8C
  8
0
 10
286.05387745534222
 20
378.49847171218858
 30
0.0
 40
4.0
 50
29.97778319849024
 51
73.102275509828615
  0
ARC
  5
1E8D
  8
0
 10
265.4124562270456
 20
385.91147881167882
 30
0.0
 40
4.0
 50
24.263497484492738
 51
67.387989795824893
  0
ARC
  5
1E8E
  8
0
 10
284.25503278959633
 20
379.05334180677318
 30
0.0
 40
4.0
 50
72.612010208164904
 51
115.7365025195094
  0
ARC
  5
1E8F
  8
0
 10
350.00000000000182
 20
588.99999999999886
 30
0.0
 40
216.0
 50
292.61201101312491
 51
299.29876886352667
  0
ARC
  5
1E90
  8
0
 10
321.06028240771872
 20
812.13111111111039
 30
0.0
 40
8.0
 50
3.6949552737897138
 51
97.389910547581138
  0
ARC
  5
1E91
  8
0
 10
378.93971759228128
 20
812.13111111110993
 30
0.0
 40
8.0
 50
82.610089452418848
 51
176.3050447262103
  0
ARC
  5
1E92
  8
0
 10
349.99999999999818
 20
588.99999999999886
 30
0.0
 40
233.00000000000011
 50
97.389910547581138
 51
82.610089452418848
  0
LINE
  5
1E98
  8
0
 10
804.49999999999909
 20
654.53645803027018
 30
0.0
 11
804.49999999999955
 21
640.99999460520087
 31
0.0
  0
LINE
  5
1E99
  8
0
 10
785.71250459391365
 20
653.83584007378715
 30
0.0
 11
785.71250459391365
 21
647.17479990857896
 31
0.0
  0
ARC
  5
1E9A
  8
0
 10
767.0
 20
821.99999999999886
 30
0.0
 40
17.0
 50
0.0
 51
180.0
  0
LINE
  5
1E9D
  8
0
 10
803.56890626270422
 20
662.55578631030664
 30
0.0
 11
784.00000000000045
 21
745.69133206260688
 31
0.0
  0
LINE
  5
1E9E
  8
0
 10
784.00000000000045
 20
663.62487526247514
 30
0.0
 11
785.36814201214565
 21
657.13750889861637
 31
0.0
  0
ARC
  5
1EA1
  8
0
 10
769.71250459391365
 20
653.83584007378704
 30
0.0
 40
16.0
 50
0.0
 51
11.90879006869765
  0
ARC
  5
1EA2
  8
0
 10
769.49999999999909
 20
654.5364580302695
 30
0.0
 40
35.0
 50
0.0000000000016284
 51
13.24548375162423
  0
LINE
  5
1EA7
  8
0
 10
784.0
 20
355.99999999999898
 30
0.0
 11
784.0
 21
821.99999999999886
 31
0.0
  0
ARC
  5
1EB1
  8
0
 10
767.0
 20
355.99999999999898
 30
0.0
 40
17.0
 50
180.0
 51
0.0
  0
ARC
  5
1F23
  8
0
 10
811.49999999999943
 20
640.99999460520098
 30
0.0
 40
7.0
 50
180.00000000000159
 51
237.3776586117703
  0
ARC
  5
1F24
  8
0
 10
811.49999999999943
 20
537.00000539479686
 30
0.0
 40
7.0
 50
122.6223413882297
 51
179.99999999999841
  0
ARC
  5
1FC9
  8
2
 10
794.99999999999909
 20
602.49998697580781
 30
0.0
 40
35.0
 50
68.678013804351352
 51
114.81801346161539
  0
LINE
  5
1FCA
  8
0
 10
811.99999999999898
 20
629.9999946052011
 30
0.0
 11
809.48042161223657
 21
634.36403238645948
 31
0.0
  0
LINE
  5
1FCB
  8
0
 10
837.99999999999909
 20
629.99999460520121
 30
0.0
 11
811.99999999999955
 21
629.99999460520087
 31
0.0
  0
LINE
  5
1FCF
  8
0
 10
809.48042161223657
 20
543.63596761353938
 30
0.0
 11
809.48042161223657
 21
634.36403238645892
 31
0.0
  0
CIRCLE
  5
2005
  8
0
 10
350.0
 20
588.99999999999966
 30
0.0
 40
43.516649015413968
  0
ARC
  5
2006
  8
0
 10
837.99999999999909
 20
549.00000539479674
 30
0.0
 40
1.0
 50
270.0
 51
0.0
  0
ARC
  5
2007
  8
0
 10
837.99999999999909
 20
629.00000539479402
 30
0.0
 40
1.0
 50
0.0
 51
90.0
  0
LINE
  5
2008
  8
0
 10
811.99999999999898
 20
548.00000539479674
 30
0.0
 11
809.48042161223827
 21
543.63596761354222
 31
0.0
  0
LINE
  5
200A
  8
0
 10
811.99999999999955
 20
548.00000539479697
 30
0.0
 11
812.0
 21
629.99999460519962
 31
0.0
  0
LINE
  5
200B
  8
2
 10
778.99999999999909
 20
545.99999999999909
 30
0.0
 11
778.99999999999955
 21
631.99999999999932
 31
0.0
  0
LINE
  5
200C
  8
0
 10
837.99999999999909
 20
548.00000539479674
 30
0.0
 11
811.99999999999955
 21
548.00000539479697
 31
0.0
  0
LINE
  5
200D
  8
0
 10
750.0
 20
355.99999999999898
 30
0.0
 11
750.0
 21
821.99998921040572
 31
0.0
  0
ARC
  5
200E
  8
0
 10
350.0
 20
813.99999999999886
 30
0.0
 40
21.0
 50
183.6949552737897
 51
356.30504472620862
  0
ARC
  5
200F
  8
0
 10
343.41540932407179
 20
532.38160046742303
 30
0.0
 40
8.5
 50
83.366431162441245
 51
142.63064055909149
  0
ARC
  5
2010
  8
0
 10
356.58459067592457
 20
532.38160046742382
 30
0.0
 40
8.5
 50
37.369359440908461
 51
96.633568837558741
  0
LINE
  5
2011
  8
0
 10
336.66012511640201
 20
537.54068326125446
 30
0.0
 11
241.7017453141832
 21
413.2025268294928
 31
0.0
  0
LINE
  5
2012
  8
0
 10
458.2982546858147
 20
413.20252682949138
 30
0.0
 11
363.3398748835944
 21
537.54068326125525
 31
0.0
  0
ARC
  5
2013
  8
0
 10
350.0
 20
588.99999999999955
 30
0.0
 40
48.5
 50
263.36643116244119
 51
276.6335688375587
  0
CIRCLE
  5
2014
  8
0
 10
350.0
 20
588.99999999999898
 30
0.0
 40
250.0
  0
LINE
  5
2016
  8
0
 10
838.99999999999909
 20
549.00000539479674
 30
0.0
 11
838.99999999999909
 21
629.00000539479402
 31
0.0
  0
LINE
  5
2017
  8
1
 10
767.0
 20
313.99999999999898
 30
0.0
 11
767.0
 21
863.99999999999886
 31
0.0
  0
LINE
  5
2018
  8
1
 10
350.0
 20
588.99999999999955
 30
0.0
 11
611.54054198116705
 21
673.97967345311031
 31
0.0
  0
LINE
  5
2019
  8
1
 10
350.0
 20
313.99999999999909
 30
0.0
 11
350.0
 21
863.99999999999909
 31
0.0
  0
LINE
  5
201A
  8
1
 10
75.0
 20
588.99999999999886
 30
0.0
 11
625.0
 21
588.99999999999886
 31
0.0
  0
LINE
  5
201C
  8
1
 10
349.99999999999909
 20
588.99999999999886
 30
0.0
 11
188.3590556195694
 21
366.5203265468889
 31
0.0
  0
LINE
  5
201E
  8
1
 10
350.0
 20
588.99999999999898
 30
0.0
 11
88.459458018832891
 21
673.97967345310997
 31
0.0
  0
LINE
  5
201F
  8
1
 10
350.0
 20
588.99999999999773
 30
0.0
 11
511.64094438042969
 21
366.52032654688821
 31
0.0
  0
LINE
  5
2021
  8
1
 10
725.0
 20
588.99999999999886
 30
0.0
 11
863.99999999999909
 21
588.99999999999886
 31
0.0
  0
LINE
  5
2090
  8
2
 10
778.99999999999909
 20
545.99999999999898
 30
0.0
 11
780.30918884053517
 21
543.73241841148808
 31
0.0
  0
LINE
  5
2091
  8
2
 10
778.99999999999909
 20
631.99999999999886
 30
0.0
 11
780.30918884053517
 21
634.26758158850976
 31
0.0
  0
LINE
  5
2527
  8
2
 10
307.0
 20
1017.999999999998
 30
0.0
 11
304.7324184114895
 21
1019.309188840534
 31
0.0
  0
LINE
  5
2528
  8
2
 10
393.0
 20
1017.999999999998
 30
0.0
 11
395.26758158851089
 21
1019.309188840534
 31
0.0
  0
LINE
  5
2529
  8
1
 10
350.0
 20
963.99999999999909
 30
0.0
 11
350.0
 21
1102.999999999998
 31
0.0
  0
LINE
  5
252A
  8
1
 10
625.0
 20
1005.999999999999
 30
0.0
 11
75.0
 21
1005.999999999999
 31
0.0
  0
LINE
  5
252B
  8
0
 10
389.99999460520212
 20
1077.999999999998
 30
0.0
 11
309.9999946052049
 21
1077.999999999998
 31
0.0
  0
LINE
  5
252C
  8
0
 10
583.0
 20
988.99999999999909
 30
0.0
 11
117.00001078959301
 21
988.99999999999909
 31
0.0
  0
LINE
  5
252D
  8
0
 10
390.99999460520212
 20
1076.999999999998
 30
0.0
 11
390.99999460520212
 21
1050.9999999999991
 31
0.0
  0
LINE
  5
252E
  8
2
 10
393.0
 20
1017.999999999998
 30
0.0
 11
307.0
 21
1017.999999999998
 31
0.0
  0
LINE
  5
252F
  8
0
 10
390.99999460520212
 20
1050.9999999999991
 30
0.0
 11
309.0000053947997
 21
1050.9999999999991
 31
0.0
  0
LINE
  5
2531
  8
0
 10
390.99999460520212
 20
1050.999999999998
 30
0.0
 11
395.36403238645647
 21
1048.480421612237
 31
0.0
  0
ARC
  5
2532
  8
0
 10
309.9999946052049
 20
1076.999999999998
 30
0.0
 40
1.0
 50
90.0
 51
180.0
  0
ARC
  5
2533
  8
0
 10
389.99999460520212
 20
1076.999999999998
 30
0.0
 40
1.0
 50
0.0
 51
90.0
  0
LINE
  5
2534
  8
0
 10
395.36403238645971
 20
1048.480421612235
 30
0.0
 11
304.63596761353989
 21
1048.480421612235
 31
0.0
  0
LINE
  5
2535
  8
0
 10
415.53645803027121
 20
1043.499999999998
 30
0.0
 11
393.9330452335426
 21
1043.4999999999991
 31
0.0
  0
LINE
  5
2536
  8
0
 10
414.83584007378789
 20
1024.7125045939131
 30
0.0
 11
402.21327408151268
 21
1024.7125045939131
 31
0.0
  0
ARC
  5
2537
  8
0
 10
402.21325980822212
 20
1017.712504593913
 30
0.0
 40
7.0
 50
89.999883171613845
 51
130.94347146481161
  0
LINE
  5
2538
  8
0
 10
309.00000539479788
 20
1076.999999999998
 30
0.0
 11
309.00000539479788
 21
1050.9999999999991
 31
0.0
  0
LINE
  5
2539
  8
0
 10
309.00000539479788
 20
1050.999999999998
 30
0.0
 11
304.63596761353989
 21
1048.480421612235
 31
0.0
  0
ARC
  5
253B
  8
0
 10
297.78674019177743
 20
1017.712504593913
 30
0.0
 40
7.0
 50
49.056528535188349
 51
90.000116828386126
  0
ARC
  5
253C
  8
0
 10
401.99999460520212
 20
1050.499999999998
 30
0.0
 40
7.0
 50
212.6223413882293
 51
269.99999999999682
  0
ARC
  5
253D
  8
0
 10
298.00000539479788
 20
1050.499999999998
 30
0.0
 40
7.0
 50
270.0
 51
327.3776586117707
  0
ARC
  5
253E
  8
0
 10
583.0
 20
1005.999999999999
 30
0.0
 40
17.0
 50
270.0
 51
90.0
  0
LINE
  5
253F
  8
0
 10
423.55578631030772
 20
1042.568906262703
 30
0.0
 11
506.69133206260631
 21
1022.999999999999
 31
0.0
  0
LINE
  5
2540
  8
0
 10
424.62487526247639
 20
1022.999999999998
 30
0.0
 11
418.1375088986178
 21
1024.368142012145
 31
0.0
  0
LINE
  5
2541
  8
0
 10
583.0
 20
1022.999999999999
 30
0.0
 11
117.0
 21
1022.999999999999
 31
0.0
  0
ARC
  5
2542
  8
0
 10
414.83584007378789
 20
1008.712504593913
 30
0.0
 40
16.0
 50
78.091209931303581
 51
90.0
  0
ARC
  5
2543
  8
0
 10
415.5364580302703
 20
1008.499999999998
 30
0.0
 40
35.0
 50
76.754516248374472
 51
90.0
  0
ARC
  5
2544
  8
0
 10
284.46354196972931
 20
1008.499999999998
 30
0.0
 40
35.0
 50
90.0
 51
103.2454837516255
  0
ARC
  5
2545
  8
0
 10
285.16415992621211
 20
1008.712504593913
 30
0.0
 40
16.0
 50
90.0
 51
101.9087900686964
  0
LINE
  5
2546
  8
0
 10
275.375124737524
 20
1022.999999999999
 30
0.0
 11
281.8624911013826
 21
1024.368142012145
 31
0.0
  0
LINE
  5
2547
  8
0
 10
276.44421368969228
 20
1042.568906262703
 30
0.0
 11
193.3086679373919
 21
1022.999999999999
 31
0.0
  0
ARC
  5
2549
  8
0
 10
117.0
 20
1005.999999999999
 30
0.0
 40
17.0
 50
90.0
 51
270.0
  0
LINE
  5
254A
  8
0
 10
285.16415992621211
 20
1024.7125045939131
 30
0.0
 11
297.78672591848772
 21
1024.7125045939131
 31
0.0
  0
LINE
  5
254B
  8
0
 10
284.46354196972879
 20
1043.499999999998
 30
0.0
 11
306.06695476645842
 21
1043.4999999999991
 31
0.0
  0
LINE
  5
2550
  8
0
 10
415.53646342506761
 20
134.5
 30
0.0
 11
401.99999999999858
 21
134.49999999999949
 31
0.0
  0
ARC
  5
2552
  8
0
 10
583.00000539479652
 20
171.99999999999901
 30
0.0
 40
17.0
 50
270.0
 51
90.0
  0
LINE
  5
2553
  8
0
 10
423.55579170510413
 20
135.4310937372947
 30
0.0
 11
506.69133745740459
 21
154.99999999999861
 31
0.0
  0
ARC
  5
2556
  8
0
 10
415.53646342506721
 20
169.5
 30
0.0
 40
35.0
 50
270.0
 51
283.24548375162539
  0
ARC
  5
2557
  8
0
 10
284.46354736452611
 20
169.5
 30
0.0
 40
35.0
 50
256.7545162483745
 51
269.99999999999682
  0
ARC
  5
2558
  8
0
 10
285.16416532100851
 20
169.2874954060853
 30
0.0
 40
16.0
 50
258.09120993130352
 51
270.0
  0
LINE
  5
2559
  8
0
 10
117.0000053947964
 20
154.99999999999909
 30
0.0
 11
583.00000539479652
 21
154.99999999999909
 31
0.0
  0
LINE
  5
255A
  8
0
 10
275.37513013232041
 20
154.99999999999949
 30
0.0
 11
281.86249649617912
 21
153.63185798785341
 31
0.0
  0
LINE
  5
255B
  8
0
 10
276.44421908448879
 20
135.4310937372947
 30
0.0
 11
193.3086733321901
 21
154.99999999999861
 31
0.0
  0
ARC
  5
255C
  8
0
 10
117.0000053947964
 20
171.99999999999909
 30
0.0
 40
17.0
 50
90.0
 51
270.0
  0
ARC
  5
255D
  8
0
 10
401.99999999999858
 20
127.4999999999995
 30
0.0
 40
7.0
 50
90.0
 51
147.3776586117707
  0
ARC
  5
255E
  8
0
 10
298.00001078959428
 20
127.4999999999995
 30
0.0
 40
7.0
 50
32.62234138822928
 51
89.999999999996746
  0
ARC
  5
2560
  8
2
 10
363.49999237060541
 20
144.0
 30
0.0
 40
35.0
 50
338.6780138043523
 51
24.818013461615489
  0
LINE
  5
2561
  8
0
 10
390.99999999999858
 20
127.0
 30
0.0
 11
395.36403778125708
 21
129.51957838776249
 31
0.0
  0
LINE
  5
2562
  8
0
 10
390.99999999999858
 20
101.0
 30
0.0
 11
390.99999999999858
 21
126.9999999999995
 31
0.0
  0
ARC
  5
2563
  8
0
 10
297.7867455865744
 20
160.2874954060853
 30
0.0
 40
7.0
 50
269.99988317161058
 51
310.94347146481158
  0
LINE
  5
2564
  8
0
 10
285.16416532100851
 20
153.2874954060853
 30
0.0
 11
297.78673131328418
 21
153.2874954060853
 31
0.0
  0
LINE
  5
2565
  8
0
 10
284.46354736452531
 20
134.5
 30
0.0
 11
298.0000107895948
 21
134.49999999999949
 31
0.0
  0
LINE
  5
2566
  8
0
 10
304.6359730083372
 20
129.51957838776249
 30
0.0
 11
395.36403778125663
 21
129.51957838776249
 31
0.0
  0
ARC
  5
2567
  8
0
 10
310.00001078959428
 20
101.0
 30
0.0
 40
1.0
 50
180.0
 51
270.0
  0
ARC
  5
2568
  8
0
 10
390.00001078959161
 20
101.0
 30
0.0
 40
1.0
 50
270.0
 51
0.0
  0
LINE
  5
2569
  8
0
 10
309.0000107895944
 20
127.0
 30
0.0
 11
304.63597300833987
 21
129.5195783877607
 31
0.0
  0
LINE
  5
256B
  8
0
 10
309.0000107895944
 20
126.9999999999995
 30
0.0
 11
390.99999999999721
 21
126.9999999999991
 31
0.0
  0
LINE
  5
256C
  8
2
 10
307.00000539479691
 20
160.0
 30
0.0
 11
393.00000539479691
 21
159.99999999999949
 31
0.0
  0
LINE
  5
256D
  8
0
 10
309.0000107895944
 20
101.0
 30
0.0
 11
309.0000107895944
 21
126.9999999999995
 31
0.0
  0
LINE
  5
256E
  8
0
 10
117.0000053947964
 20
188.99999999999909
 30
0.0
 11
582.99999460520337
 21
188.99999999999909
 31
0.0
  0
LINE
  5
256F
  8
0
 10
310.00001078959428
 20
100.0
 30
0.0
 11
390.00001078959161
 21
100.0
 31
0.0
  0
LINE
  5
2570
  8
1
 10
75.00000539479646
 20
171.99999999999901
 30
0.0
 11
625.00000539479652
 21
171.99999999999909
 31
0.0
  0
LINE
  5
2571
  8
1
 10
350.00000539479652
 20
213.99999999999909
 30
0.0
 11
350.00000539479652
 21
74.999999999999986
 31
0.0
  0
LINE
  5
2572
  8
2
 10
307.00000539479652
 20
160.0
 30
0.0
 11
304.73242380628602
 21
158.69081115946389
 31
0.0
  0
LINE
  5
2573
  8
2
 10
393.0000053947964
 20
160.0
 30
0.0
 11
395.26758698330741
 21
158.69081115946389
 31
0.0
  0
POLYLINE
  5
26F9
  8
0
 66
     1
 10
0.0
 20
0.0
 30
0.0
 70
   128
  0
VERTEX
  5
2F0F
  8
0
 10
805.43778919460226
 20
590.03918564483536
 30
0.0
  0
VERTEX
  5
2F10
  8
0
 10
805.35844799249435
 20
589.00000345656451
 30
0.0
  0
VERTEX
  5
2F11
  8
0
 10
804.76977994499475
 20
587.18971593127151
 30
0.0
  0
VERTEX
  5
2F12
  8
0
 10
803.60585233624977
 20
585.67905559649842
 30
0.0
  0
VERTEX
  5
2F13
  8
0
 10
802.0672952377804
 20
584.6725062886311
 30
0.0
  0
VERTEX
  5
2F14
  8
0
 10
800.17830643633386
 20
584.14743973192276
 30
0.0
  0
VERTEX
  5
2F15
  8
0
 10
799.30371359828985
 20
584.09357587187094
 30
0.0
  0
SEQEND
  5
2F16
  8
0
  0
LINE
  5
26FA
  8
0
 10
799.3037140890292
 20
584.09357586978683
 30
0.0
 11
790.80323745375563
 21
584.09357586978683
 31
0.0
  0
POLYLINE
  5
26FB
  8
0
 66
     1
 10
0.0
 20
0.0
 30
0.0
 70
   128
  0
VERTEX
  5
2F17
  8
0
 10
790.80323753359914
 20
584.09357587228646
 30
0.0
  0
VERTEX
  5
2F18
  8
0
 10
788.58834725631868
 20
584.44901417875406
 30
0.0
  0
VERTEX
  5
2F19
  8
0
 10
786.62147870056424
 20
585.54313570623515
 30
0.0
  0
VERTEX
  5
2F1A
  8
0
 10
785.3343330542998
 20
587.12011448134376
 30
0.0
  0
VERTEX
  5
2F1B
  8
0
 10
784.71686737015125
 20
589.00000143144041
 30
0.0
  0
VERTEX
  5
2F1C
  8
0
 10
784.64644945313239
 20
589.96875485919361
 30
0.0
  0
SEQEND
  5
2F1D
  8
0
  0
POLYLINE
  5
26FC
  8
0
 66
     1
 10
0.0
 20
0.0
 30
0.0
 70
   128
  0
VERTEX
  5
2F1E
  8
0
 10
805.43778919478382
 20
635.43677774360708
 30
0.0
  0
VERTEX
  5
2F1F
  8
0
 10
805.1293898331154
 20
634.82170600916095
 30
0.0
  0
VERTEX
  5
2F20
  8
0
 10
804.15888388181395
 20
634.20700509305595
 30
0.0
  0
VERTEX
  5
2F21
  8
0
 10
802.7587709605109
 20
633.74858151122032
 30
0.0
  0
VERTEX
  5
2F22
  8
0
 10
801.01976688422428
 20
633.45929889070374
 30
0.0
  0
VERTEX
  5
2F23
  8
0
 10
799.30371359863636
 20
633.37343693815887
 30
0.0
  0
SEQEND
  5
2F24
  8
0
  0
LINE
  5
26FD
  8
0
 10
799.3037140890292
 20
633.37343693237779
 30
0.0
 11
796.97123039443977
 21
633.37343693237779
 31
0.0
  0
POLYLINE
  5
26FE
  8
0
 66
     1
 10
0.0
 20
0.0
 30
0.0
 70
   128
  0
VERTEX
  5
2F25
  8
0
 10
802.29236123653845
 20
626.82783836853775
 30
0.0
  0
VERTEX
  5
2F26
  8
0
 10
791.12243682084818
 20
640.56812091056725
 30
0.0
  0
VERTEX
  5
2F27
  8
0
 10
783.99999999999898
 20
649.26613260185854
 30
0.0
  0
SEQEND
  5
2F28
  8
0
  0
POLYLINE
  5
26FF
  8
0
 66
     1
 10
0.0
 20
0.0
 30
0.0
 70
   128
  0
VERTEX
  5
2F29
  8
0
 10
804.48539773215487
 20
621.14321492134229
 30
0.0
  0
VERTEX
  5
2F2A
  8
0
 10
804.2341703187144
 20
622.96614521919969
 30
0.0
  0
VERTEX
  5
2F2B
  8
0
 10
803.70745288853595
 20
624.51821469177628
 30
0.0
  0
VERTEX
  5
2F2C
  8
0
 10
802.29236123411056
 20
626.82783837154898
 30
0.0
  0
SEQEND
  5
2F2D
  8
0
  0
LINE
  5
2700
  8
0
 10
803.56890626199902
 20
599.36396849285916
 30
0.0
 11
783.99999999999898
 21
627.26809690701577
 31
0.0
  0
POLYLINE
  5
2701
  8
0
 66
     1
 10
0.0
 20
0.0
 30
0.0
 70
   128
  0
VERTEX
  5
2F2E
  8
0
 10
804.49999999983174
 20
596.94363547279568
 30
0.0
  0
VERTEX
  5
2F2F
  8
0
 10
804.26973685526616
 20
598.14742236562756
 30
0.0
  0
VERTEX
  5
2F30
  8
0
 10
803.56890626207542
 20
599.36396850179756
 30
0.0
  0
SEQEND
  5
2F31
  8
0
  0
LINE
  5
2702
  8
0
 10
804.49999999981947
 20
592.31729953856461
 30
0.0
 11
804.49999999983174
 21
596.94363546979798
 31
0.0
  0
POLYLINE
  5
2703
  8
0
 66
     1
 10
0.0
 20
0.0
 30
0.0
 70
   128
  0
VERTEX
  5
2F32
  8
0
 10
805.43779546387486
 20
590.03918687830014
 30
0.0
  0
VERTEX
  5
2F33
  8
0
 10
804.73804375676855
 20
591.18024557341573
 30
0.0
  0
VERTEX
  5
2F34
  8
0
 10
804.49999999999852
 20
592.31729965417094
 30
0.0
  0
SEQEND
  5
2F35
  8
0
  0
POLYLINE
  5
2705
  8
0
 66
     1
 10
0.0
 20
0.0
 30
0.0
 70
   128
  0
VERTEX
  5
2F36
  8
0
 10
784.6464842398882
 20
559.71436896102273
 30
0.0
  0
VERTEX
  5
2F37
  8
0
 10
784.94700005513857
 20
561.28913077480024
 30
0.0
  0
VERTEX
  5
2F38
  8
0
 10
785.89154536526212
 20
562.73340465176057
 30
0.0
  0
VERTEX
  5
2F39
  8
0
 10
787.26069266135573
 20
563.75987834258262
 30
0.0
  0
VERTEX
  5
2F3A
  8
0
 10
788.9881732725612
 20
564.40435603698666
 30
0.0
  0
VERTEX
  5
2F3B
  8
0
 10
790.80323753347011
 20
564.60805004376721
 30
0.0
  0
SEQEND
  5
2F3C
  8
0
  0
LINE
  5
2706
  8
0
 10
790.80323745375563
 20
564.60805006056728
 30
0.0
 11
799.3037140890292
 21
564.60805006056728
 31
0.0
  0
POLYLINE
  5
2707
  8
0
 66
     1
 10
0.0
 20
0.0
 30
0.0
 70
   128
  0
VERTEX
  5
2F3D
  8
0
 10
799.30371353706641
 20
564.60805004430836
 30
0.0
  0
VERTEX
  5
2F3E
  8
0
 10
801.48476722554585
 20
564.30457493084646
 30
0.0
  0
VERTEX
  5
2F3F
  8
0
 10
803.42238959955819
 20
563.38232834527821
 30
0.0
  0
VERTEX
  5
2F40
  8
0
 10
804.70863465120738
 20
562.07146709241874
 30
0.0
  0
VERTEX
  5
2F41
  8
0
 10
805.32678955974325
 20
560.64186050243518
 30
0.0
  0
VERTEX
  5
2F42
  8
0
 10
805.43778943233019
 20
559.65824616049088
 30
0.0
  0
SEQEND
  5
2F43
  8
0
  0
POLYLINE
  5
2708
  8
0
 66
     1
 10
0.0
 20
0.0
 30
0.0
 70
   128
  0
VERTEX
  5
2F44
  8
0
 10
804.49999999999852
 20
555.81368621279512
 30
0.0
  0
VERTEX
  5
2F45
  8
0
 10
804.73770518713218
 20
557.76167431748274
 30
0.0
  0
VERTEX
  5
2F46
  8
0
 10
805.43779559356915
 20
559.65825584326808
 30
0.0
  0
SEQEND
  5
2F47
  8
0
  0
LINE
  5
270A
  8
0
 10
783.99999999999898
 20
468.8121572843645
 30
0.0
 11
803.56890626199902
 21
537.8116923755781
 31
0.0
  0
POLYLINE
  5
270B
  8
0
 66
     1
 10
0.0
 20
0.0
 30
0.0
 70
   128
  0
VERTEX
  5
2F48
  8
0
 10
803.56890626225822
 20
537.81169239375254
 30
0.0
  0
VERTEX
  5
2F49
  8
0
 10
804.26973685665178
 20
541.07743573088533
 30
0.0
  0
VERTEX
  5
2F4A
  8
0
 10
804.49999999983584
 20
544.33612937279554
 30
0.0
  0
SEQEND
  5
2F4B
  8
0
  0
POLYLINE
  5
270C
  8
0
 66
     1
 10
0.0
 20
0.0
 30
0.0
 70
   128
  0
VERTEX
  5
2F4C
  8
0
 10
783.99999999999898
 20
456.23504527642598
 30
0.0
  0
VERTEX
  5
2F4D
  8
0
 10
788.25541032476713
 20
470.66024911458197
 30
0.0
  0
VERTEX
  5
2F4E
  8
0
 10
803.54793810089996
 20
522.84561809360468
 30
0.0
  0
SEQEND
  5
2F4F
  8
0
  0
POLYLINE
  5
270D
  8
0
 66
     1
 10
0.0
 20
0.0
 30
0.0
 70
   128
  0
VERTEX
  5
2F50
  8
0
 10
803.54793810090041
 20
522.84561809360594
 30
0.0
  0
VERTEX
  5
2F51
  8
0
 10
804.26973686188921
 20
526.26049044978322
 30
0.0
  0
VERTEX
  5
2F52
  8
0
 10
804.49999999983584
 20
529.58539938179524
 30
0.0
  0
SEQEND
  5
2F53
  8
0
  0
LINE
  5
270E
  8
0
 10
804.49999999983584
 20
555.813686211461
 30
0.0
 11
804.49999999983584
 21
529.58539938828631
 31
0.0
  0
ARC
  5
270F
  8
0
 10
794.99999999999909
 20
602.4999869758077
 30
0.0
 40
35.0
 50
65.560866893475506
 51
68.678013804351323
  0
ARC
  5
2710
  8
2
 10
794.99999999999909
 20
575.50001302419003
 30
0.0
 40
35.0
 50
245.18198653838459
 51
291.32198619564872
  0
ARC
  5
2711
  8
0
 10
794.99999999999909
 20
575.50001302419014
 30
0.0
 40
35.0
 50
291.32198619564872
 51
294.43913310652448
  0
POLYLINE
  5
2712
  8
0
 66
     1
 10
0.0
 20
0.0
 30
0.0
 70
   128
  0
VERTEX
  5
2F54
  8
0
 10
365.97221336614518
 20
133.5622108053135
 30
0.0
  0
VERTEX
  5
2F55
  8
0
 10
364.07476080456712
 20
133.87061017047111
 30
0.0
  0
VERTEX
  5
2F56
  8
0
 10
362.36053969785689
 20
134.84111612230799
 30
0.0
  0
VERTEX
  5
2F57
  8
0
 10
361.17125198706071
 20
136.24122904413341
 30
0.0
  0
VERTEX
  5
2F58
  8
0
 10
360.45301769773408
 20
137.98023312204441
 30
0.0
  0
VERTEX
  5
2F59
  8
0
 10
360.2441553672424
 20
139.6962864017091
 30
0.0
  0
SEQEND
  5
2F5A
  8
0
  0
LINE
  5
2713
  8
0
 10
360.24415538581559
 20
139.69628591096989
 30
0.0
 11
360.24415538581559
 21
148.19676254624341
 31
0.0
  0
POLYLINE
  5
2714
  8
0
 66
     1
 10
0.0
 20
0.0
 30
0.0
 70
   128
  0
VERTEX
  5
2F5B
  8
0
 10
360.24415536739377
 20
148.1967624663998
 30
0.0
  0
VERTEX
  5
2F5C
  8
0
 10
360.59295757868631
 20
150.41165274090281
 30
0.0
  0
VERTEX
  5
2F5D
  8
0
 10
361.66153846984611
 20
152.3785212951415
 30
0.0
  0
VERTEX
  5
2F5E
  8
0
 10
363.1881896717386
 20
153.66566694430909
 30
0.0
  0
VERTEX
  5
2F5F
  8
0
 10
364.84582480539927
 20
154.25915210987071
 30
0.0
  0
VERTEX
  5
2F60
  8
0
 10
365.90568014412878
 20
154.35355054726961
 30
0.0
  0
SEQEND
  5
2F61
  8
0
  0
LINE
  5
2715
  8
0
 10
433.30522269957271
 20
155.0
 30
0.0
 11
382.35995194783879
 21
135.4310937380001
 31
0.0
  0
POLYLINE
  5
2716
  8
0
 66
     1
 10
0.0
 20
0.0
 30
0.0
 70
   128
  0
VERTEX
  5
2F62
  8
0
 10
382.3599519391409
 20
135.43109373783909
 30
0.0
  0
VERTEX
  5
2F63
  8
0
 10
380.00347288025557
 20
134.73026313810979
 30
0.0
  0
VERTEX
  5
2F64
  8
0
 10
377.65740805512399
 20
134.5000000001632
 30
0.0
  0
SEQEND
  5
2F65
  8
0
  0
LINE
  5
2717
  8
0
 10
377.65740805590571
 20
134.5000000001632
 30
0.0
 11
369.19109060444271
 21
134.5000000000004
 31
0.0
  0
POLYLINE
  5
2718
  8
0
 66
     1
 10
0.0
 20
0.0
 30
0.0
 70
   128
  0
VERTEX
  5
2F66
  8
0
 10
365.97220588768317
 20
133.56220453612471
 30
0.0
  0
VERTEX
  5
2F67
  8
0
 10
367.56845639168517
 20
134.26195624323009
 30
0.0
  0
VERTEX
  5
2F68
  8
0
 10
369.19109076340692
 20
134.5000000000004
 30
0.0
  0
SEQEND
  5
2F69
  8
0
  0
POLYLINE
  5
2719
  8
0
 66
     1
 10
0.0
 20
0.0
 30
0.0
 70
   128
  0
VERTEX
  5
2F6A
  8
0
 10
404.42284303874243
 20
135.83191427654671
 30
0.0
  0
VERTEX
  5
2F6B
  8
0
 10
431.66633986994742
 20
146.9834983683017
 30
0.0
  0
VERTEX
  5
2F6C
  8
0
 10
451.10526915593431
 20
155.0
 30
0.0
  0
SEQEND
  5
2F6D
  8
0
  0
POLYLINE
  5
271A
  8
0
 66
     1
 10
0.0
 20
0.0
 30
0.0
 70
   128
  0
VERTEX
  5
2F6E
  8
0
 10
400.53586291517502
 20
134.77031973831569
 30
0.0
  0
VERTEX
  5
2F6F
  8
0
 10
401.55858195701637
 20
134.90380847605451
 30
0.0
  0
VERTEX
  5
2F70
  8
0
 10
404.4228430412162
 20
135.8319142777145
 30
0.0
  0
SEQEND
  5
2F71
  8
0
  0
ARC
  5
271B
  8
0
 10
363.4999923706049
 20
144.0
 30
0.0
 40
35.0
 50
335.56086689347501
 51
338.67801380435009
  0
ARC
  5
271C
  8
2
 10
336.50001841898751
 20
144.0
 30
0.0
 40
35.0
 50
155.18198653838411
 51
201.32198619564781
  0
ARC
  5
271D
  8
0
 10
336.50001841898802
 20
144.0
 30
0.0
 40
35.0
 50
201.32198619564991
 51
204.43913310652499
  0
POLYLINE
  5
271E
  8
0
 66
     1
 10
0.0
 20
0.0
 30
0.0
 70
   128
  0
VERTEX
  5
2F72
  8
0
 10
334.0278049019098
 20
133.56220453612471
 30
0.0
  0
VERTEX
  5
2F73
  8
0
 10
332.4315543979078
 20
134.26195624323009
 30
0.0
  0
VERTEX
  5
2F74
  8
0
 10
330.80892002618612
 20
134.5000000000004
 30
0.0
  0
SEQEND
  5
2F75
  8
0
  0
LINE
  5
271F
  8
0
 10
322.34260273368722
 20
134.5000000001632
 30
0.0
 11
330.80892018515033
 21
134.5000000000004
 31
0.0
  0
POLYLINE
  5
2720
  8
0
 66
     1
 10
0.0
 20
0.0
 30
0.0
 70
   128
  0
VERTEX
  5
2F76
  8
0
 10
317.64005885045202
 20
135.43109373783909
 30
0.0
  0
VERTEX
  5
2F77
  8
0
 10
319.99653790933729
 20
134.73026313810979
 30
0.0
  0
VERTEX
  5
2F78
  8
0
 10
322.34260273446893
 20
134.5000000001632
 30
0.0
  0
SEQEND
  5
2F79
  8
0
  0
LINE
  5
2721
  8
0
 10
266.69478809002021
 20
155.0
 30
0.0
 11
317.64005884175413
 21
135.4310937380001
 31
0.0
  0
POLYLINE
  5
2722
  8
0
 66
     1
 10
0.0
 20
0.0
 30
0.0
 70
   128
  0
VERTEX
  5
2F7A
  8
0
 10
339.75585542219909
 20
148.1967624663998
 30
0.0
  0
VERTEX
  5
2F7B
  8
0
 10
339.40705321090672
 20
150.41165274090281
 30
0.0
  0
VERTEX
  5
2F7C
  8
0
 10
338.33847231974681
 20
152.3785212951415
 30
0.0
  0
VERTEX
  5
2F7D
  8
0
 10
336.81182111785432
 20
153.66566694430909
 30
0.0
  0
VERTEX
  5
2F7E
  8
0
 10
335.15418598419359
 20
154.25915210987071
 30
0.0
  0
VERTEX
  5
2F7F
  8
0
 10
334.09433064546408
 20
154.35355054726961
 30
0.0
  0
SEQEND
  5
2F80
  8
0
  0
LINE
  5
2723
  8
0
 10
339.75585540377728
 20
139.69628591096989
 30
0.0
 11
339.75585540377728
 21
148.19676254624341
 31
0.0
  0
POLYLINE
  5
2724
  8
0
 66
     1
 10
0.0
 20
0.0
 30
0.0
 70
   128
  0
VERTEX
  5
2F81
  8
0
 10
334.02779742344768
 20
133.5622108053135
 30
0.0
  0
VERTEX
  5
2F82
  8
0
 10
335.9252499850258
 20
133.87061017047111
 30
0.0
  0
VERTEX
  5
2F83
  8
0
 10
337.63947109173608
 20
134.84111612230799
 30
0.0
  0
VERTEX
  5
2F84
  8
0
 10
338.82875880253232
 20
136.24122904413341
 30
0.0
  0
VERTEX
  5
2F85
  8
0
 10
339.54699309185878
 20
137.98023312204441
 30
0.0
  0
VERTEX
  5
2F86
  8
0
 10
339.75585542235052
 20
139.6962864017091
 30
0.0
  0
SEQEND
  5
2F87
  8
0
  0
POLYLINE
  5
2725
  8
0
 66
     1
 10
0.0
 20
0.0
 30
0.0
 70
   128
  0
VERTEX
  5
2F88
  8
0
 10
295.57716775085049
 20
135.83191427654671
 30
0.0
  0
VERTEX
  5
2F89
  8
0
 10
268.3336709196455
 20
146.9834983683017
 30
0.0
  0
VERTEX
  5
2F8A
  8
0
 10
248.89474163365861
 20
155.0
 30
0.0
  0
SEQEND
  5
2F8B
  8
0
  0
POLYLINE
  5
2726
  8
0
 66
     1
 10
0.0
 20
0.0
 30
0.0
 70
   128
  0
VERTEX
  5
2F8C
  8
0
 10
299.4641478744179
 20
134.77031973831569
 30
0.0
  0
VERTEX
  5
2F8D
  8
0
 10
298.44142883257649
 20
134.90380847605451
 30
0.0
  0
VERTEX
  5
2F8E
  8
0
 10
295.57716774837672
 20
135.8319142777145
 30
0.0
  0
SEQEND
  5
2F8F
  8
0
  0
LINE
  5
2727
  8
0
 10
330.92832346579331
 20
1037.513091251978
 30
0.0
 11
332.41333257076172
 21
1022.999999999998
 31
0.0
  0
ARC
  5
2728
  8
0
 10
337.4532158897955
 20
1036.95093604
 30
0.0
 40
6.5490640268028306
 50
90.008191484126897
 51
175.0758145181606
  0
LINE
  5
2729
  8
0
 10
369.0716764787548
 20
1037.5130912508989
 30
0.0
 11
367.58666737387381
 21
1022.999999999998
 31
0.0
  0
ARC
  5
272A
  8
0
 10
362.54678405475528
 20
1036.95093604
 30
0.0
 40
6.549064026706497
 50
4.9241854724403202
 51
89.991808514850447
  0
POLYLINE
  5
272B
  8
0
 66
     1
 10
0.0
 20
0.0
 30
0.0
 70
   128
  0
VERTEX
  5
2F90
  8
0
 10
313.84789380866459
 20
1029.8032375290661
 30
0.0
  0
VERTEX
  5
2F91
  8
0
 10
313.61080159778521
 20
1027.5883472542009
 30
0.0
  0
VERTEX
  5
2F92
  8
0
 10
312.89436331396701
 20
1025.621478700645
 30
0.0
  0
VERTEX
  5
2F93
  8
0
 10
311.897130458211
 20
1024.3343330509031
 30
0.0
  0
VERTEX
  5
2F94
  8
0
 10
310.85027141888531
 20
1023.7408478885091
 30
0.0
  0
VERTEX
  5
2F95
  8
0
 10
310.20108405521302
 20
1023.6464494525
 30
0.0
  0
SEQEND
  5
2F96
  8
0
  0
LINE
  5
272C
  8
0
 10
313.84789380832808
 20
1029.8032374310969
 30
0.0
 11
313.84789380832808
 21
1038.3037140743979
 31
0.0
  0
POLYLINE
  5
272D
  8
0
 66
     1
 10
0.0
 20
0.0
 30
0.0
 70
   128
  0
VERTEX
  5
2F97
  8
0
 10
310.16086549439569
 20
1044.4377891948061
 30
0.0
  0
VERTEX
  5
2F98
  8
0
 10
311.33250365397538
 20
1044.12938983288
 30
0.0
  0
VERTEX
  5
2F99
  8
0
 10
312.43388421058262
 20
1043.1588838828541
 30
0.0
  0
VERTEX
  5
2F9A
  8
0
 10
313.22121592377152
 20
1041.758770960095
 30
0.0
  0
VERTEX
  5
2F9B
  8
0
 10
313.70573313610288
 20
1040.0197668903361
 30
0.0
  0
VERTEX
  5
2F9C
  8
0
 10
313.84789380880011
 20
1038.3037135953621
 30
0.0
  0
SEQEND
  5
2F9D
  8
0
  0
POLYLINE
  5
272E
  8
0
 66
     1
 10
0.0
 20
0.0
 30
0.0
 70
   128
  0
VERTEX
  5
2F9E
  8
0
 10
310.16087677741513
 20
1044.437795463874
 30
0.0
  0
VERTEX
  5
2F9F
  8
0
 10
308.15226131817599
 20
1043.7380437567681
 30
0.0
  0
VERTEX
  5
2FA0
  8
0
 10
306.066954766452
 20
1043.499999999998
 30
0.0
  0
SEQEND
  5
2FA1
  8
0
  0
POLYLINE
  5
273B
  8
0
 66
     1
 10
0.0
 20
0.0
 30
0.0
 70
   128
  0
VERTEX
  5
2FA2
  8
0
 10
389.83913450560522
 20
1044.4377891948061
 30
0.0
  0
VERTEX
  5
2FA3
  8
0
 10
388.66749634602451
 20
1044.12938983288
 30
0.0
  0
VERTEX
  5
2FA4
  8
0
 10
387.56611578941829
 20
1043.1588838828541
 30
0.0
  0
VERTEX
  5
2FA5
  8
0
 10
386.77878407622848
 20
1041.758770960095
 30
0.0
  0
VERTEX
  5
2FA6
  8
0
 10
386.29426686389797
 20
1040.0197668903361
 30
0.0
  0
VERTEX
  5
2FA7
  8
0
 10
386.15210619119989
 20
1038.3037135953621
 30
0.0
  0
SEQEND
  5
2FA8
  8
0
  0
LINE
  5
273C
  8
0
 10
386.15210619167277
 20
1029.8032374310969
 30
0.0
 11
386.15210619167277
 21
1038.3037140743979
 31
0.0
  0
POLYLINE
  5
273D
  8
0
 66
     1
 10
0.0
 20
0.0
 30
0.0
 70
   128
  0
VERTEX
  5
2FA9
  8
0
 10
386.15210619133632
 20
1029.8032375290661
 30
0.0
  0
VERTEX
  5
2FAA
  8
0
 10
386.38919840221479
 20
1027.5883472542009
 30
0.0
  0
VERTEX
  5
2FAB
  8
0
 10
387.1056366860339
 20
1025.621478700645
 30
0.0
  0
VERTEX
  5
2FAC
  8
0
 10
388.10286954178991
 20
1024.3343330509031
 30
0.0
  0
VERTEX
  5
2FAD
  8
0
 10
389.14972858111469
 20
1023.7408478885091
 30
0.0
  0
VERTEX
  5
2FAE
  8
0
 10
389.79891594478801
 20
1023.6464494525
 30
0.0
  0
SEQEND
  5
2FAF
  8
0
  0
POLYLINE
  5
273E
  8
0
 66
     1
 10
0.0
 20
0.0
 30
0.0
 70
   128
  0
VERTEX
  5
2FB0
  8
0
 10
389.8391232225859
 20
1044.437795463874
 30
0.0
  0
VERTEX
  5
2FB1
  8
0
 10
391.84773868182492
 20
1043.7380437567681
 30
0.0
  0
VERTEX
  5
2FB2
  8
0
 10
393.93304523354891
 20
1043.499999999998
 30
0.0
  0
SEQEND
  5
2FB3
  8
0
  0
ARC
  5
2C8B
  8
0
 10
336.50001302419099
 20
1033.999999999998
 30
0.0
 40
35.0
 50
155.56086689347629
 51
158.67801380434651
  0
ARC
  5
2C8C
  8
0
 10
363.49998697580872
 20
1033.999999999998
 30
0.0
 40
35.0
 50
21.321986195653452
 51
24.439133106523659
  0
ARC
  5
2C92
  8
2
 10
363.4999869758085
 20
1033.999999999998
 30
0.0
 40
35.0
 50
335.18198653838408
 51
21.321986195645579
  0
ARC
  5
2C93
  8
2
 10
336.50001302419059
 20
1033.999999999998
 30
0.0
 40
35.0
 50
158.67801380435441
 51
204.81801346161589
  0
LINE
  5
2CA2
  8
1
 10
725.0
 20
809.99999999999898
 30
0.0
 11
808.99999999999989
 21
809.99999999999898
 31
0.0
  0
LINE
  5
2CA3
  8
1
 10
383.91749460520327
 20
809.99999999999898
 30
0.0
 11
316.08250539479673
 21
809.99999999999898
 31
0.0
  0
TEXT
  5
2DAB
  8
0
 62
     3
 10
0.0
 20
0.0
 30
0.0
 40
10.0
  1
NV500
  7
STANDARD1
  0
LINE
  5
2E25
  8
2
 10
750.41749999999956
 20
818.24999460520235
 30
0.0
 11
750.41749999999956
 21
801.74999460520235
 31
0.0
  0
LINE
  5
2E26
  8
2
 10
752.18318542494876
 20
816.73430918025315
 30
0.0
 11
750.0
 21
818.91749460520225
 31
0.0
  0
LINE
  5
2E27
  8
2
 10
750.66749999999956
 20
818.24999460520235
 30
0.0
 11
750.41749999999956
 21
818.24999460520235
 31
0.0
  0
ARC
  5
2E28
  8
2
 10
755.11749999999972
 20
802.69999460520239
 30
0.0
 40
0.8
 50
0.0
 51
90.0
  0
LINE
  5
2E2A
  8
2
 10
755.91749999999968
 20
817.99999460520223
 30
0.0
 11
755.91749999999968
 21
801.99999460520223
 31
0.0
  0
LINE
  5
2E2B
  8
2
 10
762.41749999999956
 20
803.99999460520235
 30
0.0
 11
760.41749999999968
 21
801.99999460520223
 31
0.0
  0
LINE
  5
2E2C
  8
2
 10
752.18318542494899
 20
803.26568003015154
 30
0.0
 11
750.0
 21
801.08249460520267
 31
0.0
  0
LINE
  5
2E2D
  8
2
 10
784.0
 20
801.99999460520223
 30
0.0
 11
750.91749999999968
 21
801.99999460520223
 31
0.0
  0
LINE
  5
2E2E
  8
2
 10
750.66749999999956
 20
801.74999460520235
 30
0.0
 11
750.41749999999956
 21
801.74999460520235
 31
0.0
  0
LINE
  5
2E31
  8
2
 10
784.0
 20
803.08249460520233
 30
0.0
 11
751.99999999999955
 21
803.08249460520233
 31
0.0
  0
LINE
  5
2E32
  8
2
 10
784.0
 20
816.91749460520236
 30
0.0
 11
751.99999999999955
 21
816.91749460520236
 31
0.0
  0
LINE
  5
2E33
  8
2
 10
784.0
 20
817.99999460520257
 30
0.0
 11
750.9174999999999
 21
817.99999460520223
 31
0.0
  0
LINE
  5
2E34
  8
2
 10
752.41749999999956
 20
804.14999460520244
 30
0.0
 11
752.41749999999956
 21
815.84999460520226
 31
0.0
  0
LINE
  5
2E35
  8
2
 10
755.11749999999972
 20
803.49999460520235
 30
0.0
 11
752.74887084989814
 21
803.49999460520235
 31
0.0
  0
ARC
  5
2E36
  8
2
 10
752.74887084989814
 20
802.69999460520239
 30
0.0
 40
0.8
 50
90.0
 51
135.0
  0
LINE
  5
2E37
  8
2
 10
755.11749999999972
 20
816.49999460520235
 30
0.0
 11
752.74887084989814
 21
816.49999460520235
 31
0.0
  0
ARC
  5
2E38
  8
2
 10
752.74887084989814
 20
817.29999460520253
 30
0.0
 40
0.8
 50
225.0
 51
270.0
  0
ARC
  5
2E39
  8
2
 10
755.11749999999972
 20
817.29999460520253
 30
0.0
 40
0.8
 50
270.0
 51
0.0
  0
LINE
  5
2E3B
  8
2
 10
762.41749999999956
 20
815.99999460520235
 30
0.0
 11
762.41749999999956
 21
803.99999460520235
 31
0.0
  0
LINE
  5
2E40
  8
2
 10
760.41749999999968
 20
817.99999460520223
 30
0.0
 11
762.41749999999956
 21
815.99999460520235
 31
0.0
  0
LINE
  5
2E4F
  8
2
 10
781.79251833360183
 20
801.99999460520223
 30
0.0
 11
782.41749999999945
 21
803.0824946052021
 31
0.0
  0
LINE
  5
2E50
  8
2
 10
781.79251833360172
 20
817.99999460520223
 30
0.0
 11
782.41749999999945
 21
816.91749460520236
 31
0.0
  0
LINE
  5
2E51
  8
2
 10
782.41749999999945
 20
816.91749460520236
 30
0.0
 11
782.41749999999956
 21
803.08249460520233
 31
0.0
  0
LINE
  5
2E53
  8
2
 10
764.41749999999968
 20
801.99999460520223
 30
0.0
 11
764.41749999999968
 21
817.99999460520223
 31
0.0
  0
LINE
  5
2E56
  8
2
 10
762.41749999999956
 20
803.99999460520235
 30
0.0
 11
764.41749999999968
 21
801.99999460520223
 31
0.0
  0
LINE
  5
2E59
  8
2
 10
764.41749999999968
 20
817.99999460520223
 30
0.0
 11
762.41749999999956
 21
815.99999460520235
 31
0.0
  0
CIRCLE
  5
2E67
  8
0
 10
350.0
 20
809.99999999999898
 30
0.0
 40
8.2499946052034812
  0
CIRCLE
  5
2E68
  8
0
 10
350.0
 20
809.99999999999898
 30
0.0
 40
8.9174946052032737
  0
ENDSEC
  0
EOF
