  0
SECTION
  2
HEADER
  9
$ACADVER
  1
AC1009
  9
$INSBASE
 10
0.0
 20
0.0
 30
0.0
  9
$EXTMIN
 10
0.0
 20
-2.960436562073669
 30
0.0
  9
$EXTMAX
 10
234.36445305363529
 20
198.48908596486081
 30
0.0
  9
$LIMMIN
 10
0.0
 20
0.0
  9
$LIMMAX
 10
375.0
 20
270.0
  9
$ORTHOMODE
 70
     1
  9
$REGENMODE
 70
     1
  9
$FILLMODE
 70
     1
  9
$QTEXTMODE
 70
     0
  9
$MIRRTEXT
 70
     0
  9
$DRAGMODE
 70
     2
  9
$LTSCALE
 40
5.0
  9
$OSMODE
 70
  3071
  9
$ATTMODE
 70
     1
  9
$TEXTSIZE
 40
0.2
  9
$TRACEWID
 40
0.05
  9
$TEXTSTYLE
  7
STANDARD
  9
$CLAYER
  8
0
  9
$CELTYPE
  6
BYLAYER
  9
$CECOLOR
 62
   256
  9
$DIMSCALE
 40
1.0
  9
$DIMASZ
 40
3.0
  9
$DIMEXO
 40
2.0
  9
$DIMDLI
 40
0.38
  9
$DIMRND
 40
0.0
  9
$DIMDLE
 40
0.0
  9
$DIMEXE
 40
2.0
  9
$DIMTP
 40
0.0
  9
$DIMTM
 40
0.0
  9
$DIMTXT
 40
3.2000000000000002
  9
$DIMCEN
 40
0.0
  9
$DIMTSZ
 40
0.0
  9
$DIMTOL
 70
     0
  9
$DIMLIM
 70
     0
  9
$DIMTIH
 70
     0
  9
$DIMTOH
 70
     0
  9
$DIMSE1
 70
     0
  9
$DIMSE2
 70
     0
  9
$DIMTAD
 70
     1
  9
$DIMZIN
 70
     0
  9
$DIMBLK
  1

  9
$DIMASO
 70
     1
  9
$DIMSHO
 70
     0
  9
$DIMPOST
  1

  9
$DIMAPOST
  1

  9
$DIMALT
 70
     0
  9
$DIMALTD
 70
     2
  9
$DIMALTF
 40
25.399999999999999
  9
$DIMLFAC
 40
1.0
  9
$DIMTOFL
 70
     0
  9
$DIMTVP
 40
1.6000000000000001
  9
$DIMTIX
 70
     1
  9
$DIMSOXD
 70
     0
  9
$DIMSAH
 70
     0
  9
$DIMBLK1
  1

  9
$DIMBLK2
  1

  9
$DIMSTYLE
  2
STANDARD
  9
$DIMCLRD
 70
     0
  9
$DIMCLRE
 70
     0
  9
$DIMCLRT
 70
     0
  9
$DIMTFAC
 40
1.0
  9
$DIMGAP
 40
0.09
  9
$LUNITS
 70
     2
  9
$LUPREC
 70
     4
  9
$SKETCHINC
 40
0.1
  9
$FILLETRAD
 40
2.0
  9
$AUNITS
 70
     0
  9
$AUPREC
 70
     0
  9
$MENU
  1
E:\r13\win\SUPPORT\ACAD
  9
$ELEVATION
 40
0.0
  9
$PELEVATION
 40
0.0
  9
$THICKNESS
 40
0.0
  9
$LIMCHECK
 70
     0
  9
$BLIPMODE
 70
     0
  9
$CHAMFERA
 40
0.0
  9
$CHAMFERB
 40
0.0
  9
$SKPOLY
 70
     0
  9
$TDCREATE
 40
2449840.607708334
  9
$TDUPDATE
 40
2456597.50179066
  9
$TDINDWG
 40
0.017820081
  9
$TDUSRTIMER
 40
0.017820081
  9
$USRTIMER
 70
     1
  9
$ANGBASE
 50
0.0
  9
$ANGDIR
 70
     0
  9
$PDMODE
 70
     0
  9
$PDSIZE
 40
0.0
  9
$PLINEWID
 40
0.0
  9
$COORDS
 70
     1
  9
$SPLFRAME
 70
     0
  9
$SPLINETYPE
 70
     6
  9
$SPLINESEGS
 70
     8
  9
$ATTDIA
 70
     0
  9
$ATTREQ
 70
     1
  9
$HANDLING
 70
     1
  9
$HANDSEED
  5
84A
  9
$SURFTAB1
 70
     6
  9
$SURFTAB2
 70
     6
  9
$SURFTYPE
 70
     6
  9
$SURFU
 70
     6
  9
$SURFV
 70
     6
  9
$UCSNAME
  2

  9
$UCSORG
 10
0.0
 20
0.0
 30
0.0
  9
$UCSXDIR
 10
1.0
 20
0.0
 30
0.0
  9
$UCSYDIR
 10
0.0
 20
1.0
 30
0.0
  9
$PUCSNAME
  2

  9
$PUCSORG
 10
0.0
 20
0.0
 30
0.0
  9
$PUCSXDIR
 10
1.0
 20
0.0
 30
0.0
  9
$PUCSYDIR
 10
0.0
 20
1.0
 30
0.0
  9
$USERI1
 70
     0
  9
$USERI2
 70
     1
  9
$USERI3
 70
     1
  9
$USERI4
 70
     0
  9
$USERI5
 70
     0
  9
$USERR1
 40
0.0
  9
$USERR2
 40
0.0
  9
$USERR3
 40
0.0
  9
$USERR4
 40
0.0
  9
$USERR5
 40
0.0
  9
$WORLDVIEW
 70
     1
  9
$SHADEDGE
 70
     3
  9
$SHADEDIF
 70
    70
  9
$TILEMODE
 70
     1
  9
$MAXACTVP
 70
    16
  9
$PLIMCHECK
 70
     0
  9
$PEXTMIN
 10
1.0000000000000000E+020
 20
1.0000000000000000E+020
 30
1.0000000000000000E+020
  9
$PEXTMAX
 10
-1.0000000000000000E+020
 20
-1.0000000000000000E+020
 30
-1.0000000000000000E+020
  9
$PLIMMIN
 10
0.0
 20
0.0
  9
$PLIMMAX
 10
12.0
 20
9.0
  9
$UNITMODE
 70
     0
  9
$VISRETAIN
 70
     0
  9
$PLINEGEN
 70
     0
  9
$PSLTSCALE
 70
     0
  0
ENDSEC
  0
SECTION
  2
TABLES
  0
TABLE
  2
VPORT
 70
     1
  0
VPORT
  2
*ACTIVE
 70
     0
 10
0.0
 20
0.0
 11
1.0
 21
1.0
 12
187.49427839065231
 22
162.8616388594717
 13
0.0
 23
0.0
 14
10.0
 24
10.0
 15
10.0
 25
10.0
 16
0.0
 26
0.0
 36
1.0
 17
0.0
 27
0.0
 37
0.0
 40
334.81001162774987
 41
1.9089595375722539
 42
50.0
 43
0.0
 44
0.0
 50
0.0
 51
0.0
 71
     0
 72
   500
 73
     1
 74
     0
 75
     0
 76
     0
 77
     0
 78
     0
  0
ENDTAB
  0
TABLE
  2
LTYPE
 70
     4
  0
LTYPE
  2
CONTINUOUS
 70
     0
  3
Solid Line
 72
    65
 73
     0
 40
0.0
  0
LTYPE
  2
CENTER
 70
     0
  3
____ _ ____ _ ____ _ ____ _ ____ _ ____ _ ____
 72
    65
 73
     4
 40
2.0
 49
1.25
 49
-0.25
 49
0.25
 49
-0.25
  0
LTYPE
  2
HIDDEN
 70
     0
  3
_ _ _ _ _ _ _ _ _ _ _ _ _ _ _ _ _ _ _ _ _ _ _
 72
    65
 73
     2
 40
0.375
 49
0.25
 49
-0.125
  0
LTYPE
  2
PHANTOM2
 70
     0
  3
___ _ _ ___ _ _ ___ _ _ ___ _ _
 72
    65
 73
     6
 40
1.25
 49
0.625
 49
-0.125
 49
0.125
 49
-0.125
 49
0.125
 49
-0.125
  0
ENDTAB
  0
TABLE
  2
LAYER
 70
     5
  0
LAYER
  2
0
 70
     0
 62
     7
  6
CONTINUOUS
  0
LAYER
  2
1
 70
     0
 62
     1
  6
CENTER
  0
LAYER
  2
2
 70
     0
 62
     2
  6
HIDDEN
  0
LAYER
  2
3
 70
     0
 62
     3
  6
CONTINUOUS
  0
LAYER
  2
DEFPOINTS
 70
     0
 62
     7
  6
CONTINUOUS
  0
ENDTAB
  0
TABLE
  2
STYLE
 70
     2
  0
STYLE
  2
STANDARD
 70
     0
 40
0.0
 41
1.0
 50
0.0
 71
     0
 42
0.2
  3
simplex.shx
  4
bigfont.shx
  0
STYLE
  2
STANDARD1
 70
     0
 40
0.0
 41
1.0
 50
0.0
 71
     0
 42
3.0
  3
txt
  4

  0
ENDTAB
  0
TABLE
  2
VIEW
 70
     1
  0
VIEW
  2
ALL
 70
     0
 40
270.0
 10
220.99159663865549
 20
135.0
 41
0.0
 11
0.0
 21
0.0
 31
1.0
 12
0.0
 22
0.0
 32
0.0
 42
0.0
 43
0.0
 44
0.0
 50
0.0
 71
     0
  0
ENDTAB
  0
TABLE
  2
UCS
 70
     0
  0
ENDTAB
  0
TABLE
  2
APPID
 70
    28
  0
APPID
  2
ACAD
 70
     0
  0
APPID
  2
DCO15
 70
     0
  0
APPID
  2
GENIUS_GENOREF_13
 70
     0
  0
APPID
  2
GENIUS_GENOENT_13
 70
     0
  0
APPID
  2
GENIUS_GENBH_13
 70
     0
  0
APPID
  2
GENIUS_GENOBJ_13
 70
     0
  0
APPID
  2
GENIUS_GENODEF_13
 70
     0
  0
APPID
  2
GENIUS_GENOLIS_13
 70
     0
  0
APPID
  2
GENIUS_GENOBJ-NBEHI-BHF_13
 70
     0
  0
APPID
  2
GENIUS_GENOBJ-NBEHI-BHB_13
 70
     0
  0
APPID
  2
GENIUS_GENOBJ-F-PART_13
 70
     0
  0
APPID
  2
GENIUS_GEFSTDP_13
 70
     0
  0
APPID
  2
GENIUS_GENOBJ-N-RSSYM_13
 70
     0
  0
APPID
  2
GENIUS_GENSYMENT_13
 70
     0
  0
APPID
  2
GENIUS_GENOBJ-N-TIT_13
 70
     0
  0
APPID
  2
GENIUS_GENTITLE_13
 70
     0
  0
APPID
  2
GENIUS_GENZVEED_13
 70
     0
  0
APPID
  2
GENIUS_GENOBJ-N-LEADER_13
 70
     0
  0
APPID
  2
GENIUS_GENOBJ-N-FIL_13
 70
     0
  0
APPID
  2
GENIUS_GENOBJ-N-SEC_13
 70
     0
  0
APPID
  2
GENIUS_GENOBJ-N-CRS_13
 70
     0
  0
APPID
  2
GENIUS_GENOBJ-N-ZOO_13
 70
     0
  0
APPID
  2
GENIUS_GENZOO_13
 70
     0
  0
APPID
  2
GENIUS_GENOBJ-F-TOL_13
 70
     0
  0
APPID
  2
GENIUS_GENFIL_13
 70
     0
  0
APPID
  2
GENIUS_GENOBJ-N-CHA_13
 70
     0
  0
APPID
  2
ACAD_MLEADERVER
 70
     0
  0
APPID
  2
ACAD_NAV_VCDISPLAY
 70
     0
  0
ENDTAB
  0
TABLE
  2
DIMSTYLE
 70
     1
  0
DIMSTYLE
  2
STANDARD
 70
     0
  3

  4

  5

  6

  7

 40
1.0
 41
0.18
 42
0.0625
 43
0.38
 44
0.18
 45
0.0
 46
0.0
 47
0.0
 48
0.0
140
0.18
141
0.09
142
0.0
143
25.399999999999999
144
1.0
145
0.0
146
1.0
147
0.09
 71
     0
 72
     0
 73
     1
 74
     1
 75
     0
 76
     0
 77
     0
 78
     0
170
     0
171
     2
172
     0
173
     0
174
     0
175
     0
176
     0
177
     0
178
     0
  0
ENDTAB
  0
ENDSEC
  0
SECTION
  2
BLOCKS
  0
BLOCK
  8
0
  2
$MODEL_SPACE
 70
     0
 10
0.0
 20
0.0
 30
0.0
  3
$MODEL_SPACE
  1

  0
ENDBLK
  5
265
  8
0
  0
BLOCK
 67
     1
  8
0
  2
$PAPER_SPACE
 70
     0
 10
0.0
 20
0.0
 30
0.0
  3
$PAPER_SPACE
  1

  0
ENDBLK
  5
263
 67
     1
  8
0
  0
ENDSEC
  0
SECTION
  2
ENTITIES
  0
TEXT
  5
13F
  8
0
 10
145.18917995987351
 20
42.492078495774251
 30
0.0
 40
5.0
  1
4
 72
     1
 11
146.97489424558779
 21
42.492078495774251
 31
0.0
  0
LINE
  5
140
  8
0
 10
144.31409334140491
 20
44.989085964860948
 30
0.0
 11
140.31409334140491
 21
44.989085964860948
 31
0.0
  0
TEXT
  5
141
  8
0
 10
130.19666995627139
 20
42.322857987940971
 30
0.0
 40
5.0
  1
OC
 72
     1
 11
134.60143186103329
 21
42.322857987940971
 31
0.0
  0
CIRCLE
  5
3EA
  8
0
 10
162.3644530536352
 20
44.98908596486077
 30
0.0
 40
2.458499999999999
  0
CIRCLE
  5
3EB
  8
3
 10
162.3644530536352
 20
44.98908596486077
 30
0.0
 40
3.0
  0
CIRCLE
  5
3EC
  8
0
 10
99.364453053635202
 20
44.98908596486077
 30
0.0
 40
10.5
  0
ARC
  5
3ED
  8
0
 10
162.3644530536352
 20
44.98908596486077
 30
0.0
 40
7.5
 50
240.66723785122261
 51
119.33276214877731
  0
ARC
  5
3EE
  8
0
 10
99.364453053635202
 20
44.98908596486077
 30
0.0
 40
12.0
 50
53.997408353645959
 51
306.00259164635349
  0
LINE
  5
3EF
  8
0
 10
112.9210354320028
 20
37.56065297076276
 30
0.0
 11
154.4038691830558
 21
39.467909694949192
 31
0.0
  0
ARC
  5
3F0
  8
0
 10
113.4721773519767
 20
25.57331621132991
 30
0.0
 40
12.0
 50
92.63243486898655
 51
126.0025916463478
  0
ARC
  5
3F1
  8
0
 10
154.77129712970509
 20
31.476351855327241
 30
0.0
 40
8.0
 50
60.667237851227107
 51
92.63243486898655
  0
ARC
  5
3F2
  8
0
 10
154.77129712970509
 20
58.501820074394317
 30
0.0
 40
8.0
 50
267.36756513101341
 51
299.33276214877287
  0
ARC
  5
3F3
  8
0
 10
113.4721773519767
 20
64.404855718391644
 30
0.0
 40
12.0
 50
233.99740835365211
 51
267.36756513101341
  0
LINE
  5
3F4
  8
0
 10
112.9210354320028
 20
52.417518958958958
 30
0.0
 11
154.4038691830558
 21
50.510262234772433
 31
0.0
  0
ARC
  5
3F5
  8
2
 10
162.3644530536352
 20
44.98908596486077
 30
0.0
 40
7.5
 50
119.33276214877731
 51
240.66723785122261
  0
LINE
  5
3F7
  8
1
 10
162.3644530536352
 20
57.489085964860813
 30
0.0
 11
162.3644530536352
 21
32.489085964860863
 31
0.0
  0
LINE
  5
3F8
  8
1
 10
99.364453053635202
 20
61.989085964860863
 30
0.0
 11
99.364453053635202
 21
27.989085964860859
 31
0.0
  0
LINE
  5
3F9
  8
1
 10
174.8644530536352
 20
44.989085964860813
 30
0.0
 11
82.364453053635202
 21
44.989085964860863
 31
0.0
  0
ARC
  5
401
  8
0
 10
89.864453053721661
 20
113.48908596486081
 30
0.0
 40
2.5
 50
89.999999999999986
 51
180.0
  0
ARC
  5
402
  8
0
 10
86.364453053635259
 20
109.7141687472254
 30
0.0
 40
2.5
 50
0.0
 51
43.341758227222812
  0
ARC
  5
403
  8
0
 10
90.364453053635259
 20
113.48908596486081
 30
0.0
 40
3.0
 50
180.0
 51
223.34175822722281
  0
LINE
  5
404
  8
2
 10
159.90595305363519
 20
132.98908596486081
 30
0.0
 11
158.90595305363519
 21
133.98908596486069
 31
0.0
  0
LINE
  5
405
  8
2
 10
164.8229530536353
 20
132.98908596486081
 30
0.0
 11
165.8229530536351
 21
133.98908596486069
 31
0.0
  0
LINE
  5
406
  8
2
 10
164.8229530536353
 20
132.98908596486081
 30
0.0
 11
164.8229530536353
 21
122.98908596486071
 31
0.0
  0
LINE
  5
407
  8
2
 10
159.90595305363519
 20
132.98908596486081
 30
0.0
 11
159.90595305363519
 21
122.98908596486081
 31
0.0
  0
LINE
  5
408
  8
2
 10
165.36445305363529
 20
133.53058596486059
 30
0.0
 11
165.36445305363529
 21
122.98908596486081
 31
0.0
  0
LINE
  5
409
  8
2
 10
159.36445305363529
 20
133.53058596486071
 30
0.0
 11
159.36445305363529
 21
122.98908596486091
 31
0.0
  0
ARC
  5
40A
  8
0
 10
152.8644530536352
 20
129.98908596486081
 30
0.0
 40
2.0
 50
270.0
 51
0.0
  0
LINE
  5
40B
  8
1
 10
162.3644530536352
 20
138.98908596486081
 30
0.0
 11
162.3644530536352
 21
117.98908596486071
 31
0.0
  0
ARC
  5
40C
  8
0
 10
168.3644530536352
 20
124.48908596486061
 30
0.0
 40
1.5
 50
269.9999999999992
 51
0.0
  0
LINE
  5
40D
  8
0
 10
169.8644530536352
 20
133.98908596486081
 30
0.0
 11
169.8644530536352
 21
124.48908596486071
 31
0.0
  0
LINE
  5
40E
  8
0
 10
154.8644530536352
 20
133.98908596486081
 30
0.0
 11
154.8644530536352
 21
129.98908596486081
 31
0.0
  0
LINE
  5
40F
  8
0
 10
168.3644530536352
 20
122.98908596486071
 30
0.0
 11
135.93016676780729
 21
122.98908596486071
 31
0.0
  0
LINE
  5
410
  8
0
 10
88.864453053635216
 20
109.7141687472255
 30
0.0
 11
88.864453053635216
 21
108.5664362340505
 31
0.0
  0
LINE
  5
411
  8
0
 10
156.69034534850749
 20
127.98908596486081
 30
0.0
 11
135.93017143983801
 21
127.98908596486081
 31
0.0
  0
LINE
  5
412
  8
1
 10
99.364453053635202
 20
120.98908596486081
 30
0.0
 11
99.364453053635202
 21
91.989085964860863
 31
0.0
  0
LINE
  5
4CB
  8
0
 10
107.3644530536352
 20
115.98908596486081
 30
0.0
 11
89.864453053721604
 21
115.98908596486081
 31
0.0
  0
ARC
  5
4CC
  8
0
 10
107.3644530536352
 20
128.98908596486081
 30
0.0
 40
13.0
 50
270.0
 51
315.57299599919531
  0
ARC
  5
4CD
  8
0
 10
107.3644530536352
 20
128.98908596486081
 30
0.0
 40
18.0
 50
284.11698057130292
 51
315.57299708313462
  0
ARC
  5
4CE
  8
0
 10
135.93016676780701
 20
100.9890859648612
 30
0.0
 40
22.0
 50
89.999999999999176
 51
135.5729951123356
  0
ARC
  5
4CF
  8
0
 10
135.93016676780701
 20
100.9890859648612
 30
0.0
 40
27.0
 50
89.999990085642111
 51
135.57299599919531
  0
ARC
  5
4D0
  8
0
 10
112.3644530536352
 20
109.1081906127897
 30
0.0
 40
2.5
 50
104.1169805713029
 51
176.0312300200811
  0
CIRCLE
  5
51C
  8
0
 10
99.364453053635145
 20
44.98908596486077
 30
0.0
 40
7.0710678118655323
  0
ARC
  5
51E
  8
2
 10
95.828919147700006
 20
95.006852917828354
 30
0.0
 40
4.0533008588963302
 50
29.27761319028572
 51
150.72238680971421
  0
ARC
  5
51F
  8
2
 10
102.8999869595679
 20
95.006852917828354
 30
0.0
 40
4.0533008588963302
 50
29.27761319028572
 51
150.72238680971421
  0
LINE
  5
520
  8
2
 10
99.364453053635202
 20
96.989085964860863
 30
0.0
 11
99.364453053635202
 21
115.98908596486081
 31
0.0
  0
LINE
  5
521
  8
2
 10
92.293385241769727
 20
96.989085964860863
 30
0.0
 11
92.293385241769727
 21
115.98908596486081
 31
0.0
  0
LINE
  5
522
  8
2
 10
106.43552086550061
 20
96.989085964860863
 30
0.0
 11
106.43552086550061
 21
115.98908596486081
 31
0.0
  0
LINE
  5
527
  8
0
 10
89.864453053635202
 20
107.98908596486081
 30
0.0
 11
88.864453053635216
 21
108.5664362340505
 31
0.0
  0
LINE
  5
531
  8
0
 10
108.8644530536352
 20
107.98908596486081
 30
0.0
 11
109.8644530536302
 21
108.5664362340476
 31
0.0
  0
LINE
  5
532
  8
0
 10
109.8644530536302
 20
109.2812224240097
 30
0.0
 11
109.8644530536302
 21
108.5664362340476
 31
0.0
  0
LINE
  5
544
  8
0
 10
106.158821106928
 20
44.712386206288272
 30
0.0
 11
104.1429672490334
 21
42.69653234839376
 31
0.0
  0
LINE
  5
545
  8
0
 10
92.570085000342374
 20
44.712386206288159
 30
0.0
 11
94.585938858236716
 21
42.696532348393873
 31
0.0
  0
ARC
  5
546
  8
0
 10
99.364453053635145
 20
44.989085964860998
 30
0.0
 40
5.2999999999999989
 50
295.62996175446227
 51
334.37003824553722
  0
ARC
  5
547
  8
0
 10
99.364453053635145
 20
44.989085964860998
 30
0.0
 40
5.2999999999999989
 50
25.62996175445171
 51
64.37003824555002
  0
ARC
  5
548
  8
0
 10
99.364453053635145
 20
44.989085964860998
 30
0.0
 40
5.2999999999999989
 50
115.62996175445311
 51
154.37003824554759
  0
ARC
  5
549
  8
0
 10
99.364453053635145
 20
44.989085964860998
 30
0.0
 40
5.2999999999999989
 50
205.6299617544592
 51
244.37003824554
  0
LINE
  5
54A
  8
0
 10
104.142967249034
 20
47.281639581327511
 30
0.0
 11
106.158821106928
 21
45.265785723433559
 31
0.0
  0
LINE
  5
54B
  8
0
 10
94.585938858236545
 20
47.281639581327738
 30
0.0
 11
92.570085000342374
 21
45.26578572343368
 31
0.0
  0
LINE
  5
54C
  8
0
 10
101.6570066701025
 20
40.210571769462767
 30
0.0
 11
99.641152812207793
 21
38.194717911568041
 31
0.0
  0
LINE
  5
54D
  8
0
 10
97.071899437167986
 20
40.210571769462661
 30
0.0
 11
99.087753295062626
 21
38.194717911568041
 31
0.0
  0
LINE
  5
54E
  8
0
 10
99.087753295062441
 20
51.783454018153691
 30
0.0
 11
97.071899437168554
 21
49.76760016025974
 31
0.0
  0
LINE
  5
54F
  8
0
 10
99.64115281220792
 20
51.783454018153691
 30
0.0
 11
101.65700667010159
 21
49.76760016025986
 31
0.0
  0
ARC
  5
550
  8
0
 10
99.364453053635202
 20
44.98908596486077
 30
0.0
 40
6.7999999999999989
 50
267.667925494109
 51
272.332074505891
  0
ARC
  5
551
  8
0
 10
99.364453053635202
 20
44.98908596486077
 30
0.0
 40
6.7999999999999989
 50
357.6679254941098
 51
2.3320745058901369
  0
ARC
  5
552
  8
0
 10
99.364453053635202
 20
44.98908596486077
 30
0.0
 40
6.7999999999999989
 50
87.667925494108147
 51
92.332074505892649
  0
ARC
  5
553
  8
0
 10
99.364453053635202
 20
44.98908596486077
 30
0.0
 40
6.7999999999999989
 50
177.66792549410661
 51
182.33207450589009
  0
LINE
  5
55E
  8
0
 10
108.8644530536352
 20
97.989085964860863
 30
0.0
 11
108.8644530536352
 21
107.98908596486081
 31
0.0
  0
LINE
  5
55F
  8
0
 10
89.864453053635202
 20
97.989085964860863
 30
0.0
 11
89.864453053635202
 21
107.98908596486081
 31
0.0
  0
LINE
  5
560
  8
0
 10
107.8644530536352
 20
96.989085964860863
 30
0.0
 11
90.864453053635202
 21
96.989085964860863
 31
0.0
  0
ARC
  5
561
  8
0
 10
107.8644530536352
 20
97.989085964860791
 30
0.0
 40
1.0
 50
270.0
 51
0.0
  0
ARC
  5
562
  8
0
 10
90.864453053635202
 20
97.989085964860791
 30
0.0
 40
1.0
 50
180.0
 51
270.0
  0
LINE
  5
56B
  8
2
 10
164.8229530536353
 20
132.98908596486081
 30
0.0
 11
159.90595305363519
 21
132.98908596486081
 31
0.0
  0
LINE
  5
56C
  8
0
 10
169.8644530536352
 20
133.98908596486081
 30
0.0
 11
154.8644530536352
 21
133.98908596486081
 31
0.0
  0
ARC
  5
5F5
  8
0
 10
156.69034534850749
 20
129.98908596486081
 30
0.0
 40
2.0
 50
270.0
 51
0.0
  0
LINE
  5
5F6
  8
0
 10
88.864453053635216
 20
108.5664362340505
 30
0.0
 11
109.8644530536302
 21
108.5664362340476
 31
0.0
  0
LINE
  5
5F7
  8
0
 10
108.8644530536352
 20
107.98908596486081
 30
0.0
 11
89.864453053635202
 21
107.98908596486081
 31
0.0
  0
ARC
  5
61B
  8
0
 10
99.364453053635273
 20
181.48908596486061
 30
0.0
 40
6.7999999999999989
 50
177.66792549410661
 51
182.33207450589009
  0
ARC
  5
61C
  8
0
 10
99.364453053635273
 20
181.48908596486061
 30
0.0
 40
6.7999999999999989
 50
87.667925494108147
 51
92.332074505892649
  0
ARC
  5
61D
  8
0
 10
99.364453053635273
 20
181.48908596486061
 30
0.0
 40
6.7999999999999989
 50
357.6679254941098
 51
2.3320745058901369
  0
ARC
  5
61E
  8
0
 10
99.364453053635273
 20
181.48908596486061
 30
0.0
 40
6.7999999999999989
 50
267.667925494109
 51
272.332074505891
  0
LINE
  5
61F
  8
0
 10
99.641152812207963
 20
188.28345401815361
 30
0.0
 11
101.65700667010169
 21
186.2676001602598
 31
0.0
  0
LINE
  5
620
  8
0
 10
99.087753295062498
 20
188.28345401815361
 30
0.0
 11
97.071899437168625
 21
186.26760016025969
 31
0.0
  0
LINE
  5
621
  8
0
 10
97.071899437168057
 20
176.7105717694626
 30
0.0
 11
99.087753295062669
 21
174.69471791156801
 31
0.0
  0
LINE
  5
622
  8
0
 10
101.6570066701026
 20
176.71057176946269
 30
0.0
 11
99.641152812207835
 21
174.69471791156801
 31
0.0
  0
LINE
  5
623
  8
0
 10
94.585938858236602
 20
183.78163958132771
 30
0.0
 11
92.570085000342445
 21
181.76578572343359
 31
0.0
  0
LINE
  5
624
  8
0
 10
104.1429672490341
 20
183.7816395813274
 30
0.0
 11
106.1588211069281
 21
181.76578572343351
 31
0.0
  0
ARC
  5
625
  8
0
 10
99.364453053635202
 20
181.48908596486089
 30
0.0
 40
5.2999999999999989
 50
205.6299617544592
 51
244.37003824554
  0
ARC
  5
626
  8
0
 10
99.364453053635202
 20
181.48908596486089
 30
0.0
 40
5.2999999999999989
 50
115.62996175445311
 51
154.37003824554759
  0
ARC
  5
627
  8
0
 10
99.364453053635202
 20
181.48908596486089
 30
0.0
 40
5.2999999999999989
 50
25.62996175445171
 51
64.37003824555002
  0
ARC
  5
628
  8
0
 10
99.364453053635202
 20
181.48908596486089
 30
0.0
 40
5.2999999999999989
 50
295.62996175446227
 51
334.37003824553722
  0
LINE
  5
629
  8
0
 10
92.570085000342445
 20
181.2123862062881
 30
0.0
 11
94.585938858236773
 21
179.19653234839379
 31
0.0
  0
LINE
  5
62A
  8
0
 10
106.1588211069281
 20
181.21238620628819
 30
0.0
 11
104.1429672490334
 21
179.1965323483937
 31
0.0
  0
CIRCLE
  5
62B
  8
2
 10
99.364453053635202
 20
181.48908596486061
 30
0.0
 40
7.0710678118655323
  0
LINE
  5
62C
  8
1
 10
174.8644530536352
 20
181.48908596486069
 30
0.0
 11
82.364453053635259
 21
181.48908596486081
 31
0.0
  0
LINE
  5
62D
  8
1
 10
99.364453053635273
 20
198.48908596486081
 30
0.0
 11
99.364453053635273
 21
164.48908596486081
 31
0.0
  0
LINE
  5
62E
  8
1
 10
162.3644530536352
 20
193.98908596486069
 30
0.0
 11
162.3644530536352
 21
168.98908596486081
 31
0.0
  0
LINE
  5
630
  8
0
 10
112.9210354320028
 20
188.91751895895891
 30
0.0
 11
154.4038691830558
 21
187.01026223477231
 31
0.0
  0
ARC
  5
631
  8
0
 10
113.4721773519768
 20
200.90485571839159
 30
0.0
 40
12.0
 50
233.99740835365211
 51
267.36756513101341
  0
ARC
  5
632
  8
0
 10
154.7712971297052
 20
195.0018200743942
 30
0.0
 40
8.0
 50
267.36756513101341
 51
299.33276214877287
  0
ARC
  5
633
  8
0
 10
154.7712971297052
 20
167.9763518553271
 30
0.0
 40
8.0
 50
60.667237851227107
 51
92.63243486898655
  0
ARC
  5
634
  8
0
 10
113.4721773519768
 20
162.0733162113298
 30
0.0
 40
12.0
 50
92.63243486898655
 51
126.0025916463478
  0
LINE
  5
635
  8
0
 10
112.9210354320028
 20
174.0606529707627
 30
0.0
 11
154.4038691830558
 21
175.9679096949491
 31
0.0
  0
ARC
  5
636
  8
0
 10
99.364453053635273
 20
181.48908596486061
 30
0.0
 40
12.0
 50
53.997408353645959
 51
306.00259164635349
  0
CIRCLE
  5
638
  8
2
 10
99.364453053635273
 20
181.48908596486061
 30
0.0
 40
10.5
  0
CIRCLE
  5
639
  8
3
 10
162.3644530536352
 20
181.48908596486061
 30
0.0
 40
3.0
  0
CIRCLE
  5
63A
  8
0
 10
162.3644530536352
 20
181.48908596486061
 30
0.0
 40
2.458499999999999
  0
CIRCLE
  5
65A
  8
0
 10
162.3644530536352
 20
181.48908596486061
 30
0.0
 40
7.5
  0
LINE
  5
65B
  8
0
 10
48.864453053635152
 20
107.98908596486081
 30
0.0
 11
29.864453053635149
 21
107.98908596486081
 31
0.0
  0
LINE
  5
65C
  8
0
 10
28.864453053635149
 20
108.5664362340505
 30
0.0
 11
49.864453053630143
 21
108.5664362340476
 31
0.0
  0
ARC
  5
65D
  8
0
 10
30.864453053635149
 20
97.989085964860791
 30
0.0
 40
1.0
 50
180.0
 51
270.0
  0
ARC
  5
65E
  8
0
 10
47.864453053635138
 20
97.989085964860791
 30
0.0
 40
1.0
 50
270.0
 51
0.0
  0
LINE
  5
65F
  8
0
 10
47.864453053635138
 20
96.989085964860863
 30
0.0
 11
30.864453053635149
 21
96.989085964860863
 31
0.0
  0
LINE
  5
660
  8
0
 10
29.864453053635149
 20
97.989085964860863
 30
0.0
 11
29.864453053635149
 21
107.98908596486081
 31
0.0
  0
LINE
  5
661
  8
0
 10
48.864453053635152
 20
97.989085964860863
 30
0.0
 11
48.864453053635152
 21
107.98908596486081
 31
0.0
  0
LINE
  5
662
  8
0
 10
49.864453053630143
 20
109.2812224240097
 30
0.0
 11
49.864453053630143
 21
108.5664362340476
 31
0.0
  0
LINE
  5
663
  8
0
 10
48.864453053635152
 20
107.98908596486081
 30
0.0
 11
49.864453053630143
 21
108.5664362340476
 31
0.0
  0
LINE
  5
664
  8
0
 10
29.864453053635149
 20
107.98908596486081
 30
0.0
 11
28.864453053635149
 21
108.5664362340505
 31
0.0
  0
LINE
  5
665
  8
2
 10
46.435520865500557
 20
96.989085964860863
 30
0.0
 11
46.435520865500557
 21
115.98908596486081
 31
0.0
  0
LINE
  5
666
  8
2
 10
32.29338524176967
 20
96.989085964860863
 30
0.0
 11
32.29338524176967
 21
115.98908596486081
 31
0.0
  0
LINE
  5
667
  8
2
 10
39.364453053635152
 20
96.989085964860863
 30
0.0
 11
39.364453053635152
 21
115.98908596486081
 31
0.0
  0
ARC
  5
668
  8
2
 10
42.899986959567912
 20
95.006852917828354
 30
0.0
 40
4.0533008588963302
 50
29.27761319028572
 51
150.72238680971421
  0
ARC
  5
669
  8
2
 10
35.828919147699942
 20
95.006852917828354
 30
0.0
 40
4.0533008588963302
 50
29.27761319028572
 51
150.72238680971421
  0
LINE
  5
66E
  8
0
 10
48.864453053548743
 20
115.98908596486081
 30
0.0
 11
29.864453053721551
 21
115.98908596486081
 31
0.0
  0
LINE
  5
66F
  8
1
 10
39.364453053635089
 20
138.98908596486069
 30
0.0
 11
39.364453053635152
 21
91.989085964860863
 31
0.0
  0
LINE
  5
670
  8
0
 10
28.864453053635149
 20
109.7141687472255
 30
0.0
 11
28.864453053635149
 21
108.5664362340505
 31
0.0
  0
ARC
  5
671
  8
0
 10
30.364453053635199
 20
113.48908596486081
 30
0.0
 40
3.0
 50
180.0
 51
223.34175822722281
  0
ARC
  5
672
  8
0
 10
26.364453053635199
 20
109.7141687472254
 30
0.0
 40
2.5
 50
0.0
 51
43.341758227222812
  0
ARC
  5
673
  8
0
 10
29.864453053721611
 20
113.48908596486081
 30
0.0
 40
2.5
 50
89.999999999999986
 51
180.0
  0
ARC
  5
674
  8
0
 10
48.864453053548743
 20
113.48908596486081
 30
0.0
 40
2.5
 50
0.000000000000007
 51
90.000000000000028
  0
ARC
  5
675
  8
0
 10
52.364453053635138
 20
109.7141687472254
 30
0.0
 40
2.5
 50
136.65824177277719
 51
180.0
  0
ARC
  5
676
  8
0
 10
48.364453053635152
 20
113.48908596486081
 30
0.0
 40
3.0
 50
316.65824177277722
 51
0.000000000000007
  0
LINE
  5
677
  8
0
 10
49.864453053635202
 20
109.7141687472255
 30
0.0
 11
49.864453053635202
 21
108.5664362340505
 31
0.0
  0
LINE
  5
678
  8
0
 10
46.864453053635081
 20
133.98908596486081
 30
0.0
 11
31.864453053635259
 21
133.98908596486081
 31
0.0
  0
LINE
  5
679
  8
2
 10
45.364453053635138
 20
122.98908596486071
 30
0.0
 11
33.364453053635152
 21
122.98908596486071
 31
0.0
  0
LINE
  5
67A
  8
0
 10
46.864453053635081
 20
133.98908596486081
 30
0.0
 11
46.864453053635081
 21
124.48908596486061
 31
0.0
  0
ARC
  5
67B
  8
0
 10
45.364453053635138
 20
124.48908596486061
 30
0.0
 40
1.5
 50
272.99931544375312
 51
0.0
  0
ARC
  5
67C
  8
2
 10
33.364453053635152
 20
124.48908596486061
 30
0.0
 40
1.5
 50
267.00068455624688
 51
270.0000000000008
  0
LINE
  5
67D
  8
0
 10
31.864453053635199
 20
133.98908596486081
 30
0.0
 11
31.864453053635199
 21
124.48908596486061
 31
0.0
  0
LINE
  5
6A2
  8
0
 10
45.023428691695472
 20
125.1671038417319
 30
0.0
 11
46.792886047733298
 21
115.98908596486081
 31
0.0
  0
ARC
  5
6A4
  8
0
 10
39.364453053635089
 20
119.70242117587669
 30
0.0
 40
8.2866647889840674
 50
54.000779044865219
 51
125.99922095513411
  0
ARC
  5
6A5
  8
0
 10
43.059592748287741
 20
124.7884900710101
 30
0.0
 40
2.0
 50
10.912337592801419
 51
54.00077904486475
  0
ARC
  5
6A6
  8
0
 10
35.669313358982549
 20
124.7884900710101
 30
0.0
 40
2.0
 50
125.9992209551352
 51
169.08766240719851
  0
LINE
  5
6A7
  8
0
 10
33.705477415574819
 20
125.1671038417319
 30
0.0
 11
31.93602005953699
 21
115.98908596486081
 31
0.0
  0
LINE
  5
6A8
  8
0
 10
216.28596701635621
 20
122.9911407248895
 30
0.0
 11
214.5346160089662
 21
113.9070388675307
 31
0.0
  0
LINE
  5
6AC
  8
0
 10
228.44293909091451
 20
122.9911407248895
 30
0.0
 11
230.19429009830441
 21
113.9070388675307
 31
0.0
  0
LINE
  5
6CC
  8
0
 10
214.8644530536354
 20
133.98908596486081
 30
0.0
 11
214.8644530536354
 21
124.48908596486061
 31
0.0
  0
ARC
  5
6CD
  8
0
 10
216.36445305363529
 20
124.48908596486061
 30
0.0
 40
1.5
 50
180.0
 51
270.0000000000008
  0
ARC
  5
6CE
  8
0
 10
228.36445305363529
 20
124.48908596486061
 30
0.0
 40
1.5
 50
269.9999999999992
 51
0.0
  0
LINE
  5
6CF
  8
0
 10
229.8644530536352
 20
133.98908596486081
 30
0.0
 11
229.8644530536352
 21
124.48908596486061
 31
0.0
  0
LINE
  5
6D0
  8
0
 10
228.36445305363529
 20
122.98908596486071
 30
0.0
 11
216.36445305363529
 21
122.98908596486071
 31
0.0
  0
LINE
  5
6D1
  8
0
 10
229.8644530536352
 20
133.98908596486081
 30
0.0
 11
214.8644530536354
 21
133.98908596486081
 31
0.0
  0
LINE
  5
6D2
  8
0
 10
232.86445305363549
 20
109.7141687472255
 30
0.0
 11
232.86445305363549
 21
108.5664362340505
 31
0.0
  0
ARC
  5
6D3
  8
0
 10
231.36445305363529
 20
113.48908596486081
 30
0.0
 40
3.0
 50
316.65824177277722
 51
0.000000000000007
  0
ARC
  5
6D4
  8
0
 10
235.36445305363529
 20
109.7141687472254
 30
0.0
 40
2.5
 50
136.65824177277719
 51
180.0
  0
ARC
  5
6D5
  8
0
 10
231.86445305354891
 20
113.48908596486081
 30
0.0
 40
2.5
 50
0.000000000000007
 51
90.000000000000028
  0
ARC
  5
6D6
  8
0
 10
212.8644530537218
 20
113.48908596486081
 30
0.0
 40
2.5
 50
89.999999999999986
 51
180.0
  0
ARC
  5
6D7
  8
0
 10
209.3644530536354
 20
109.7141687472254
 30
0.0
 40
2.5
 50
0.0
 51
43.341758227222812
  0
ARC
  5
6D8
  8
0
 10
213.3644530536354
 20
113.48908596486081
 30
0.0
 40
3.0
 50
180.0
 51
223.34175822722281
  0
LINE
  5
6D9
  8
0
 10
211.86445305363529
 20
109.7141687472255
 30
0.0
 11
211.86445305363529
 21
108.5664362340505
 31
0.0
  0
LINE
  5
6DA
  8
1
 10
222.3644530536352
 20
138.98908596486069
 30
0.0
 11
222.36445305363529
 21
91.989085964860863
 31
0.0
  0
LINE
  5
6DB
  8
0
 10
231.86445305354891
 20
115.98908596486081
 30
0.0
 11
229.7928860477335
 21
115.98908596486081
 31
0.0
  0
ARC
  5
6DC
  8
2
 10
218.82891914770011
 20
95.006852917828354
 30
0.0
 40
4.0533008588963302
 50
29.27761319028572
 51
150.72238680971421
  0
ARC
  5
6DD
  8
2
 10
225.89998695956811
 20
95.006852917828354
 30
0.0
 40
4.0533008588963302
 50
29.27761319028572
 51
150.72238680971421
  0
LINE
  5
6DE
  8
2
 10
222.36445305363529
 20
96.989085964860863
 30
0.0
 11
222.36445305363529
 21
115.98908596486081
 31
0.0
  0
LINE
  5
6DF
  8
2
 10
215.2933852417699
 20
96.989085964860863
 30
0.0
 11
215.2933852417699
 21
115.98908596486081
 31
0.0
  0
LINE
  5
6E0
  8
2
 10
229.43552086550071
 20
96.989085964860863
 30
0.0
 11
229.43552086550071
 21
115.98908596486081
 31
0.0
  0
LINE
  5
6E1
  8
0
 10
212.86445305363529
 20
107.98908596486081
 30
0.0
 11
211.86445305363529
 21
108.5664362340505
 31
0.0
  0
LINE
  5
6E2
  8
0
 10
231.86445305363529
 20
107.98908596486081
 30
0.0
 11
232.86445305363031
 21
108.5664362340476
 31
0.0
  0
LINE
  5
6E3
  8
0
 10
232.86445305363031
 20
109.2812224240097
 30
0.0
 11
232.86445305363031
 21
108.5664362340476
 31
0.0
  0
LINE
  5
6E4
  8
0
 10
231.86445305363529
 20
97.989085964860863
 30
0.0
 11
231.86445305363529
 21
107.98908596486081
 31
0.0
  0
LINE
  5
6E5
  8
0
 10
212.86445305363529
 20
97.989085964860863
 30
0.0
 11
212.86445305363529
 21
107.98908596486081
 31
0.0
  0
LINE
  5
6E6
  8
0
 10
230.86445305363529
 20
96.989085964860863
 30
0.0
 11
213.86445305363529
 21
96.989085964860863
 31
0.0
  0
ARC
  5
6E7
  8
0
 10
230.86445305363529
 20
97.989085964860791
 30
0.0
 40
1.0
 50
270.0
 51
0.0
  0
ARC
  5
6E8
  8
0
 10
213.86445305363529
 20
97.989085964860791
 30
0.0
 40
1.0
 50
180.0
 51
270.0
  0
LINE
  5
6E9
  8
0
 10
211.86445305363529
 20
108.5664362340505
 30
0.0
 11
232.86445305363031
 21
108.5664362340476
 31
0.0
  0
LINE
  5
6EA
  8
0
 10
231.86445305363529
 20
107.98908596486081
 30
0.0
 11
212.86445305363529
 21
107.98908596486081
 31
0.0
  0
ARC
  5
6EB
  8
2
 10
45.364453053635138
 20
124.48908596486061
 30
0.0
 40
1.5
 50
269.9999999999992
 51
272.99931544375312
  0
ARC
  5
6EC
  8
0
 10
33.364453053635152
 20
124.48908596486061
 30
0.0
 40
1.5
 50
180.0
 51
267.00068455624688
  0
ARC
  5
6F7
  8
0
 10
228.2572785843989
 20
114.40293675604801
 30
0.0
 40
2.8749229635476761
 50
266.73162085280597
 51
268.24308248175288
  0
ARC
  5
6F8
  8
0
 10
228.23045415489671
 20
113.5284250968089
 30
0.0
 40
2.0
 50
268.24308248175299
 51
10.912337592800441
  0
ARC
  5
6F9
  8
0
 10
216.4984519523739
 20
113.5284250968089
 30
0.0
 40
2.0
 50
169.0876624071995
 51
271.75691751824701
  0
LINE
  5
6FA
  8
0
 10
214.93602005953699
 20
115.98908596486081
 30
0.0
 11
212.86445305372169
 21
115.98908596486081
 31
0.0
  0
LINE
  5
6FB
  8
2
 10
229.7928860477335
 20
115.98908596486081
 30
0.0
 11
214.9360200595371
 21
115.98908596486091
 31
0.0
  0
CIRCLE
  5
709
  8
0
 10
99.364453053635202
 20
44.989085964860848
 30
0.0
 40
9.4999999999999858
  0
TEXT
  5
7BC
  8
0
 62
     3
 10
0.0
 20
0.0
 30
0.0
 40
10.0
  1
OC4S
  7
STANDARD1
  0
ENDSEC
  0
EOF
