  0
SECTION
  2
HEADER
  9
$ACADVER
  1
AC1009
  9
$INSBASE
 10
0.0
 20
0.0
 30
0.0
  9
$EXTMIN
 10
0.0
 20
-2.960436562073669
 30
0.0
  9
$EXTMAX
 10
384.28358732269032
 20
308.34874867363612
 30
0.0
  9
$LIMMIN
 10
0.0
 20
0.0
  9
$LIMMAX
 10
750.0
 20
540.0
  9
$ORTHOMODE
 70
     1
  9
$REGENMODE
 70
     1
  9
$FILLMODE
 70
     1
  9
$QTEXTMODE
 70
     0
  9
$MIRRTEXT
 70
     0
  9
$DRAGMODE
 70
     2
  9
$LTSCALE
 40
20.0
  9
$OSMODE
 70
  3071
  9
$ATTMODE
 70
     1
  9
$TEXTSIZE
 40
0.2
  9
$TRACEWID
 40
0.05
  9
$TEXTSTYLE
  7
STANDARD
  9
$CLAYER
  8
0
  9
$CELTYPE
  6
BYLAYER
  9
$CECOLOR
 62
   256
  9
$DIMSCALE
 40
2.0
  9
$DIMASZ
 40
3.0
  9
$DIMEXO
 40
2.0
  9
$DIMDLI
 40
0.38
  9
$DIMRND
 40
0.0
  9
$DIMDLE
 40
0.0
  9
$DIMEXE
 40
2.0
  9
$DIMTP
 40
0.0
  9
$DIMTM
 40
0.0
  9
$DIMTXT
 40
3.2000000000000002
  9
$DIMCEN
 40
0.0
  9
$DIMTSZ
 40
0.0
  9
$DIMTOL
 70
     0
  9
$DIMLIM
 70
     0
  9
$DIMTIH
 70
     0
  9
$DIMTOH
 70
     0
  9
$DIMSE1
 70
     0
  9
$DIMSE2
 70
     0
  9
$DIMTAD
 70
     1
  9
$DIMZIN
 70
     0
  9
$DIMBLK
  1

  9
$DIMASO
 70
     1
  9
$DIMSHO
 70
     0
  9
$DIMPOST
  1

  9
$DIMAPOST
  1

  9
$DIMALT
 70
     0
  9
$DIMALTD
 70
     2
  9
$DIMALTF
 40
25.399999999999999
  9
$DIMLFAC
 40
1.0
  9
$DIMTOFL
 70
     0
  9
$DIMTVP
 40
1.6000000000000001
  9
$DIMTIX
 70
     1
  9
$DIMSOXD
 70
     0
  9
$DIMSAH
 70
     0
  9
$DIMBLK1
  1

  9
$DIMBLK2
  1

  9
$DIMSTYLE
  2
STANDARD
  9
$DIMCLRD
 70
     0
  9
$DIMCLRE
 70
     0
  9
$DIMCLRT
 70
     0
  9
$DIMTFAC
 40
1.0
  9
$DIMGAP
 40
0.09
  9
$LUNITS
 70
     2
  9
$LUPREC
 70
     4
  9
$SKETCHINC
 40
0.1
  9
$FILLETRAD
 40
1.0
  9
$AUNITS
 70
     0
  9
$AUPREC
 70
     0
  9
$MENU
  1
E:\r13\win\SUPPORT\ACAD
  9
$ELEVATION
 40
0.0
  9
$PELEVATION
 40
0.0
  9
$THICKNESS
 40
0.0
  9
$LIMCHECK
 70
     0
  9
$BLIPMODE
 70
     0
  9
$CHAMFERA
 40
0.0
  9
$CHAMFERB
 40
0.0
  9
$SKPOLY
 70
     0
  9
$TDCREATE
 40
2449840.6074537039
  9
$TDUPDATE
 40
2456597.5020058798
  9
$TDINDWG
 40
0.1651334375
  9
$TDUSRTIMER
 40
0.1651334375
  9
$USRTIMER
 70
     1
  9
$ANGBASE
 50
0.0
  9
$ANGDIR
 70
     0
  9
$PDMODE
 70
     0
  9
$PDSIZE
 40
0.0
  9
$PLINEWID
 40
0.0
  9
$COORDS
 70
     1
  9
$SPLFRAME
 70
     0
  9
$SPLINETYPE
 70
     6
  9
$SPLINESEGS
 70
     8
  9
$ATTDIA
 70
     0
  9
$ATTREQ
 70
     1
  9
$HANDLING
 70
     1
  9
$HANDSEED
  5
623
  9
$SURFTAB1
 70
     6
  9
$SURFTAB2
 70
     6
  9
$SURFTYPE
 70
     6
  9
$SURFU
 70
     6
  9
$SURFV
 70
     6
  9
$UCSNAME
  2

  9
$UCSORG
 10
0.0
 20
0.0
 30
0.0
  9
$UCSXDIR
 10
1.0
 20
0.0
 30
0.0
  9
$UCSYDIR
 10
0.0
 20
1.0
 30
0.0
  9
$PUCSNAME
  2

  9
$PUCSORG
 10
0.0
 20
0.0
 30
0.0
  9
$PUCSXDIR
 10
1.0
 20
0.0
 30
0.0
  9
$PUCSYDIR
 10
0.0
 20
1.0
 30
0.0
  9
$USERI1
 70
     0
  9
$USERI2
 70
     1
  9
$USERI3
 70
     1
  9
$USERI4
 70
     0
  9
$USERI5
 70
     0
  9
$USERR1
 40
0.0
  9
$USERR2
 40
0.0
  9
$USERR3
 40
0.0
  9
$USERR4
 40
0.0
  9
$USERR5
 40
0.0
  9
$WORLDVIEW
 70
     1
  9
$SHADEDGE
 70
     3
  9
$SHADEDIF
 70
    70
  9
$TILEMODE
 70
     1
  9
$MAXACTVP
 70
    16
  9
$PLIMCHECK
 70
     0
  9
$PEXTMIN
 10
1.0000000000000000E+020
 20
1.0000000000000000E+020
 30
1.0000000000000000E+020
  9
$PEXTMAX
 10
-1.0000000000000000E+020
 20
-1.0000000000000000E+020
 30
-1.0000000000000000E+020
  9
$PLIMMIN
 10
0.0
 20
0.0
  9
$PLIMMAX
 10
12.0
 20
9.0
  9
$UNITMODE
 70
     0
  9
$VISRETAIN
 70
     0
  9
$PLINEGEN
 70
     0
  9
$PSLTSCALE
 70
     0
  0
ENDSEC
  0
SECTION
  2
TABLES
  0
TABLE
  2
VPORT
 70
     1
  0
VPORT
  2
*ACTIVE
 70
     0
 10
0.0
 20
0.0
 11
1.0
 21
1.0
 12
374.98855678130462
 22
326.8875087595369
 13
0.0
 23
0.0
 14
20.0
 24
20.0
 15
20.0
 25
20.0
 16
0.0
 26
0.0
 36
1.0
 17
0.0
 27
0.0
 37
0.0
 40
665.98177264116305
 41
1.9089595375722539
 42
50.0
 43
0.0
 44
0.0
 50
0.0
 51
0.0
 71
     0
 72
   500
 73
     1
 74
     0
 75
     0
 76
     0
 77
     0
 78
     1
  0
ENDTAB
  0
TABLE
  2
LTYPE
 70
     4
  0
LTYPE
  2
CONTINUOUS
 70
     0
  3
Solid Line
 72
    65
 73
     0
 40
0.0
  0
LTYPE
  2
CENTER
 70
     0
  3
____ _ ____ _ ____ _ ____ _ ____ _ ____ _ ____
 72
    65
 73
     4
 40
2.0
 49
1.25
 49
-0.25
 49
0.25
 49
-0.25
  0
LTYPE
  2
HIDDEN
 70
     0
  3
_ _ _ _ _ _ _ _ _ _ _ _ _ _ _ _ _ _ _ _ _ _ _
 72
    65
 73
     2
 40
0.375
 49
0.25
 49
-0.125
  0
LTYPE
  2
PHANTOM2
 70
     0
  3
___ _ _ ___ _ _ ___ _ _ ___ _ _
 72
    65
 73
     6
 40
1.25
 49
0.625
 49
-0.125
 49
0.125
 49
-0.125
 49
0.125
 49
-0.125
  0
ENDTAB
  0
TABLE
  2
LAYER
 70
     5
  0
LAYER
  2
0
 70
     0
 62
     7
  6
CONTINUOUS
  0
LAYER
  2
1
 70
     0
 62
     1
  6
CENTER
  0
LAYER
  2
2
 70
     0
 62
     2
  6
HIDDEN
  0
LAYER
  2
3
 70
     0
 62
     3
  6
CONTINUOUS
  0
LAYER
  2
DEFPOINTS
 70
     0
 62
     7
  6
CONTINUOUS
  0
ENDTAB
  0
TABLE
  2
STYLE
 70
     2
  0
STYLE
  2
STANDARD
 70
     0
 40
0.0
 41
1.0
 50
0.0
 71
     0
 42
0.2
  3
simplex.shx
  4
bigfont.shx
  0
STYLE
  2
STANDARD1
 70
     0
 40
0.0
 41
1.0
 50
0.0
 71
     0
 42
3.0
  3
txt
  4

  0
ENDTAB
  0
TABLE
  2
VIEW
 70
     1
  0
VIEW
  2
ALL
 70
     0
 40
540.0
 10
441.98319327731087
 20
270.0
 41
0.0
 11
0.0
 21
0.0
 31
1.0
 12
0.0
 22
0.0
 32
0.0
 42
0.0
 43
0.0
 44
0.0
 50
0.0
 71
     0
  0
ENDTAB
  0
TABLE
  2
UCS
 70
     0
  0
ENDTAB
  0
TABLE
  2
APPID
 70
    28
  0
APPID
  2
ACAD
 70
     0
  0
APPID
  2
DCO15
 70
     0
  0
APPID
  2
GENIUS_GENOREF_13
 70
     0
  0
APPID
  2
GENIUS_GENOENT_13
 70
     0
  0
APPID
  2
GENIUS_GENBH_13
 70
     0
  0
APPID
  2
GENIUS_GENOBJ_13
 70
     0
  0
APPID
  2
GENIUS_GENODEF_13
 70
     0
  0
APPID
  2
GENIUS_GENOLIS_13
 70
     0
  0
APPID
  2
GENIUS_GENOBJ-NBEHI-BHF_13
 70
     0
  0
APPID
  2
GENIUS_GENOBJ-NBEHI-BHB_13
 70
     0
  0
APPID
  2
GENIUS_GENOBJ-F-PART_13
 70
     0
  0
APPID
  2
GENIUS_GEFSTDP_13
 70
     0
  0
APPID
  2
GENIUS_GENOBJ-N-RSSYM_13
 70
     0
  0
APPID
  2
GENIUS_GENSYMENT_13
 70
     0
  0
APPID
  2
GENIUS_GENOBJ-N-TIT_13
 70
     0
  0
APPID
  2
GENIUS_GENTITLE_13
 70
     0
  0
APPID
  2
GENIUS_GENZVEED_13
 70
     0
  0
APPID
  2
GENIUS_GENOBJ-N-LEADER_13
 70
     0
  0
APPID
  2
GENIUS_GENOBJ-N-FIL_13
 70
     0
  0
APPID
  2
GENIUS_GENOBJ-N-SEC_13
 70
     0
  0
APPID
  2
GENIUS_GENOBJ-N-CRS_13
 70
     0
  0
APPID
  2
GENIUS_GENOBJ-N-ZOO_13
 70
     0
  0
APPID
  2
GENIUS_GENZOO_13
 70
     0
  0
APPID
  2
GENIUS_GENOBJ-F-TOL_13
 70
     0
  0
APPID
  2
GENIUS_GENFIL_13
 70
     0
  0
APPID
  2
GENIUS_GENOBJ-N-CHA_13
 70
     0
  0
APPID
  2
ACAD_MLEADERVER
 70
     0
  0
APPID
  2
ACAD_NAV_VCDISPLAY
 70
     0
  0
ENDTAB
  0
TABLE
  2
DIMSTYLE
 70
     1
  0
DIMSTYLE
  2
STANDARD
 70
     0
  3

  4

  5

  6

  7

 40
1.0
 41
0.18
 42
0.0625
 43
0.38
 44
0.18
 45
0.0
 46
0.0
 47
0.0
 48
0.0
140
0.18
141
0.09
142
0.0
143
25.399999999999999
144
1.0
145
0.0
146
1.0
147
0.09
 71
     0
 72
     0
 73
     1
 74
     1
 75
     0
 76
     0
 77
     0
 78
     0
170
     0
171
     2
172
     0
173
     0
174
     0
175
     0
176
     0
177
     0
178
     0
  0
ENDTAB
  0
ENDSEC
  0
SECTION
  2
BLOCKS
  0
BLOCK
  8
0
  2
$MODEL_SPACE
 70
     0
 10
0.0
 20
0.0
 30
0.0
  3
$MODEL_SPACE
  1

  0
ENDBLK
  5
150
  8
0
  0
BLOCK
 67
     1
  8
0
  2
$PAPER_SPACE
 70
     0
 10
0.0
 20
0.0
 30
0.0
  3
$PAPER_SPACE
  1

  0
ENDBLK
  5
14E
 67
     1
  8
0
  0
ENDSEC
  0
SECTION
  2
ENTITIES
  0
CIRCLE
  5
311
  8
0
 10
274.30184761734711
 20
75.348748673636294
 30
0.0
 40
4.1879999999999988
  0
CIRCLE
  5
312
  8
3
 10
274.30184761734711
 20
75.348748673636294
 30
0.0
 40
5.0
  0
CIRCLE
  5
313
  8
0
 10
149.30184761734711
 20
75.348748673636294
 30
0.0
 40
6.5
  0
CIRCLE
  5
314
  8
0
 10
149.30184761734711
 20
75.348748673636294
 30
0.0
 40
18.0
  0
ARC
  5
315
  8
2
 10
274.30184761734711
 20
75.348748673636294
 30
0.0
 40
10.0
 50
120.7615953877302
 51
239.2384046122701
  0
ARC
  5
316
  8
0
 10
149.30184761734711
 20
75.348748673636294
 30
0.0
 40
20.0
 50
51.441853708148152
 51
308.55814629185181
  0
LINE
  5
317
  8
0
 10
264.6330557093774
 20
67.867923878964348
 30
0.0
 11
168.55415133846759
 21
62.305460994333323
 31
0.0
  0
ARC
  5
318
  8
0
 10
169.2477267896555
 20
50.325521382903453
 30
0.0
 40
12.0
 50
93.313425399792465
 51
128.55815968711639
  0
ARC
  5
319
  8
0
 10
265.09543934350279
 20
59.881297471344453
 30
0.0
 40
8.0
 50
59.2383962088564
 51
93.313425399792095
  0
ARC
  5
31A
  8
0
 10
265.09543934350279
 20
90.816199875928135
 30
0.0
 40
8.0
 50
266.68657460020751
 51
300.76160379114361
  0
ARC
  5
31B
  8
0
 10
169.2477267896555
 20
100.3719759643691
 30
0.0
 40
12.0
 50
231.4418403128835
 51
266.68657460020751
  0
LINE
  5
31C
  8
0
 10
264.6330557093774
 20
82.829573468308126
 30
0.0
 11
168.55415133846759
 21
88.392036352939158
 31
0.0
  0
ARC
  5
31D
  8
0
 10
274.30184761734711
 20
75.348748673636294
 30
0.0
 40
10.0
 50
239.2384046122701
 51
120.7615953877302
  0
LINE
  5
31F
  8
1
 10
274.30184761734722
 20
90.348748673636237
 30
0.0
 11
274.30184761734711
 21
60.34874867363623
 31
0.0
  0
LINE
  5
320
  8
1
 10
149.30184761734719
 20
100.34874867363619
 30
0.0
 11
149.30184761734719
 21
50.34874867363623
 31
0.0
  0
LINE
  5
321
  8
1
 10
289.30184761734722
 20
75.348748673636237
 30
0.0
 11
124.30184761734721
 21
75.348748673636237
 31
0.0
  0
ARC
  5
322
  8
0
 10
128.30184761734711
 20
181.1918944241439
 30
0.0
 40
3.0
 50
0.0
 51
38.942441268979579
  0
ARC
  5
323
  8
0
 10
132.70377140599291
 20
188.34874867363621
 30
0.0
 40
3.0
 50
89.999999999999986
 51
150.0000000000075
  0
ARC
  5
324
  8
0
 10
135.30184761734711
 20
186.84874867363621
 30
0.0
 40
6.0
 50
150.0000000000075
 51
218.94244126897951
  0
LINE
  5
325
  8
2
 10
269.30184761734722
 20
212.66074867363599
 30
0.0
 11
269.30184761734722
 21
197.34874867363609
 31
0.0
  0
LINE
  5
326
  8
2
 10
279.30184761734722
 20
212.66074867363599
 30
0.0
 11
279.30184761734722
 21
197.34874867363609
 31
0.0
  0
LINE
  5
327
  8
2
 10
270.11384761734718
 20
211.84874867363609
 30
0.0
 11
270.11384761734712
 21
197.34874867363609
 31
0.0
  0
LINE
  5
328
  8
2
 10
278.48984761734721
 20
211.84874867363609
 30
0.0
 11
278.48984761734721
 21
197.34874867363609
 31
0.0
  0
LINE
  5
329
  8
2
 10
270.11384761734718
 20
211.84874867363609
 30
0.0
 11
268.61384761734718
 21
213.34874867363609
 31
0.0
  0
LINE
  5
32A
  8
2
 10
278.4898476173471
 20
211.84874867363609
 30
0.0
 11
279.9898476173471
 21
213.34874867363609
 31
0.0
  0
ARC
  5
32B
  8
0
 10
261.30184761734711
 20
208.34874867363621
 30
0.0
 40
3.0
 50
270.0
 51
0.0
  0
LINE
  5
32C
  8
2
 10
155.80184761734719
 20
191.34874867363609
 30
0.0
 11
155.80184761734719
 21
155.34874867363609
 31
0.0
  0
LINE
  5
32D
  8
2
 10
142.80184761734719
 20
191.34874867363609
 30
0.0
 11
142.80184761734719
 21
155.34874867363609
 31
0.0
  0
ARC
  5
32E
  8
0
 10
282.30184761734711
 20
199.34874867363621
 30
0.0
 40
2.0
 50
270.0
 51
0.0
  0
LINE
  5
32F
  8
0
 10
284.30184761734722
 20
213.34874867363609
 30
0.0
 11
284.30184761734722
 21
199.34874867363609
 31
0.0
  0
LINE
  5
330
  8
0
 10
264.30184761734722
 20
213.34874867363609
 30
0.0
 11
264.30184761734722
 21
208.34874867363609
 31
0.0
  0
LINE
  5
331
  8
0
 10
282.30184761734722
 20
197.34874867363609
 30
0.0
 11
264.30184761734711
 21
197.34874867363609
 31
0.0
  0
LINE
  5
332
  8
0
 10
167.30184761734719
 20
180.33312748647191
 30
0.0
 11
167.30184761734719
 21
156.34874867363609
 31
0.0
  0
LINE
  5
333
  8
0
 10
131.30184761734719
 20
181.19189442414381
 30
0.0
 11
131.30184761734719
 21
156.34874867363629
 31
0.0
  0
LINE
  5
334
  8
0
 10
266.1871776144165
 20
205.34874867363609
 30
0.0
 11
202.60073097656701
 21
205.34874867363609
 31
0.0
  0
LINE
  5
335
  8
1
 10
149.30184761734719
 20
196.34874867363609
 30
0.0
 11
149.30184761734719
 21
150.34874867363621
 31
0.0
  0
LINE
  5
336
  8
1
 10
274.30184761734722
 20
218.34874867363609
 30
0.0
 11
274.30184761734722
 21
192.34874867363609
 31
0.0
  0
LINE
  5
3E0
  8
0
 10
162.30184761734719
 20
191.34874867363609
 30
0.0
 11
132.70377140599291
 21
191.34874867363609
 31
0.0
  0
ARC
  5
3E1
  8
0
 10
162.30184761734711
 20
212.34874867363621
 30
0.0
 40
21.0
 50
270.0
 51
308.3148799764636
  0
ARC
  5
3E2
  8
0
 10
170.30184761734711
 20
180.33312748647191
 30
0.0
 40
3.0
 50
104.0296654012883
 51
180.0
  0
ARC
  5
404
  8
0
 10
202.60073097656689
 20
161.34874867363609
 30
0.0
 40
44.0
 50
89.999999999999986
 51
128.31487997646349
  0
ARC
  5
405
  8
0
 10
202.60073097656689
 20
161.34874867363609
 30
0.0
 40
35.0
 50
89.999999999999986
 51
128.31487997646349
  0
ARC
  5
406
  8
0
 10
162.30184761734711
 20
212.34874867363621
 30
0.0
 40
30.0
 50
284.02966575053318
 51
308.3148799764636
  0
LINE
  5
40D
  8
0
 10
202.60073097656701
 20
196.34874867363609
 30
0.0
 11
264.30184761734711
 21
197.34874867363609
 31
0.0
  0
LINE
  5
40E
  8
0
 10
166.30184761734719
 20
155.34874867363609
 30
0.0
 11
132.30184761734719
 21
155.34874867363629
 31
0.0
  0
ARC
  5
40F
  8
0
 10
132.30184761734711
 20
156.34874867363641
 30
0.0
 40
1.0
 50
180.0
 51
270.0
  0
ARC
  5
410
  8
0
 10
166.30184761734711
 20
156.34874867363609
 30
0.0
 40
1.0
 50
269.9999999999996
 51
0.0
  0
LINE
  5
416
  8
2
 10
278.48984761734721
 20
211.84874867363609
 30
0.0
 11
270.11384761734718
 21
211.84874867363609
 31
0.0
  0
LINE
  5
417
  8
0
 10
284.30184761734722
 20
213.34874867363609
 30
0.0
 11
264.30184761734722
 21
213.34874867363609
 31
0.0
  0
TEXT
  5
42C
  8
0
 10
203.1433999088153
 20
71.081434353370923
 30
0.0
 40
8.0
  1
OC
 41
0.75
 72
     1
 11
208.4291141945296
 21
71.081434353370923
 31
0.0
  0
LINE
  5
42D
  8
0
 10
219.8625490561972
 20
75.34874867363601
 30
0.0
 11
215.86254905619899
 21
75.34874867363601
 31
0.0
  0
TEXT
  5
42E
  8
0
 10
221.67757657908419
 20
71.393841444755367
 30
0.0
 40
8.0
  1
7
 41
0.75
 72
     1
 11
223.67757657908419
 21
71.393841444755367
 31
0.0
  0
LINE
  5
42F
  8
0
 10
167.30184761734719
 20
182.34874867363609
 30
0.0
 11
131.30184761734719
 21
182.34874867363609
 31
0.0
  0
ARC
  5
430
  8
0
 10
266.1871776144165
 20
208.34874867363609
 30
0.0
 40
3.0
 50
270.0
 51
0.0
  0
LINE
  5
436
  8
1
 10
289.30184761734728
 20
283.34874867363612
 30
0.0
 11
124.30184761734731
 21
283.34874867363612
 31
0.0
  0
LINE
  5
437
  8
1
 10
149.30184761734731
 20
308.34874867363612
 30
0.0
 11
149.30184761734731
 21
258.34874867363612
 31
0.0
  0
LINE
  5
438
  8
1
 10
274.30184761734728
 20
298.34874867363612
 30
0.0
 11
274.30184761734722
 21
268.34874867363612
 31
0.0
  0
LINE
  5
43A
  8
0
 10
264.63305570937757
 20
290.82957346830801
 30
0.0
 11
168.5541513384677
 21
296.3920363529391
 31
0.0
  0
ARC
  5
43B
  8
0
 10
169.24772678965559
 20
308.37197596436903
 30
0.0
 40
12.0
 50
231.4418403128835
 51
266.68657460020751
  0
ARC
  5
43C
  8
0
 10
265.0954393435029
 20
298.81619987592802
 30
0.0
 40
8.0
 50
266.68657460020751
 51
300.76160379114361
  0
ARC
  5
43D
  8
0
 10
265.0954393435029
 20
267.88129747134428
 30
0.0
 40
8.0
 50
59.2383962088564
 51
93.313425399792095
  0
ARC
  5
43E
  8
0
 10
169.24772678965559
 20
258.32552138290328
 30
0.0
 40
12.0
 50
93.313425399792465
 51
128.55815968711639
  0
LINE
  5
43F
  8
0
 10
264.63305570937757
 20
275.86792387896429
 30
0.0
 11
168.5541513384677
 21
270.3054609943332
 31
0.0
  0
ARC
  5
440
  8
0
 10
149.30184761734719
 20
283.34874867363618
 30
0.0
 40
20.0
 50
51.441853708148152
 51
308.55814629185181
  0
CIRCLE
  5
442
  8
2
 10
149.30184761734719
 20
283.34874867363618
 30
0.0
 40
18.0
  0
CIRCLE
  5
443
  8
0
 10
149.30184761734719
 20
283.34874867363618
 30
0.0
 40
6.5
  0
CIRCLE
  5
444
  8
3
 10
274.30184761734722
 20
283.34874867363618
 30
0.0
 40
5.0
  0
CIRCLE
  5
445
  8
0
 10
274.30184761734722
 20
283.34874867363618
 30
0.0
 40
4.1879999999999988
  0
CIRCLE
  5
446
  8
0
 10
274.30184761734728
 20
283.34874867363612
 30
0.0
 40
9.9999999999998863
  0
LINE
  5
447
  8
0
 10
77.301847617347221
 20
182.34874867363609
 30
0.0
 11
41.301847617347221
 21
182.34874867363609
 31
0.0
  0
ARC
  5
448
  8
0
 10
76.301847617347093
 20
156.34874867363609
 30
0.0
 40
1.0
 50
269.9999999999996
 51
0.0
  0
ARC
  5
449
  8
0
 10
42.301847617347107
 20
156.34874867363641
 30
0.0
 40
1.0
 50
180.0
 51
270.0
  0
LINE
  5
44A
  8
0
 10
76.301847617347221
 20
155.34874867363609
 30
0.0
 11
42.301847617347207
 21
155.34874867363629
 31
0.0
  0
LINE
  5
450
  8
0
 10
75.899923828701503
 20
191.34874867363609
 30
0.0
 11
42.703771405992931
 21
191.34874867363609
 31
0.0
  0
LINE
  5
451
  8
1
 10
59.301847617347221
 20
218.34874867363601
 30
0.0
 11
59.301847617347221
 21
150.34874867363621
 31
0.0
  0
LINE
  5
452
  8
0
 10
41.301847617347221
 20
181.19189442414381
 30
0.0
 11
41.301847617347221
 21
156.34874867363629
 31
0.0
  0
LINE
  5
453
  8
0
 10
77.301847617347221
 20
181.1918944241439
 30
0.0
 11
77.301847617347221
 21
156.34874867363609
 31
0.0
  0
LINE
  5
454
  8
2
 10
52.801847617347221
 20
191.34874867363609
 30
0.0
 11
52.801847617347221
 21
155.34874867363609
 31
0.0
  0
LINE
  5
455
  8
2
 10
65.801847617347221
 20
191.34874867363609
 30
0.0
 11
65.801847617347221
 21
155.34874867363609
 31
0.0
  0
ARC
  5
456
  8
0
 10
45.301847617347107
 20
186.84874867363621
 30
0.0
 40
6.0
 50
150.0000000000075
 51
218.94244126897951
  0
ARC
  5
457
  8
0
 10
42.703771405992931
 20
188.34874867363621
 30
0.0
 40
3.0
 50
89.999999999999986
 51
150.0000000000075
  0
ARC
  5
458
  8
0
 10
38.301847617347107
 20
181.1918944241439
 30
0.0
 40
3.0
 50
0.0
 51
38.942441268979579
  0
ARC
  5
459
  8
0
 10
80.301847617347335
 20
181.1918944241439
 30
0.0
 40
3.0
 50
141.05755873102041
 51
180.0
  0
ARC
  5
45A
  8
0
 10
75.899923828701503
 20
188.34874867363621
 30
0.0
 40
3.0
 50
29.99999999999244
 51
90.000000000000028
  0
ARC
  5
45B
  8
0
 10
73.301847617347335
 20
186.84874867363621
 30
0.0
 40
6.0
 50
321.05755873102038
 51
29.99999999999244
  0
LINE
  5
46B
  8
0
 10
69.301847617347107
 20
213.34874867363609
 30
0.0
 11
49.301847617347327
 21
213.34874867363609
 31
0.0
  0
LINE
  5
46C
  8
2
 10
67.301847617347107
 20
197.34874867363609
 30
0.0
 11
51.301847617347327
 21
197.34874867363609
 31
0.0
  0
LINE
  5
46E
  8
0
 10
69.301847617347221
 20
213.34874867363609
 30
0.0
 11
69.301847617347107
 21
199.34874867363609
 31
0.0
  0
ARC
  5
46F
  8
2
 10
67.301847617347107
 20
199.34874867363609
 30
0.0
 40
2.0
 50
270.0
 51
328.26502552891969
  0
ARC
  5
470
  8
0
 10
51.301847617347327
 20
199.34874867363609
 30
0.0
 40
2.0
 50
180.0
 51
211.7349744710782
  0
LINE
  5
471
  8
0
 10
49.301847617347221
 20
213.34874867363609
 30
0.0
 11
49.301847617347327
 21
199.34874867363609
 31
0.0
  0
ARC
  5
478
  8
0
 10
59.301847617347107
 20
192.64710433849109
 30
0.0
 40
12.701644335144969
 50
58.091522508571408
 51
121.90847749142731
  0
LINE
  5
480
  8
0
 10
67.133253390986724
 20
202.18325522870231
 30
0.0
 11
72.345135296650142
 21
191.34874867363609
 31
0.0
  0
ARC
  5
482
  8
0
 10
64.429786999796647
 20
200.88276706201009
 30
0.0
 40
3.0
 50
25.689634106547039
 51
58.091522508571067
  0
ARC
  5
483
  8
0
 10
54.173908234897787
 20
200.88276706201009
 30
0.0
 40
3.0
 50
121.9084774914289
 51
154.31036589345291
  0
LINE
  5
484
  8
0
 10
51.470441843707697
 20
202.18325522870231
 30
0.0
 11
46.2585599380443
 21
191.34874867363609
 31
0.0
  0
ARC
  5
485
  8
2
 10
51.301847617347327
 20
199.34874867363609
 30
0.0
 40
2.0
 50
211.73497447108031
 51
270.0
  0
ARC
  5
486
  8
0
 10
67.301847617347107
 20
199.34874867363609
 30
0.0
 40
2.0
 50
328.2650255289218
 51
0.000000000000007
  0
ARC
  5
48A
  8
0
 10
372.30184761734711
 20
199.34874867363609
 30
0.0
 40
2.0
 50
270.0
 51
0.000000000000007
  0
LINE
  5
491
  8
0
 10
354.30184761734728
 20
213.34874867363609
 30
0.0
 11
354.30184761734739
 21
199.34874867363609
 31
0.0
  0
ARC
  5
492
  8
0
 10
356.30184761734739
 20
199.34874867363609
 30
0.0
 40
2.0
 50
180.0
 51
270.0
  0
LINE
  5
494
  8
0
 10
374.30184761734728
 20
213.34874867363609
 30
0.0
 11
374.30184761734711
 21
199.34874867363609
 31
0.0
  0
LINE
  5
495
  8
0
 10
372.30184761734711
 20
197.34874867363609
 30
0.0
 11
356.30184761734739
 21
197.34874867363609
 31
0.0
  0
LINE
  5
496
  8
0
 10
374.30184761734711
 20
213.34874867363609
 30
0.0
 11
354.30184761734739
 21
213.34874867363609
 31
0.0
  0
ARC
  5
4A6
  8
0
 10
378.30184761734751
 20
186.84874867363621
 30
0.0
 40
6.0
 50
321.05755873102038
 51
29.99999999999244
  0
ARC
  5
4A7
  8
0
 10
380.8999238287015
 20
188.34874867363621
 30
0.0
 40
3.0
 50
29.99999999999244
 51
90.000000000000028
  0
ARC
  5
4A8
  8
0
 10
385.30184761734751
 20
181.1918944241439
 30
0.0
 40
3.0
 50
141.05755873102041
 51
180.0
  0
ARC
  5
4A9
  8
0
 10
343.30184761734722
 20
181.1918944241439
 30
0.0
 40
3.0
 50
0.0
 51
38.942441268979579
  0
ARC
  5
4AA
  8
0
 10
347.703771405993
 20
188.34874867363621
 30
0.0
 40
3.0
 50
89.999999999999986
 51
150.0000000000075
  0
ARC
  5
4AB
  8
0
 10
350.30184761734722
 20
186.84874867363621
 30
0.0
 40
6.0
 50
150.0000000000075
 51
218.94244126897951
  0
LINE
  5
4AC
  8
2
 10
370.80184761734728
 20
191.34874867363609
 30
0.0
 11
370.80184761734728
 21
155.34874867363609
 31
0.0
  0
LINE
  5
4AD
  8
2
 10
357.80184761734728
 20
191.34874867363609
 30
0.0
 11
357.80184761734728
 21
155.34874867363609
 31
0.0
  0
LINE
  5
4AE
  8
0
 10
382.30184761734728
 20
181.1918944241439
 30
0.0
 11
382.30184761734728
 21
156.34874867363609
 31
0.0
  0
LINE
  5
4AF
  8
0
 10
346.30184761734728
 20
181.19189442414381
 30
0.0
 11
346.30184761734728
 21
156.34874867363629
 31
0.0
  0
LINE
  5
4B0
  8
1
 10
364.30184761734728
 20
218.34874867363601
 30
0.0
 11
364.30184761734728
 21
150.34874867363621
 31
0.0
  0
LINE
  5
4B1
  8
0
 10
380.8999238287015
 20
191.34874867363609
 30
0.0
 11
377.3451352966502
 21
191.34874867363609
 31
0.0
  0
LINE
  5
4B2
  8
0
 10
381.30184761734728
 20
155.34874867363609
 30
0.0
 11
347.30184761734728
 21
155.34874867363629
 31
0.0
  0
ARC
  5
4B3
  8
0
 10
347.30184761734722
 20
156.34874867363641
 30
0.0
 40
1.0
 50
180.0
 51
270.0
  0
ARC
  5
4B4
  8
0
 10
381.30184761734699
 20
156.34874867363609
 30
0.0
 40
1.0
 50
269.9999999999996
 51
0.0
  0
LINE
  5
4B5
  8
0
 10
382.30184761734728
 20
182.34874867363609
 30
0.0
 11
346.30184761734728
 21
182.34874867363609
 31
0.0
  0
LINE
  5
4B6
  8
0
 10
354.60086723195042
 20
198.2967668636723
 30
0.0
 11
349.77315456328648
 21
188.26087474229161
 31
0.0
  0
LINE
  5
4B7
  8
0
 10
374.00282800274408
 20
198.2967668636725
 30
0.0
 11
378.83054067140807
 21
188.26087474229161
 31
0.0
  0
LINE
  5
4C7
  8
2
 10
377.34513529665043
 20
191.34874867363609
 30
0.0
 11
351.25855993804458
 21
191.34874867363609
 31
0.0
  0
LINE
  5
4C8
  8
0
 10
347.703771405993
 20
191.34874867363621
 30
0.0
 11
351.25855993804453
 21
191.34874867363621
 31
0.0
  0
ARC
  5
4DF
  8
0
 10
375.67649654835338
 20
186.74363854781751
 30
0.0
 40
3.5
 50
270.0
 51
25.68963410654764
  0
ARC
  5
4E0
  8
0
 10
352.92719868634123
 20
186.74363854781751
 30
0.0
 40
3.5
 50
154.31036589345231
 51
270.0
  0
TEXT
  5
595
  8
0
 62
     3
 10
0.0
 20
0.0
 30
0.0
 40
10.0
  1
OC7
  7
STANDARD1
  0
ENDSEC
  0
EOF
