  0
SECTION
  2
HEADER
  9
$ACADVER
  1
AC1009
  9
$INSBASE
 10
0.0
 20
0.0
 30
0.0
  9
$EXTMIN
 10
-0.0167836434943638
 20
-2.961212742419888
 30
-0.0000000349181948
  9
$EXTMAX
 10
155.93852135244211
 20
83.313301395434095
 30
0.0000000814935746
  9
$LIMMIN
 10
0.0
 20
0.0
  9
$LIMMAX
 10
275.0
 20
175.0
  9
$ORTHOMODE
 70
     1
  9
$REGENMODE
 70
     1
  9
$FILLMODE
 70
     1
  9
$QTEXTMODE
 70
     0
  9
$MIRRTEXT
 70
     0
  9
$DRAGMODE
 70
     2
  9
$LTSCALE
 40
10.0
  9
$OSMODE
 70
   743
  9
$ATTMODE
 70
     1
  9
$TEXTSIZE
 40
0.2
  9
$TRACEWID
 40
0.05
  9
$TEXTSTYLE
  7
STANDARD
  9
$CLAYER
  8
0
  9
$CELTYPE
  6
BYLAYER
  9
$CECOLOR
 62
   256
  9
$DIMSCALE
 40
1.0
  9
$DIMASZ
 40
3.0
  9
$DIMEXO
 40
1.0
  9
$DIMDLI
 40
6.0
  9
$DIMRND
 40
0.0
  9
$DIMDLE
 40
0.0
  9
$DIMEXE
 40
1.0
  9
$DIMTP
 40
495.0
  9
$DIMTM
 40
0.0
  9
$DIMTXT
 40
3.0
  9
$DIMCEN
 40
0.0
  9
$DIMTSZ
 40
0.0
  9
$DIMTOL
 70
     0
  9
$DIMLIM
 70
     0
  9
$DIMTIH
 70
     0
  9
$DIMTOH
 70
     0
  9
$DIMSE1
 70
     0
  9
$DIMSE2
 70
     0
  9
$DIMTAD
 70
     1
  9
$DIMZIN
 70
     0
  9
$DIMBLK
  1

  9
$DIMASO
 70
     0
  9
$DIMSHO
 70
     0
  9
$DIMPOST
  1

  9
$DIMAPOST
  1

  9
$DIMALT
 70
     0
  9
$DIMALTD
 70
     2
  9
$DIMALTF
 40
25.399999999999999
  9
$DIMLFAC
 40
1.0
  9
$DIMTOFL
 70
     1
  9
$DIMTVP
 40
0.0
  9
$DIMTIX
 70
     1
  9
$DIMSOXD
 70
     0
  9
$DIMSAH
 70
     0
  9
$DIMBLK1
  1

  9
$DIMBLK2
  1

  9
$DIMSTYLE
  2
STANDARD
  9
$DIMCLRD
 70
     0
  9
$DIMCLRE
 70
     0
  9
$DIMCLRT
 70
     4
  9
$DIMTFAC
 40
1.0
  9
$DIMGAP
 40
1.0
  9
$LUNITS
 70
     2
  9
$LUPREC
 70
     4
  9
$SKETCHINC
 40
0.1
  9
$FILLETRAD
 40
0.5
  9
$AUNITS
 70
     0
  9
$AUPREC
 70
     0
  9
$MENU
  1
E:\r13\win\SUPPORT\ACAD
  9
$ELEVATION
 40
0.0
  9
$PELEVATION
 40
0.0
  9
$THICKNESS
 40
0.0
  9
$LIMCHECK
 70
     0
  9
$BLIPMODE
 70
     0
  9
$CHAMFERA
 40
0.0
  9
$CHAMFERB
 40
0.0
  9
$SKPOLY
 70
     0
  9
$TDCREATE
 40
2450653.5278402781
  9
$TDUPDATE
 40
2457870.658455648
  9
$TDINDWG
 40
0.0706160648
  9
$TDUSRTIMER
 40
0.0706160648
  9
$USRTIMER
 70
     1
  9
$ANGBASE
 50
0.0
  9
$ANGDIR
 70
     0
  9
$PDMODE
 70
     0
  9
$PDSIZE
 40
0.0
  9
$PLINEWID
 40
0.0
  9
$COORDS
 70
     2
  9
$SPLFRAME
 70
     0
  9
$SPLINETYPE
 70
     6
  9
$SPLINESEGS
 70
     8
  9
$ATTDIA
 70
     0
  9
$ATTREQ
 70
     1
  9
$HANDLING
 70
     1
  9
$HANDSEED
  5
2C0
  9
$SURFTAB1
 70
     6
  9
$SURFTAB2
 70
     6
  9
$SURFTYPE
 70
     6
  9
$SURFU
 70
     6
  9
$SURFV
 70
     6
  9
$UCSNAME
  2

  9
$UCSORG
 10
0.0
 20
0.0
 30
0.0
  9
$UCSXDIR
 10
1.0
 20
0.0
 30
0.0
  9
$UCSYDIR
 10
0.0
 20
1.0
 30
0.0
  9
$PUCSNAME
  2

  9
$PUCSORG
 10
0.0
 20
0.0
 30
0.0
  9
$PUCSXDIR
 10
1.0
 20
0.0
 30
0.0
  9
$PUCSYDIR
 10
0.0
 20
1.0
 30
0.0
  9
$USERI1
 70
     4
  9
$USERI2
 70
     1
  9
$USERI3
 70
     1
  9
$USERI4
 70
     0
  9
$USERI5
 70
     0
  9
$USERR1
 40
1.0
  9
$USERR2
 40
3.0
  9
$USERR3
 40
3.0
  9
$USERR4
 40
3.0
  9
$USERR5
 40
10.0
  9
$WORLDVIEW
 70
     1
  9
$SHADEDGE
 70
     3
  9
$SHADEDIF
 70
    70
  9
$TILEMODE
 70
     1
  9
$MAXACTVP
 70
    16
  9
$PLIMCHECK
 70
     0
  9
$PEXTMIN
 10
1.0000000000000000E+020
 20
1.0000000000000000E+020
 30
1.0000000000000000E+020
  9
$PEXTMAX
 10
-1.0000000000000000E+020
 20
-1.0000000000000000E+020
 30
-1.0000000000000000E+020
  9
$PLIMMIN
 10
0.0
 20
0.0
  9
$PLIMMAX
 10
12.0
 20
9.0
  9
$UNITMODE
 70
     0
  9
$VISRETAIN
 70
     0
  9
$PLINEGEN
 70
     0
  9
$PSLTSCALE
 70
     0
  0
ENDSEC
  0
SECTION
  2
TABLES
  0
TABLE
  2
VPORT
 70
     3
  0
VPORT
  2
*ACTIVE
 70
     0
 10
0.0
 20
0.0
 11
1.0
 21
1.0
 12
137.49160817825279
 22
86.019393628790056
 13
0.0
 23
0.0
 14
5.0
 24
5.0
 15
10.0
 25
10.0
 16
0.0
 26
0.0
 36
1.0
 17
0.0
 27
0.0
 37
0.0
 40
179.5268539102417
 41
2.0866372980910421
 42
50.0
 43
0.0
 44
0.0
 50
0.0
 51
0.0
 71
     0
 72
   100
 73
     1
 74
     0
 75
     0
 76
     0
 77
     0
 78
     0
  0
ENDTAB
  0
TABLE
  2
LTYPE
 70
     3
  0
LTYPE
  2
CONTINUOUS
 70
     0
  3
Solid Line
 72
    65
 73
     0
 40
0.0
  0
LTYPE
  2
CENTER
 70
     0
  3
____ _ ____ _ ____ _ ____ _ ____ _ ____ _ ____
 72
    65
 73
     4
 40
2.0
 49
1.25
 49
-0.25
 49
0.25
 49
-0.25
  0
LTYPE
  2
HIDDEN
 70
     0
  3
Hidden __ __ __ __ __ __ __ __ __ __ __ __ __ _
 72
    65
 73
     2
 40
0.375
 49
0.25
 49
-0.125
  0
ENDTAB
  0
TABLE
  2
LAYER
 70
     4
  0
LAYER
  2
0
 70
     0
 62
     7
  6
CONTINUOUS
  0
LAYER
  2
1
 70
     0
 62
     1
  6
CENTER
  0
LAYER
  2
2
 70
     0
 62
     2
  6
HIDDEN
  0
LAYER
  2
3
 70
     0
 62
     3
  6
CONTINUOUS
  0
ENDTAB
  0
TABLE
  2
STYLE
 70
     2
  0
STYLE
  2
STANDARD
 70
     0
 40
0.0
 41
1.0
 50
0.0
 71
     0
 42
0.2
  3
simplex
  4
bigfont
  0
STYLE
  2
STANDARD1
 70
     0
 40
0.0
 41
1.0
 50
0.0
 71
     0
 42
3.0
  3
txt
  4

  0
ENDTAB
  0
TABLE
  2
VIEW
 70
     0
  0
ENDTAB
  0
TABLE
  2
UCS
 70
     0
  0
ENDTAB
  0
TABLE
  2
APPID
 70
     4
  0
APPID
  2
ACAD
 70
     0
  0
APPID
  2
GENIUS_GENOREF_13
 70
     0
  0
APPID
  2
ACAD_EXEMPT_FROM_CAD_STANDARDS
 70
     0
  0
APPID
  2
ACAD_MLEADERVER
 70
     0
  0
ENDTAB
  0
TABLE
  2
DIMSTYLE
 70
     1
  0
DIMSTYLE
  2
STANDARD
 70
     0
  3

  4

  5

  6

  7

 40
1.0
 41
0.18
 42
0.0625
 43
0.38
 44
0.18
 45
0.0
 46
0.0
 47
0.0
 48
0.0
140
0.18
141
0.09
142
0.0
143
25.399999999999999
144
1.0
145
0.0
146
1.0
147
0.09
 71
     0
 72
     0
 73
     1
 74
     1
 75
     0
 76
     0
 77
     0
 78
     0
170
     0
171
     2
172
     0
173
     0
174
     0
175
     0
176
     0
177
     0
178
     0
  0
ENDTAB
  0
ENDSEC
  0
SECTION
  2
BLOCKS
  0
BLOCK
  8
0
  2
$MODEL_SPACE
 70
     0
 10
0.0
 20
0.0
 30
0.0
  3
$MODEL_SPACE
  1

  0
ENDBLK
  5
7
  8
0
  0
BLOCK
 67
     1
  8
0
  2
$PAPER_SPACE
 70
     0
 10
0.0
 20
0.0
 30
0.0
  3
$PAPER_SPACE
  1

  0
ENDBLK
  5
A
 67
     1
  8
0
  0
ENDSEC
  0
SECTION
  2
ENTITIES
  0
CIRCLE
  5
17D
  8
0
 10
40.535076444110977
 20
70.800082776609543
 30
0.0
 40
10.0
  0
LINE
  5
17F
  8
2
 10
79.480791939236994
 20
67.425082776609514
 30
0.0
 11
99.980791939236994
 21
67.425082776609472
 31
0.0
  0
LINE
  5
180
  8
2
 10
79.480791939236994
 20
66.800082776609514
 30
0.0
 11
95.980791939236994
 21
66.800082776609514
 31
0.0
  0
LINE
  5
181
  8
1
 10
110.48079193923699
 20
70.800082776609528
 30
0.0
 11
73.480791939237008
 21
70.800082776609543
 31
0.0
  0
LINE
  5
182
  8
2
 10
79.480791939236994
 20
74.175082776609528
 30
0.0
 11
99.980791939236951
 21
74.175082776609585
 31
0.0
  0
LINE
  5
183
  8
2
 10
79.480791939236994
 20
74.800082776609528
 30
0.0
 11
95.980791939236994
 21
74.800082776609528
 31
0.0
  0
ARC
  5
185
  8
0
 10
96.044488949212337
 20
10.82686839617093
 30
0.0
 40
70.0
 50
88.414912256182873
 51
106.3492747124852
  0
LINE
  5
186
  8
0
 10
75.980791939237008
 20
77.516535956460075
 30
0.0
 11
75.980791939236994
 21
64.083629596758996
 31
0.0
  0
LINE
  5
18A
  8
2
 10
79.480791939236994
 20
75.050082776609528
 30
0.0
 11
79.48079193923698
 21
66.550082776609528
 31
0.0
1001
GENIUS_GENOREF_13
1005
0
1005
0
  0
LINE
  5
18B
  8
2
 10
75.980791939237008
 20
75.050082776609528
 30
0.0
 11
79.480791939236994
 21
75.050082776609528
 31
0.0
  0
LINE
  5
18D
  8
2
 10
75.980791939236994
 20
66.550082776609528
 30
0.0
 11
79.480791939236994
 21
66.550082776609528
 31
0.0
  0
ARC
  5
18E
  8
0
 10
97.980791939236994
 20
70.800082776609514
 30
0.0
 40
10.0
 50
270.00000000000648
 51
89.999999999993491
  0
LINE
  5
18F
  8
2
 10
95.980791939236994
 20
74.800082776609528
 30
0.0
 11
95.980791939236994
 21
66.800082776609514
 31
0.0
  0
LINE
  5
190
  8
2
 10
99.980791939236994
 20
74.175082776609528
 30
0.0
 11
99.980791939236994
 21
67.425082776609415
 31
0.0
  0
ARC
  5
19F
  8
0
 10
76.480791939237022
 20
77.516535956460075
 30
0.0
 40
0.5
 50
106.349274712484
 51
180.0
  0
ARC
  5
1A0
  8
0
 10
96.044488949212365
 20
130.77329715704809
 30
0.0
 40
70.0
 50
253.65072528751469
 51
271.5850877438171
  0
ARC
  5
1A1
  8
0
 10
76.480791939237008
 20
64.083629596758996
 30
0.0
 40
0.5
 50
179.99999999999989
 51
253.65072528751591
  0
LINE
  5
1A3
  8
1
 10
40.535076444110977
 20
83.300082776609543
 30
0.0
 11
40.535076444110977
 21
58.300082776609543
 31
0.0
  0
LINE
  5
1A4
  8
1
 10
53.035076444110977
 20
70.800082776609543
 30
0.0
 11
28.035076444110981
 21
70.800082776609543
 31
0.0
  0
LINE
  5
1A5
  8
1
 10
143.426507434363
 20
83.300082776609543
 30
0.0
 11
143.426507434363
 21
58.300082776609543
 31
0.0
  0
CIRCLE
  5
1A6
  8
0
 10
143.426507434363
 20
70.800082776609543
 30
0.0
 40
10.0
  0
LINE
  5
1A7
  8
1
 10
130.926507434363
 20
70.800082776609543
 30
0.0
 11
155.926507434363
 21
70.800082776609543
 31
0.0
  0
CIRCLE
  5
1AB
  8
0
 10
40.535076444110977
 20
70.800082776609543
 30
0.0
 40
3.3749999999999849
  0
CIRCLE
  5
1AC
  8
3
 10
40.535076444110977
 20
70.800082776609543
 30
0.0
 40
3.9999999999999849
  0
CIRCLE
  5
1AD
  8
0
 10
40.535076444110977
 20
70.800082776609543
 30
0.0
 40
4.2499999999999849
  0
CIRCLE
  5
1B2
  8
0
 10
40.535076444110977
 20
70.800082776609543
 30
0.0
 40
7.0
  0
TEXT
  5
294
  8
0
 62
     3
 10
0.0
 20
0.0
 30
0.0
 40
10.0
  1
OG30M
  7
STANDARD1
  0
ENDSEC
  0
EOF
