  0
SECTION
  2
HEADER
  9
$ACADVER
  1
AC1009
  9
$INSBASE
 10
0.0
 20
0.0
 30
0.0
  9
$EXTMIN
 10
0.0
 20
-2.960436562073669
 30
0.0
  9
$EXTMAX
 10
277.0
 20
180.0
 30
0.0
  9
$LIMMIN
 10
0.0
 20
0.0
  9
$LIMMAX
 10
375.0
 20
270.0
  9
$ORTHOMODE
 70
     1
  9
$REGENMODE
 70
     1
  9
$FILLMODE
 70
     1
  9
$QTEXTMODE
 70
     0
  9
$MIRRTEXT
 70
     0
  9
$DRAGMODE
 70
     2
  9
$LTSCALE
 40
10.0
  9
$OSMODE
 70
  3071
  9
$ATTMODE
 70
     1
  9
$TEXTSIZE
 40
5.0
  9
$TRACEWID
 40
0.05
  9
$TEXTSTYLE
  7
STANDARD
  9
$CLAYER
  8
0
  9
$CELTYPE
  6
BYLAYER
  9
$CECOLOR
 62
   256
  9
$DIMSCALE
 40
1.0
  9
$DIMASZ
 40
3.0
  9
$DIMEXO
 40
2.0
  9
$DIMDLI
 40
0.38
  9
$DIMRND
 40
0.0
  9
$DIMDLE
 40
0.0
  9
$DIMEXE
 40
2.0
  9
$DIMTP
 40
0.0
  9
$DIMTM
 40
0.0
  9
$DIMTXT
 40
3.2000000000000002
  9
$DIMCEN
 40
0.09
  9
$DIMTSZ
 40
0.0
  9
$DIMTOL
 70
     0
  9
$DIMLIM
 70
     0
  9
$DIMTIH
 70
     0
  9
$DIMTOH
 70
     0
  9
$DIMSE1
 70
     0
  9
$DIMSE2
 70
     0
  9
$DIMTAD
 70
     1
  9
$DIMZIN
 70
     0
  9
$DIMBLK
  1

  9
$DIMASO
 70
     1
  9
$DIMSHO
 70
     0
  9
$DIMPOST
  1

  9
$DIMAPOST
  1

  9
$DIMALT
 70
     0
  9
$DIMALTD
 70
     2
  9
$DIMALTF
 40
25.399999999999999
  9
$DIMLFAC
 40
1.0
  9
$DIMTOFL
 70
     0
  9
$DIMTVP
 40
1.6000000000000001
  9
$DIMTIX
 70
     1
  9
$DIMSOXD
 70
     0
  9
$DIMSAH
 70
     0
  9
$DIMBLK1
  1

  9
$DIMBLK2
  1

  9
$DIMSTYLE
  2
STANDARD
  9
$DIMCLRD
 70
     0
  9
$DIMCLRE
 70
     0
  9
$DIMCLRT
 70
     0
  9
$DIMTFAC
 40
1.0
  9
$DIMGAP
 40
0.09
  9
$LUNITS
 70
     2
  9
$LUPREC
 70
     4
  9
$SKETCHINC
 40
0.1
  9
$FILLETRAD
 40
0.5
  9
$AUNITS
 70
     0
  9
$AUPREC
 70
     0
  9
$MENU
  1
E:\r13\win\SUPPORT\ACAD
  9
$ELEVATION
 40
0.0
  9
$PELEVATION
 40
0.0
  9
$THICKNESS
 40
0.0
  9
$LIMCHECK
 70
     0
  9
$BLIPMODE
 70
     0
  9
$CHAMFERA
 40
0.0
  9
$CHAMFERB
 40
0.0
  9
$SKPOLY
 70
     0
  9
$TDCREATE
 40
2449839.782916666
  9
$TDUPDATE
 40
2456597.5022339239
  9
$TDINDWG
 40
0.0410680671
  9
$TDUSRTIMER
 40
0.0410680671
  9
$USRTIMER
 70
     1
  9
$ANGBASE
 50
0.0
  9
$ANGDIR
 70
     0
  9
$PDMODE
 70
     0
  9
$PDSIZE
 40
0.0
  9
$PLINEWID
 40
0.0
  9
$COORDS
 70
     1
  9
$SPLFRAME
 70
     0
  9
$SPLINETYPE
 70
     6
  9
$SPLINESEGS
 70
     8
  9
$ATTDIA
 70
     0
  9
$ATTREQ
 70
     1
  9
$HANDLING
 70
     1
  9
$HANDSEED
  5
5EB
  9
$SURFTAB1
 70
     6
  9
$SURFTAB2
 70
     6
  9
$SURFTYPE
 70
     6
  9
$SURFU
 70
     6
  9
$SURFV
 70
     6
  9
$UCSNAME
  2

  9
$UCSORG
 10
0.0
 20
0.0
 30
0.0
  9
$UCSXDIR
 10
1.0
 20
0.0
 30
0.0
  9
$UCSYDIR
 10
0.0
 20
1.0
 30
0.0
  9
$PUCSNAME
  2

  9
$PUCSORG
 10
0.0
 20
0.0
 30
0.0
  9
$PUCSXDIR
 10
1.0
 20
0.0
 30
0.0
  9
$PUCSYDIR
 10
0.0
 20
1.0
 30
0.0
  9
$USERI1
 70
     0
  9
$USERI2
 70
     1
  9
$USERI3
 70
     1
  9
$USERI4
 70
     0
  9
$USERI5
 70
     0
  9
$USERR1
 40
0.0
  9
$USERR2
 40
0.0
  9
$USERR3
 40
0.0
  9
$USERR4
 40
0.0
  9
$USERR5
 40
0.0
  9
$WORLDVIEW
 70
     1
  9
$SHADEDGE
 70
     3
  9
$SHADEDIF
 70
    70
  9
$TILEMODE
 70
     1
  9
$MAXACTVP
 70
    16
  9
$PLIMCHECK
 70
     0
  9
$PEXTMIN
 10
1.0000000000000000E+020
 20
1.0000000000000000E+020
 30
1.0000000000000000E+020
  9
$PEXTMAX
 10
-1.0000000000000000E+020
 20
-1.0000000000000000E+020
 30
-1.0000000000000000E+020
  9
$PLIMMIN
 10
0.0
 20
0.0
  9
$PLIMMAX
 10
12.0
 20
9.0
  9
$UNITMODE
 70
     0
  9
$VISRETAIN
 70
     0
  9
$PLINEGEN
 70
     0
  9
$PSLTSCALE
 70
     0
  0
ENDSEC
  0
SECTION
  2
TABLES
  0
TABLE
  2
VPORT
 70
     1
  0
VPORT
  2
*ACTIVE
 70
     0
 10
0.0
 20
0.0
 11
1.0
 21
1.0
 12
187.49427839065231
 22
162.8616388594717
 13
0.0
 23
0.0
 14
10.0
 24
10.0
 15
10.0
 25
10.0
 16
0.0
 26
0.0
 36
1.0
 17
0.0
 27
0.0
 37
0.0
 40
334.81001162774987
 41
1.9089595375722539
 42
50.0
 43
0.0
 44
0.0
 50
0.0
 51
0.0
 71
     0
 72
   500
 73
     1
 74
     0
 75
     0
 76
     0
 77
     0
 78
     2
  0
ENDTAB
  0
TABLE
  2
LTYPE
 70
     3
  0
LTYPE
  2
CONTINUOUS
 70
     0
  3
Solid Line
 72
    65
 73
     0
 40
0.0
  0
LTYPE
  2
CENTER
 70
     0
  3
____ _ ____ _ ____ _ ____ _ ____ _ ____ _ ____
 72
    65
 73
     4
 40
2.0
 49
1.25
 49
-0.25
 49
0.25
 49
-0.25
  0
LTYPE
  2
PHANTOM2
 70
     0
  3
___ _ _ ___ _ _ ___ _ _ ___ _ _
 72
    65
 73
     6
 40
1.25
 49
0.625
 49
-0.125
 49
0.125
 49
-0.125
 49
0.125
 49
-0.125
  0
ENDTAB
  0
TABLE
  2
LAYER
 70
     4
  0
LAYER
  2
0
 70
     0
 62
     7
  6
CONTINUOUS
  0
LAYER
  2
1
 70
     0
 62
     1
  6
CENTER
  0
LAYER
  2
3
 70
     0
 62
     3
  6
CONTINUOUS
  0
LAYER
  2
DEFPOINTS
 70
     0
 62
     7
  6
CONTINUOUS
  0
ENDTAB
  0
TABLE
  2
STYLE
 70
     2
  0
STYLE
  2
STANDARD
 70
     0
 40
0.0
 41
1.0
 50
0.0
 71
     0
 42
5.0
  3
TXT
  4
BIGFONT
  0
STYLE
  2
STANDARD1
 70
     0
 40
0.0
 41
1.0
 50
0.0
 71
     0
 42
3.0
  3
txt
  4

  0
ENDTAB
  0
TABLE
  2
VIEW
 70
     1
  0
VIEW
  2
ALL
 70
     0
 40
270.0
 10
220.99159663865549
 20
135.0
 41
0.0
 11
0.0
 21
0.0
 31
1.0
 12
0.0
 22
0.0
 32
0.0
 42
0.0
 43
0.0
 44
0.0
 50
0.0
 71
     0
  0
ENDTAB
  0
TABLE
  2
UCS
 70
     0
  0
ENDTAB
  0
TABLE
  2
APPID
 70
    39
  0
APPID
  2
ACAD
 70
     0
  0
APPID
  2
GENIUS_GENOREF_13
 70
     0
  0
APPID
  2
DCO15
 70
     0
  0
APPID
  2
GENIUS_GENOENT_13
 70
     0
  0
APPID
  2
GENIUS_GENBH_13
 70
     0
  0
APPID
  2
GENIUS_GENOBJ_13
 70
     0
  0
APPID
  2
GENIUS_GENODEF_13
 70
     0
  0
APPID
  2
GENIUS_GENOLIS_13
 70
     0
  0
APPID
  2
GENIUS_GENOBJ-NBEHI-BHF_13
 70
     0
  0
APPID
  2
GENIUS_GENOBJ-NBEHI-BHB_13
 70
     0
  0
APPID
  2
GENIUS_GENOBJ-F-PART_13
 70
     0
  0
APPID
  2
GENIUS_GEFSTDP_13
 70
     0
  0
APPID
  2
GENIUS_GENOBJ-N-RSSYM_13
 70
     0
  0
APPID
  2
GENIUS_GENSYMENT_13
 70
     0
  0
APPID
  2
GENIUS_GENOBJ-N-TIT_13
 70
     0
  0
APPID
  2
GENIUS_GENTITLE_13
 70
     0
  0
APPID
  2
GENIUS_GENZVEED_13
 70
     0
  0
APPID
  2
GENIUS_GENOBJ-N-LEADER_13
 70
     0
  0
APPID
  2
GENIUS_GENOBJ-N-FIL_13
 70
     0
  0
APPID
  2
GENIUS_GENOBJ-N-SEC_13
 70
     0
  0
APPID
  2
GENIUS_GENOBJ-N-CRS_13
 70
     0
  0
APPID
  2
GENIUS_GENOBJ-N-ZOO_13
 70
     0
  0
APPID
  2
GENIUS_GENZOO_13
 70
     0
  0
APPID
  2
GENIUS_GENOBJ-F-TOL_13
 70
     0
  0
APPID
  2
GENIUS_GENFIL_13
 70
     0
  0
APPID
  2
GENIUS_GENOBJ-N-CHA_13
 70
     0
  0
APPID
  2
_CALL_MAC$
 70
     0
  0
APPID
  2
ASM_BASE
 70
     0
  0
APPID
  2
ASM_EXPLO_VER_2_00
 70
     0
  0
APPID
  2
ASM_CADM_VER_12_00
 70
     0
  0
APPID
  2
ASM_BASEFORO
 70
     0
  0
APPID
  2
ASM_BASETRAVI
 70
     0
  0
APPID
  2
ASM_BASETRAVI1
 70
     0
  0
APPID
  2
ASM_GRUPPI
 70
     0
  0
APPID
  2
ASM_CADM_ALBERO
 70
     0
  0
APPID
  2
ASM_GOLE
 70
     0
  0
APPID
  2
ACAD_EXEMPT_FROM_CAD_STANDARDS
 70
     0
  0
APPID
  2
ACAD_MLEADERVER
 70
     0
  0
APPID
  2
ACAD_NAV_VCDISPLAY
 70
     0
  0
ENDTAB
  0
TABLE
  2
DIMSTYLE
 70
     1
  0
DIMSTYLE
  2
STANDARD
 70
     0
  3

  4

  5

  6

  7

 40
1.0
 41
0.18
 42
0.0625
 43
0.38
 44
0.18
 45
0.0
 46
0.0
 47
0.0
 48
0.0
140
0.18
141
0.09
142
0.0
143
25.399999999999999
144
1.0
145
0.0
146
1.0
147
0.09
 71
     0
 72
     0
 73
     1
 74
     1
 75
     0
 76
     0
 77
     0
 78
     0
170
     0
171
     2
172
     0
173
     0
174
     0
175
     0
176
     0
177
     0
178
     0
  0
ENDTAB
  0
ENDSEC
  0
SECTION
  2
BLOCKS
  0
BLOCK
  8
0
  2
$MODEL_SPACE
 70
     0
 10
0.0
 20
0.0
 30
0.0
  3
$MODEL_SPACE
  1

  0
ENDBLK
  5
FA
  8
0
  0
BLOCK
 67
     1
  8
0
  2
$PAPER_SPACE
 70
     0
 10
0.0
 20
0.0
 30
0.0
  3
$PAPER_SPACE
  1

  0
ENDBLK
  5
F8
 67
     1
  8
0
  0
ENDSEC
  0
SECTION
  2
ENTITIES
  0
LINE
  5
34
  8
1
 10
105.0
 20
110.0
 30
0.0
 11
207.0
 21
110.0
 31
0.0
  0
CIRCLE
  5
35
  8
0
 10
50.0
 20
110.0
 30
0.0
 40
10.0
  0
CIRCLE
  5
36
  8
0
 10
50.0
 20
110.0
 30
0.0
 40
7.0
  0
LINE
  5
3C
  8
3
 10
120.0
 20
107.5415
 30
0.0
 11
110.4585
 21
107.5415
 31
0.0
  0
LINE
  5
3D
  8
3
 10
120.0
 20
112.4584999999999
 30
0.0
 11
110.4585
 21
112.4584999999999
 31
0.0
  0
LINE
  5
3E
  8
0
 10
111.0
 20
113.0
 30
0.0
 11
111.0
 21
106.9999999999999
 31
0.0
  0
LINE
  5
3F
  8
0
 10
110.0
 20
107.9999999999999
 30
0.0
 11
111.0
 21
106.9999999999999
 31
0.0
  0
LINE
  5
40
  8
0
 10
111.0
 20
113.0
 30
0.0
 11
110.0
 21
112.0
 31
0.0
  0
LINE
  5
41
  8
0
 10
111.0
 20
106.9999999999999
 30
0.0
 11
120.0
 21
107.0
 31
0.0
  0
LINE
  5
42
  8
0
 10
110.0
 20
112.0
 30
0.0
 11
110.0
 21
107.9999999999999
 31
0.0
  0
LINE
  5
43
  8
0
 10
120.0
 20
113.0
 30
0.0
 11
111.0
 21
113.0
 31
0.0
  0
ARC
  5
46
  8
0
 10
120.39999999999991
 20
107.39999999999991
 30
0.0
 40
0.4
 50
90.0
 51
180.0
  0
ARC
  5
47
  8
0
 10
121.59999999999999
 20
107.40000000000001
 30
0.0
 40
0.4
 50
359.99999999999937
 51
89.999999999999588
  0
ARC
  5
48
  8
0
 10
121.59999999999999
 20
112.59999999999999
 30
0.0
 40
0.4
 50
270.0000000000004
 51
0.0000000000006107
  0
ARC
  5
49
  8
0
 10
120.39999999999991
 20
112.59999999999999
 30
0.0
 40
0.4
 50
180.0
 51
270.0
  0
LINE
  5
4A
  8
0
 10
120.39999999999991
 20
107.7999999999999
 30
0.0
 11
121.59999999999999
 21
107.7999999999999
 31
0.0
  0
LINE
  5
4B
  8
0
 10
121.59999999999999
 20
112.2
 30
0.0
 11
120.39999999999991
 21
112.1999999999999
 31
0.0
  0
LINE
  5
4C
  8
0
 10
122.0000000000002
 20
114.0
 30
0.0
 11
121.9999999999999
 21
105.9999999999999
 31
0.0
  0
LINE
  5
4D
  8
0
 10
120.0
 20
106.9999999999999
 30
0.0
 11
120.0
 21
113.0
 31
0.0
  0
LINE
  5
50
  8
0
 10
122.0
 20
106.0
 30
0.0
 11
169.99999999999989
 21
106.0000000000001
 31
0.0
  0
LINE
  5
51
  8
0
 10
169.99999999999989
 20
113.9999999999999
 30
0.0
 11
122.0
 21
114.0
 31
0.0
  0
CIRCLE
  5
52
  8
0
 10
50.0
 20
110.0
 30
0.0
 40
4.0
  0
LINE
  5
53
  8
1
 10
65.0
 20
110.0
 30
0.0
 11
35.0
 21
110.0
 31
0.0
  0
LINE
  5
54
  8
1
 10
50.0
 20
125.0
 30
0.0
 11
50.0
 21
95.000000000000014
 31
0.0
  0
CIRCLE
  5
55
  8
0
 10
50.0
 20
110.0
 30
0.0
 40
3.0
  0
CIRCLE
  5
56
  8
3
 10
50.0
 20
110.0
 30
0.0
 40
2.458499999999999
  0
LINE
  5
58
  8
1
 10
262.0
 20
125.0
 30
0.0
 11
262.0
 21
95.000000000000014
 31
0.0
  0
LINE
  5
59
  8
1
 10
277.0
 20
110.0
 30
0.0
 11
246.99999999999989
 21
110.0
 31
0.0
  0
CIRCLE
  5
5A
  8
0
 10
262.0
 20
110.0
 30
0.0
 40
10.0
  0
LINE
  5
5D
  8
0
 10
169.99999999999989
 20
53.999999999999957
 30
0.0
 11
122.0
 21
53.999999999999979
 31
0.0
  0
LINE
  5
5E
  8
0
 10
122.0
 20
45.999999999999979
 30
0.0
 11
169.99999999999989
 21
46.000000000000149
 31
0.0
  0
LINE
  5
61
  8
0
 10
120.0
 20
46.999999999999972
 30
0.0
 11
120.0
 21
52.999999999999979
 31
0.0
  0
LINE
  5
62
  8
0
 10
122.0000000000003
 20
53.999999999999993
 30
0.0
 11
121.9999999999999
 21
45.999999999999957
 31
0.0
  0
LINE
  5
63
  8
0
 10
121.59999999999999
 20
52.199999999999982
 30
0.0
 11
120.39999999999991
 21
52.199999999999967
 31
0.0
  0
LINE
  5
64
  8
0
 10
120.39999999999991
 20
47.799999999999962
 30
0.0
 11
121.59999999999999
 21
47.799999999999983
 31
0.0
  0
ARC
  5
65
  8
0
 10
120.39999999999991
 20
52.59999999999998
 30
0.0
 40
0.4
 50
180.0
 51
270.0
  0
ARC
  5
66
  8
0
 10
121.59999999999999
 20
52.599999999999987
 30
0.0
 40
0.4
 50
270.0000000000004
 51
0.0000000000006107
  0
ARC
  5
67
  8
0
 10
121.59999999999999
 20
47.39999999999997
 30
0.0
 40
0.4
 50
359.99999999999937
 51
89.999999999999588
  0
ARC
  5
68
  8
0
 10
120.39999999999991
 20
47.399999999999963
 30
0.0
 40
0.4
 50
90.0
 51
180.0
  0
LINE
  5
6B
  8
0
 10
120.0
 20
52.999999999999979
 30
0.0
 11
111.0
 21
52.999999999999979
 31
0.0
  0
LINE
  5
6C
  8
0
 10
110.0
 20
51.999999999999993
 30
0.0
 11
110.0
 21
47.999999999999972
 31
0.0
  0
LINE
  5
6D
  8
0
 10
111.0
 20
46.999999999999972
 30
0.0
 11
120.0
 21
46.999999999999979
 31
0.0
  0
LINE
  5
6E
  8
0
 10
111.0
 20
52.999999999999979
 30
0.0
 11
110.0
 21
51.999999999999993
 31
0.0
  0
LINE
  5
6F
  8
0
 10
110.0
 20
47.999999999999972
 30
0.0
 11
111.0
 21
46.999999999999972
 31
0.0
  0
LINE
  5
70
  8
0
 10
111.0
 20
52.999999999999979
 30
0.0
 11
111.0
 21
46.999999999999972
 31
0.0
  0
LINE
  5
71
  8
3
 10
120.0
 20
52.458499999999987
 30
0.0
 11
110.4585
 21
52.458499999999987
 31
0.0
  0
LINE
  5
72
  8
3
 10
120.0
 20
47.541499999999978
 30
0.0
 11
110.4585
 21
47.541499999999978
 31
0.0
  0
LINE
  5
78
  8
1
 10
105.0
 20
49.999999999999993
 30
0.0
 11
207.0
 21
50.000000000000007
 31
0.0
  0
LINE
  5
7A
  8
0
 10
169.99999999999989
 20
173.99999999999989
 30
0.0
 11
122.0
 21
174.0
 31
0.0
  0
LINE
  5
7B
  8
0
 10
122.0
 20
166.0
 30
0.0
 11
169.99999999999989
 21
166.00000000000011
 31
0.0
  0
LINE
  5
7E
  8
0
 10
120.0
 20
166.99999999999989
 30
0.0
 11
120.0
 21
173.0
 31
0.0
  0
LINE
  5
7F
  8
0
 10
122.0000000000002
 20
174.0
 30
0.0
 11
121.9999999999999
 21
165.99999999999989
 31
0.0
  0
LINE
  5
80
  8
0
 10
121.59999999999999
 20
172.19999999999999
 30
0.0
 11
120.39999999999991
 21
172.19999999999999
 31
0.0
  0
LINE
  5
81
  8
0
 10
120.39999999999991
 20
167.7999999999999
 30
0.0
 11
121.59999999999999
 21
167.7999999999999
 31
0.0
  0
ARC
  5
82
  8
0
 10
120.39999999999991
 20
172.59999999999991
 30
0.0
 40
0.4
 50
180.0
 51
270.0
  0
ARC
  5
83
  8
0
 10
121.59999999999999
 20
172.59999999999991
 30
0.0
 40
0.4
 50
270.0000000000004
 51
0.0000000000006107
  0
ARC
  5
84
  8
0
 10
121.59999999999999
 20
167.39999999999989
 30
0.0
 40
0.4
 50
359.99999999999937
 51
89.999999999999588
  0
ARC
  5
85
  8
0
 10
120.39999999999991
 20
167.39999999999989
 30
0.0
 40
0.4
 50
90.0
 51
180.0
  0
LINE
  5
88
  8
0
 10
120.0
 20
173.0
 30
0.0
 11
111.0
 21
173.0
 31
0.0
  0
LINE
  5
89
  8
0
 10
110.0
 20
172.0
 30
0.0
 11
110.0
 21
167.99999999999989
 31
0.0
  0
LINE
  5
8A
  8
0
 10
111.0
 20
166.99999999999989
 30
0.0
 11
120.0
 21
167.0
 31
0.0
  0
LINE
  5
8B
  8
0
 10
111.0
 20
173.0
 30
0.0
 11
110.0
 21
172.0
 31
0.0
  0
LINE
  5
8C
  8
0
 10
110.0
 20
167.99999999999989
 30
0.0
 11
111.0
 21
166.99999999999989
 31
0.0
  0
LINE
  5
8D
  8
0
 10
111.0
 20
173.0
 30
0.0
 11
111.0
 21
166.99999999999989
 31
0.0
  0
LINE
  5
8E
  8
3
 10
120.0
 20
172.4584999999999
 30
0.0
 11
110.4585
 21
172.4584999999999
 31
0.0
  0
LINE
  5
8F
  8
3
 10
120.0
 20
167.54150000000001
 30
0.0
 11
110.4585
 21
167.54150000000001
 31
0.0
  0
LINE
  5
95
  8
1
 10
105.0
 20
170.0
 30
0.0
 11
207.0
 21
170.0
 31
0.0
  0
ARC
  5
4BB
  8
0
 10
190.0636970099753
 20
110.02678561956139
 30
0.0
 40
70.0
 50
88.414912256183044
 51
106.34927471248599
  0
LINE
  5
4BC
  8
0
 10
169.99999999999989
 20
176.7164531798505
 30
0.0
 11
169.99999999999989
 21
163.28354682014941
 31
0.0
  0
ARC
  5
4BD
  8
0
 10
191.99999999999989
 20
170.0
 30
0.0
 40
10.0
 50
270.00000000000648
 51
89.999999999993491
  0
ARC
  5
4BE
  8
0
 10
170.49999999999989
 20
176.7164531798505
 30
0.0
 40
0.5
 50
106.3492747124829
 51
180.0
  0
ARC
  5
4BF
  8
0
 10
190.0636970099753
 20
229.97321438043861
 30
0.0
 40
70.0
 50
253.65072528751389
 51
271.58508774381698
  0
ARC
  5
4C0
  8
0
 10
170.49999999999989
 20
163.28354682014941
 30
0.0
 40
0.5
 50
180.0
 51
253.6507252875171
  0
ARC
  5
4C1
  8
0
 10
190.0636970099753
 20
50.026785619561451
 30
0.0
 40
70.0
 50
88.414912256183001
 51
106.34927471248599
  0
LINE
  5
4C2
  8
0
 10
169.99999999999989
 20
116.7164531798506
 30
0.0
 11
169.99999999999989
 21
103.2835468201495
 31
0.0
  0
ARC
  5
4C3
  8
0
 10
191.99999999999989
 20
110.0
 30
0.0
 40
10.0
 50
270.00000000000648
 51
89.999999999993491
  0
ARC
  5
4C4
  8
0
 10
170.49999999999989
 20
116.7164531798506
 30
0.0
 40
0.5
 50
106.3492747124829
 51
180.0
  0
ARC
  5
4C5
  8
0
 10
190.0636970099753
 20
169.97321438043861
 30
0.0
 40
70.0
 50
253.65072528751389
 51
271.5850877438171
  0
ARC
  5
4C6
  8
0
 10
170.49999999999989
 20
103.2835468201495
 30
0.0
 40
0.5
 50
180.0
 51
253.6507252875171
  0
ARC
  5
4C7
  8
0
 10
190.0636970099753
 20
-9.9732143804386055
 30
0.0
 40
70.0
 50
88.414912256183001
 51
106.34927471248599
  0
LINE
  5
4C8
  8
0
 10
169.99999999999989
 20
56.716453179850532
 30
0.0
 11
169.99999999999989
 21
43.283546820149461
 31
0.0
  0
ARC
  5
4C9
  8
0
 10
191.99999999999989
 20
50.0
 30
0.0
 40
10.0
 50
270.00000000000648
 51
89.999999999993491
  0
ARC
  5
4CA
  8
0
 10
170.49999999999989
 20
56.716453179850532
 30
0.0
 40
0.5
 50
106.3492747124829
 51
180.0
  0
ARC
  5
4CB
  8
0
 10
190.0636970099753
 20
109.97321438043861
 30
0.0
 40
70.0
 50
253.65072528751389
 51
271.5850877438171
  0
ARC
  5
4CC
  8
0
 10
170.49999999999989
 20
43.283546820149461
 30
0.0
 40
0.5
 50
180.0
 51
253.6507252875171
  0
TEXT
  5
587
  8
0
 62
     3
 10
0.0
 20
0.0
 30
0.0
 40
10.0
  1
OGL6X80
  7
STANDARD1
  0
ENDSEC
  0
EOF
