  0
SECTION
  2
HEADER
  9
$ACADVER
  1
AC1009
  9
$INSBASE
 10
0.0
 20
0.0
 30
0.0
  9
$EXTMIN
 10
0.0
 20
-2.960436562073669
 30
0.0
  9
$EXTMAX
 10
740.50000000000091
 20
273.5
 30
0.0
  9
$LIMMIN
 10
0.0
 20
0.0
  9
$LIMMAX
 10
385.0
 20
270.0
  9
$ORTHOMODE
 70
     1
  9
$REGENMODE
 70
     1
  9
$FILLMODE
 70
     1
  9
$QTEXTMODE
 70
     0
  9
$MIRRTEXT
 70
     0
  9
$DRAGMODE
 70
     2
  9
$LTSCALE
 40
10.0
  9
$OSMODE
 70
    37
  9
$ATTMODE
 70
     1
  9
$TEXTSIZE
 40
4.0
  9
$TRACEWID
 40
0.05
  9
$TEXTSTYLE
  7
STANDARD
  9
$CLAYER
  8
0
  9
$CELTYPE
  6
BYLAYER
  9
$CECOLOR
 62
   256
  9
$DIMSCALE
 40
1.0
  9
$DIMASZ
 40
3.0
  9
$DIMEXO
 40
1.0
  9
$DIMDLI
 40
6.0
  9
$DIMRND
 40
0.0
  9
$DIMDLE
 40
0.0
  9
$DIMEXE
 40
1.0
  9
$DIMTP
 40
495.0
  9
$DIMTM
 40
0.0
  9
$DIMTXT
 40
3.0
  9
$DIMCEN
 40
0.0
  9
$DIMTSZ
 40
0.0
  9
$DIMTOL
 70
     0
  9
$DIMLIM
 70
     0
  9
$DIMTIH
 70
     0
  9
$DIMTOH
 70
     0
  9
$DIMSE1
 70
     0
  9
$DIMSE2
 70
     0
  9
$DIMTAD
 70
     1
  9
$DIMZIN
 70
     8
  9
$DIMBLK
  1

  9
$DIMASO
 70
     1
  9
$DIMSHO
 70
     0
  9
$DIMPOST
  1

  9
$DIMAPOST
  1

  9
$DIMALT
 70
     0
  9
$DIMALTD
 70
     2
  9
$DIMALTF
 40
25.399999999999999
  9
$DIMLFAC
 40
1.0
  9
$DIMTOFL
 70
     1
  9
$DIMTVP
 40
0.0
  9
$DIMTIX
 70
     0
  9
$DIMSOXD
 70
     0
  9
$DIMSAH
 70
     0
  9
$DIMBLK1
  1

  9
$DIMBLK2
  1

  9
$DIMSTYLE
  2
STANDARD
  9
$DIMCLRD
 70
     0
  9
$DIMCLRE
 70
     0
  9
$DIMCLRT
 70
     0
  9
$DIMTFAC
 40
1.0
  9
$DIMGAP
 40
1.0
  9
$LUNITS
 70
     2
  9
$LUPREC
 70
     1
  9
$SKETCHINC
 40
0.1
  9
$FILLETRAD
 40
2.0
  9
$AUNITS
 70
     0
  9
$AUPREC
 70
     1
  9
$MENU
  1
E:\r13\win\SUPPORT\ACAD
  9
$ELEVATION
 40
0.0
  9
$PELEVATION
 40
0.0
  9
$THICKNESS
 40
0.0
  9
$LIMCHECK
 70
     0
  9
$BLIPMODE
 70
     0
  9
$CHAMFERA
 40
0.0
  9
$CHAMFERB
 40
0.0
  9
$SKPOLY
 70
     0
  9
$TDCREATE
 40
2450541.3939600689
  9
$TDUPDATE
 40
2458232.6388201052
  9
$TDINDWG
 40
2.2489077199
  9
$TDUSRTIMER
 40
2.2489077199
  9
$USRTIMER
 70
     1
  9
$ANGBASE
 50
0.0
  9
$ANGDIR
 70
     0
  9
$PDMODE
 70
     0
  9
$PDSIZE
 40
0.0
  9
$PLINEWID
 40
0.0
  9
$COORDS
 70
     1
  9
$SPLFRAME
 70
     0
  9
$SPLINETYPE
 70
     6
  9
$SPLINESEGS
 70
     8
  9
$ATTDIA
 70
     0
  9
$ATTREQ
 70
     1
  9
$HANDLING
 70
     1
  9
$HANDSEED
  5
20964
  9
$SURFTAB1
 70
     6
  9
$SURFTAB2
 70
     6
  9
$SURFTYPE
 70
     6
  9
$SURFU
 70
     6
  9
$SURFV
 70
     6
  9
$UCSNAME
  2

  9
$UCSORG
 10
0.0
 20
0.0
 30
0.0
  9
$UCSXDIR
 10
1.0
 20
0.0
 30
0.0
  9
$UCSYDIR
 10
0.0
 20
1.0
 30
0.0
  9
$PUCSNAME
  2

  9
$PUCSORG
 10
0.0
 20
0.0
 30
0.0
  9
$PUCSXDIR
 10
1.0
 20
0.0
 30
0.0
  9
$PUCSYDIR
 10
0.0
 20
1.0
 30
0.0
  9
$USERI1
 70
     3
  9
$USERI2
 70
     1
  9
$USERI3
 70
     1
  9
$USERI4
 70
     0
  9
$USERI5
 70
     0
  9
$USERR1
 40
1.0
  9
$USERR2
 40
3.0
  9
$USERR3
 40
3.0
  9
$USERR4
 40
3.0
  9
$USERR5
 40
10.0
  9
$WORLDVIEW
 70
     1
  9
$SHADEDGE
 70
     3
  9
$SHADEDIF
 70
    70
  9
$TILEMODE
 70
     1
  9
$MAXACTVP
 70
    16
  9
$PLIMCHECK
 70
     0
  9
$PEXTMIN
 10
1.0000000000000000E+020
 20
1.0000000000000000E+020
 30
1.0000000000000000E+020
  9
$PEXTMAX
 10
-1.0000000000000000E+020
 20
-1.0000000000000000E+020
 30
-1.0000000000000000E+020
  9
$PLIMMIN
 10
0.0
 20
0.0
  9
$PLIMMAX
 10
12.0
 20
9.0
  9
$UNITMODE
 70
     0
  9
$VISRETAIN
 70
     0
  9
$PLINEGEN
 70
     0
  9
$PSLTSCALE
 70
     0
  0
ENDSEC
  0
SECTION
  2
TABLES
  0
TABLE
  2
VPORT
 70
     1
  0
VPORT
  2
*ACTIVE
 70
     0
 10
0.0
 20
0.0
 11
1.0
 21
1.0
 12
544.8717948717948
 22
300.0
 13
0.0
 23
0.0
 14
5.0
 24
5.0
 15
10.0
 25
10.0
 16
0.0
 26
0.0
 36
1.0
 17
0.0
 27
0.0
 37
0.0
 40
600.0
 41
1.816239316239316
 42
50.0
 43
0.0
 44
0.0
 50
0.0
 51
0.0
 71
     0
 72
   100
 73
     1
 74
     0
 75
     0
 76
     0
 77
     0
 78
     0
  0
ENDTAB
  0
TABLE
  2
LTYPE
 70
     4
  0
LTYPE
  2
CONTINUOUS
 70
     0
  3
Solid Line
 72
    65
 73
     0
 40
0.0
  0
LTYPE
  2
CENTER
 70
     0
  3
____ _ ____ _ ____ _ ____ _ ____ _ ____ _ ____
 72
    65
 73
     4
 40
2.0
 49
1.25
 49
-0.25
 49
0.25
 49
-0.25
  0
LTYPE
  2
HIDDEN
 70
     0
  3
_ _ _ _ _ _ _ _ _ _ _ _ _ _ _ _ _ _ _ _ _ _ _
 72
    65
 73
     2
 40
0.375
 49
0.25
 49
-0.125
  0
LTYPE
  2
PHANTOM2
 70
     0
  3
___ _ _ ___ _ _ ___ _ _ ___ _ _
 72
    65
 73
     6
 40
1.25
 49
0.625
 49
-0.125
 49
0.125
 49
-0.125
 49
0.125
 49
-0.125
  0
ENDTAB
  0
TABLE
  2
LAYER
 70
     6
  0
LAYER
  2
0
 70
     0
 62
     7
  6
CONTINUOUS
  0
LAYER
  2
1
 70
     0
 62
     1
  6
CENTER
  0
LAYER
  2
2
 70
     0
 62
     2
  6
HIDDEN
  0
LAYER
  2
DEFPOINTS
 70
     0
 62
     7
  6
CONTINUOUS
  0
LAYER
  2
4
 70
     0
 62
     4
  6
CONTINUOUS
  0
LAYER
  2
3
 70
     0
 62
     3
  6
CONTINUOUS
  0
ENDTAB
  0
TABLE
  2
STYLE
 70
     2
  0
STYLE
  2
STANDARD
 70
     0
 40
0.0
 41
1.0
 50
0.0
 71
     0
 42
4.0
  3
SIMPLEX
  4
BIGFONT
  0
STYLE
  2
STANDARD1
 70
     0
 40
0.0
 41
1.0
 50
0.0
 71
     0
 42
3.0
  3
txt
  4

  0
ENDTAB
  0
TABLE
  2
VIEW
 70
     0
  0
ENDTAB
  0
TABLE
  2
UCS
 70
     0
  0
ENDTAB
  0
TABLE
  2
APPID
 70
   136
  0
APPID
  2
ACAD
 70
     0
  0
APPID
  2
ASM_BASE
 70
     0
  0
APPID
  2
ASM_EXPLO_VER_2_00
 70
     0
  0
APPID
  2
ASM_CADM_VER_12_00
 70
     0
  0
APPID
  2
ASM_BASEFORO
 70
     0
  0
APPID
  2
ASM_BASETRAVI
 70
     0
  0
APPID
  2
ASM_BASETRAVI1
 70
     0
  0
APPID
  2
ASM_GRUPPI
 70
     0
  0
APPID
  2
ASM_CADM_ALBERO
 70
     0
  0
APPID
  2
ASM_GOLE
 70
     0
  0
APPID
  2
ACAD_EXEMPT_FROM_CAD_STANDARDS
 70
     0
  0
APPID
  2
ACAD_DSTYLE_DIMJAG
 70
     0
  0
APPID
  2
ACAD_DSTYLE_DIMTALN
 70
     0
  0
APPID
  2
ACAD_MLEADERVER
 70
     0
  0
APPID
  2
ACAD_NAV_VCDISPLAY
 70
     0
  0
APPID
  2
ACAD_DSTYLE_DIMRADIAL_EXTENSION
 70
     0
  0
APPID
  2
DCO15
 70
     0
  0
APPID
  2
ACADANNOTATIVE
 70
     0
  0
APPID
  2
GENIUS_GENODEF_13
 70
     0
  0
APPID
  2
GENIUS_GENFIL_13
 70
     0
  0
APPID
  2
GENIUS_GENOBJ-N-CHA_13
 70
     0
  0
APPID
  2
GENIUS_GENOREF_13
 70
     0
  0
APPID
  2
GENIUS_GENOENT_13
 70
     0
  0
APPID
  2
GENIUS_GENBH_13
 70
     0
  0
APPID
  2
GENIUS_GENOBJ_13
 70
     0
  0
APPID
  2
GENIUS_GENOLIS_13
 70
     0
  0
APPID
  2
GENIUS_GENOBJ-NBEHI-BHF_13
 70
     0
  0
APPID
  2
GENIUS_GENOBJ-NBEHI-BHB_13
 70
     0
  0
APPID
  2
GENIUS_GENOBJ-F-PART_13
 70
     0
  0
APPID
  2
GENIUS_GEFSTDP_13
 70
     0
  0
APPID
  2
GENIUS_GENOBJ-N-RSSYM_13
 70
     0
  0
APPID
  2
GENIUS_GENSYMENT_13
 70
     0
  0
APPID
  2
GENIUS_GENOBJ-N-TIT_13
 70
     0
  0
APPID
  2
GENIUS_GENTITLE_13
 70
     0
  0
APPID
  2
GENIUS_GENZVEED_13
 70
     0
  0
APPID
  2
GENIUS_GENOBJ-N-LEADER_13
 70
     0
  0
APPID
  2
GENIUS_GENOBJ-N-FIL_13
 70
     0
  0
APPID
  2
GENIUS_GENOBJ-N-SEC_13
 70
     0
  0
APPID
  2
GENIUS_GENOBJ-N-CRS_13
 70
     0
  0
APPID
  2
GENIUS_GENOBJ-N-ZOO_13
 70
     0
  0
APPID
  2
GENIUS_GENZOO_13
 70
     0
  0
APPID
  2
GENIUS_GENOBJ-F-TOL_13
 70
     0
  0
APPID
  2
_CALL_MAC$
 70
     0
  0
APPID
  2
_FTCNV
 70
     0
  0
APPID
  2
_PHO
 70
     0
  0
APPID
  2
_CLP
 70
     0
  0
APPID
  2
MOJIGUMI_PARTS
 70
     0
  0
APPID
  2
_DBL
 70
     0
  0
APPID
  2
_PWH
 70
     0
  0
APPID
  2
_G9P
 70
     0
  0
APPID
  2
AME_SOL
 70
     0
  0
APPID
  2
HAKO_DEF
 70
     0
  0
APPID
  2
HAKO_TXT
 70
     0
  0
APPID
  2
HAKO_OVR
 70
     0
  0
APPID
  2
GENIUS_GENCFG_13
 70
     0
  0
APPID
  2
GENIUS_GENCFG0_13
 70
     0
  0
APPID
  2
GENIUS_GENCFG1_13
 70
     0
  0
APPID
  2
GENIUS_GENCFG2_13
 70
     0
  0
APPID
  2
GENIUS_GENCFG3_13
 70
     0
  0
APPID
  2
GENIUS_GENCFG4_13
 70
     0
  0
APPID
  2
GENIUS_GEVCFG0_13
 70
     0
  0
APPID
  2
GENIUS_GENHATCH_13
 70
     0
  0
APPID
  2
GENIUS_GEFCFG0_13
 70
     0
  0
APPID
  2
GENIUS_GENOBJ-N-HTC_13
 70
     0
  0
APPID
  2
AVE_RENDER
 70
     0
  0
APPID
  2
AVE_ENTITY_MATERIAL
 70
     0
  0
APPID
  2
AVE_FINISH
 70
     0
  0
APPID
  2
AVE_MATERIAL
 70
     0
  0
APPID
  2
AVE_GLOBAL
 70
     0
  0
APPID
  2
_NUM
 70
     0
  0
APPID
  2
HAKO_FNM
 70
     0
  0
APPID
  2
ACA_CADIMENU
 70
     0
  0
APPID
  2
AUTOCAD_POSTSCRIPT_FIGURE
 70
     0
  0
APPID
  2
GEV_VCCNULL_SWITCH_OFF
 70
     0
  0
APPID
  2
GENIUS_GENDTOL_13
 70
     0
  0
APPID
  2
GENIUS_GEFWELD_13
 70
     0
  0
APPID
  2
GENIUS_GENOBJ-F-WELS_13
 70
     0
  0
APPID
  2
GEVID961514679
 70
     0
  0
APPID
  2
GEVDC
 70
     0
  0
APPID
  2
GEVPT
 70
     0
  0
APPID
  2
GEVIT
 70
     0
  0
APPID
  2
VCC
 70
     0
  0
APPID
  2
GENBH
 70
     0
  0
APPID
  2
GEVMK
 70
     0
  0
APPID
  2
GENIUS_GENOBJ-F-DESC_13
 70
     0
  0
APPID
  2
GENIUS_GEFDESC_14
 70
     0
  0
APPID
  2
GENIUS_GEFPARTINS_13
 70
     0
  0
APPID
  2
GEVID961514680
 70
     0
  0
APPID
  2
GENIUS_GENTRA_14
 70
     0
  0
APPID
  2
GENIUS_GENINF13_13
 70
     0
  0
APPID
  2
GENIUS_GENOBJ-N-INFOPT_13
 70
     0
  0
APPID
  2
GENIUS_GENSCSYM_13
 70
     0
  0
APPID
  2
GENIUS_GEFINFNAM_13
 70
     0
  0
APPID
  2
GENIUS_GENREC_14
 70
     0
  0
APPID
  2
GENIUS_GENOBJ-N-REC_13
 70
     0
  0
APPID
  2
GEVID962097543
 70
     0
  0
APPID
  2
GEVID962097544
 70
     0
  0
APPID
  2
GEVID962097545
 70
     0
  0
APPID
  2
GENIUS_DUMCFG0_13
 70
     0
  0
APPID
  2
GEVID962352965
 70
     0
  0
APPID
  2
GEVID962352966
 70
     0
  0
APPID
  2
GEVID962352968
 70
     0
  0
APPID
  2
GEVRADREF
 70
     0
  0
APPID
  2
GEVID963230099
 70
     0
  0
APPID
  2
GENIUS_GENOBJ-F-FEAT_13
 70
     0
  0
APPID
  2
GENIUS_GEFFEAT_14
 70
     0
  0
APPID
  2
GEVID963230100
 70
     0
  0
APPID
  2
GEVID963230101
 70
     0
  0
APPID
  2
GENIUS_GENHINW_13
 70
     0
  0
APPID
  2
GENIUS_FIRSTVISTXT_14
 70
     0
  0
APPID
  2
GEVID971698136
 70
     0
  0
APPID
  2
GEVID972029070
 70
     0
  0
APPID
  2
MCAD_NO_VIS
 70
     0
  0
APPID
  2
ACAD_TEMP_GRAPHIC
 70
     0
  0
APPID
  2
ACATTRIBSERVICES
 70
     0
  0
APPID
  2
GENIUS_GENDIMSH_14
 70
     0
  0
APPID
  2
CONTENTTABDATA
 70
     0
  0
APPID
  2
CONTENTCURRENTTAB
 70
     0
  0
APPID
  2
GENIUS_GENBLKED_14
 70
     0
  0
APPID
  2
GENIUS_GEFINERT_13
 70
     0
  0
APPID
  2
GENIUS_GENOBJ-F-INER_13
 70
     0
  0
APPID
  2
GENIUS_GENOBJ-N-REV_13
 70
     0
  0
APPID
  2
GENIUS_GENREC_13
 70
     0
  0
APPID
  2
GENIUS_GENOBJ-N-CEN_13
 70
     0
  0
APPID
  2
_KTH
 70
     0
  0
APPID
  2
GENIUS_GENOBJ-F-ROD_13
 70
     0
  0
APPID
  2
GENIUS_GENOBJ-F-SPR_13
 70
     0
  0
APPID
  2
GENIUS_GEFSPRING_13
 70
     0
  0
APPID
  2
GENIUS_GENOBJ-F-FEM_13
 70
     0
  0
APPID
  2
GENIUS_GEFFEM_13
 70
     0
  0
APPID
  2
GENIUS_GENSCREG_13
 70
     0
  0
APPID
  2
GENIUS_GENOBJ-N-SDF_13
 70
     0
  0
APPID
  2
ACAD_DIMASSOC_DIMLFAC
 70
     0
  0
APPID
  2
ACAD_DIMASSOC_CALC_DIMLFAC
 70
     0
  0
APPID
  2
ACAD_DIMASSOC_OVERRIDDEN_D
 70
     0
  0
APPID
  2
ACADANNOMONITORALERTICONDI
 70
     0
  0
ENDTAB
  0
TABLE
  2
DIMSTYLE
 70
     1
  0
DIMSTYLE
  2
STANDARD
 70
     0
  3

  4

  5

  6

  7

 40
1.0
 41
0.18
 42
0.0625
 43
0.38
 44
0.18
 45
0.0
 46
0.0
 47
0.0
 48
0.0
140
0.18
141
0.09
142
0.0
143
25.399999999999999
144
1.0
145
0.0
146
1.0
147
0.09
 71
     0
 72
     0
 73
     1
 74
     1
 75
     0
 76
     0
 77
     0
 78
     0
170
     0
171
     2
172
     0
173
     0
174
     0
175
     0
176
     0
177
     0
178
     0
  0
ENDTAB
  0
ENDSEC
  0
SECTION
  2
BLOCKS
  0
BLOCK
  8
0
  2
$MODEL_SPACE
 70
     0
 10
0.0
 20
0.0
 30
0.0
  3
$MODEL_SPACE
  1

  0
ENDBLK
  5
1CD3
  8
0
  0
BLOCK
 67
     1
  8
0
  2
$PAPER_SPACE
 70
     0
 10
0.0
 20
0.0
 30
0.0
  3
$PAPER_SPACE
  1

  0
ENDBLK
  5
1CD1
 67
     1
  8
0
  0
ENDSEC
  0
SECTION
  2
ENTITIES
  0
TEXT
  5
1E926
  8
0
 62
     3
 10
0.0
 20
0.0
 30
0.0
 40
10.0
  1
OTH30-495EP
  7
STANDARD1
  0
LINE
  5
1E927
  8
0
 10
570.5
 20
273.5
 30
0.0
 11
543.50000000000023
 21
273.5
 31
0.0
  0
LINE
  5
1E928
  8
0
 10
120.5
 20
273.5
 30
0.0
 11
93.500000000000014
 21
273.5
 31
0.0
  0
LINE
  5
1E929
  8
0
 10
120.5
 20
240.0
 30
0.0
 11
543.5
 21
240.0
 31
0.0
  0
LINE
  5
1E92A
  8
0
 10
543.5
 20
270.0
 30
0.0
 11
120.5
 21
270.0
 31
0.0
  0
LINE
  5
1E92B
  8
0
 10
70.0
 20
240.0
 30
0.0
 11
93.500000000000014
 21
240.0
 31
0.0
  0
LINE
  5
1E92C
  8
0
 10
93.500000000000014
 20
270.0
 30
0.0
 11
70.0
 21
270.0
 31
0.0
  0
LINE
  5
1E92D
  8
0
 10
570.5
 20
240.0
 30
0.0
 11
594.00000000000023
 21
240.0
 31
0.0
  0
LINE
  5
1E92E
  8
0
 10
594.00000000000023
 20
270.0
 30
0.0
 11
570.5
 21
270.0
 31
0.0
  0
LINE
  5
1E92F
  8
0
 10
570.5
 20
273.5
 30
0.0
 11
570.5
 21
198.5
 31
0.0
  0
LINE
  5
1E930
  8
0
 10
543.50000000000023
 20
273.5
 30
0.0
 11
543.50000000000023
 21
198.5
 31
0.0
  0
LINE
  5
1E931
  8
0
 10
70.0
 20
270.0
 30
0.0
 11
70.0
 21
240.0
 31
0.0
  0
LINE
  5
1E932
  8
0
 10
594.00000000000023
 20
270.0
 30
0.0
 11
594.00000000000023
 21
240.0
 31
0.0
  0
LINE
  5
1E933
  8
0
 10
570.5
 20
198.5
 30
0.0
 11
543.50000000000023
 21
198.5
 31
0.0
  0
LINE
  5
1E934
  8
0
 10
93.500000000000014
 20
198.5
 30
0.0
 11
120.5
 21
198.5
 31
0.0
  0
LINE
  5
1E935
  8
0
 10
93.500000000000014
 20
273.5
 30
0.0
 11
93.500000000000014
 21
198.5
 31
0.0
  0
LINE
  5
1E936
  8
0
 10
120.5
 20
273.5
 30
0.0
 11
120.5
 21
198.5
 31
0.0
  0
CIRCLE
  5
1E937
  8
0
 10
720.5000000000008
 20
120.0
 30
0.0
 40
15.0
  0
LINE
  5
1E938
  8
0
 10
706.00000000000091
 20
70.0
 30
0.0
 11
735.27716731822125
 21
108.86962147771609
 31
0.0
  0
LINE
  5
1E939
  8
0
 10
664.00000000000091
 20
70.0
 30
0.0
 11
706.00000000000091
 21
70.0
 31
0.0
  0
ARC
  5
1E93A
  8
0
 10
764.08010347280265
 20
46.72908706403404
 30
0.0
 40
102.7500000000002
 50
124.42010373629419
 51
166.91002403706099
  0
ARC
  5
1E93B
  8
0
 10
720.5000000000008
 20
120.0
 30
0.0
 40
18.5
 50
323.0124061269338
 51
141.60833263814939
  0
LINE
  5
1E93C
  8
2
 10
687.25000000000091
 20
87.5
 30
0.0
 11
678.75000000000091
 21
87.5
 31
0.0
  0
LINE
  5
1E93D
  8
2
 10
687.25000000000091
 20
70.0
 30
0.0
 11
687.25000000000091
 21
87.5
 31
0.0
  0
LINE
  5
1E93E
  8
2
 10
678.75000000000091
 20
87.5
 30
0.0
 11
678.75000000000091
 21
70.0
 31
0.0
  0
LINE
  5
1E93F
  8
0
 10
570.5
 20
105.0
 30
0.0
 11
594.00000000000023
 21
105.0
 31
0.0
  0
LINE
  5
1E940
  8
0
 10
594.00000000000023
 20
135.0
 30
0.0
 11
570.5
 21
135.0
 31
0.0
  0
LINE
  5
1E941
  8
0
 10
70.0
 20
105.0
 30
0.0
 11
93.500000000000014
 21
105.0
 31
0.0
  0
LINE
  5
1E942
  8
0
 10
93.500000000000014
 20
135.0
 30
0.0
 11
70.0
 21
135.0
 31
0.0
  0
LINE
  5
1E943
  8
0
 10
120.5
 20
105.0
 30
0.0
 11
543.5
 21
105.0
 31
0.0
  0
LINE
  5
1E944
  8
0
 10
543.5
 20
135.0
 30
0.0
 11
120.5
 21
135.0
 31
0.0
  0
LINE
  5
1E945
  8
0
 10
120.5
 20
138.49999999999989
 30
0.0
 11
93.499999999999986
 21
138.49999999999989
 31
0.0
  0
LINE
  5
1E946
  8
0
 10
570.49999999999966
 20
138.5
 30
0.0
 11
543.5
 21
138.5
 31
0.0
  0
LINE
  5
1E947
  8
0
 10
93.499999999999986
 20
69.999999999999886
 30
0.0
 11
120.5
 21
69.999999999999886
 31
0.0
  0
LINE
  5
1E948
  8
0
 10
93.500000000000043
 20
138.49999999999989
 30
0.0
 11
93.499999999999986
 21
69.999999999999886
 31
0.0
  0
LINE
  5
1E949
  8
0
 10
120.4999999999999
 20
138.49999999999989
 30
0.0
 11
120.5
 21
69.999999999999886
 31
0.0
  0
LINE
  5
1E94A
  8
0
 10
570.49999999999966
 20
138.5
 30
0.0
 11
570.49999999999966
 21
70.0
 31
0.0
  0
LINE
  5
1E94B
  8
0
 10
543.5
 20
138.5
 30
0.0
 11
543.5
 21
70.0
 31
0.0
  0
LINE
  5
1E94C
  8
0
 10
570.49999999999966
 20
70.0
 30
0.0
 11
543.5
 21
70.0
 31
0.0
  0
LINE
  5
1E94D
  8
0
 10
594.00000000000023
 20
135.0
 30
0.0
 11
594.00000000000023
 21
105.0
 31
0.0
  0
LINE
  5
1E94E
  8
0
 10
70.0
 20
135.0
 30
0.0
 11
70.0
 21
105.0
 31
0.0
  0
LINE
  5
1E94F
  8
2
 10
561.24999999999977
 20
87.5
 30
0.0
 11
552.74999999999989
 21
87.5
 31
0.0
  0
LINE
  5
1E950
  8
2
 10
111.25
 20
87.499999999999886
 30
0.0
 11
102.75
 21
87.499999999999886
 31
0.0
  0
LINE
  5
1E951
  8
2
 10
561.24999999999977
 20
70.0
 30
0.0
 11
561.24999999999977
 21
87.5
 31
0.0
  0
LINE
  5
1E952
  8
2
 10
552.74999999999989
 20
87.5
 30
0.0
 11
552.74999999999989
 21
70.0
 31
0.0
  0
LINE
  5
1E953
  8
2
 10
111.25
 20
69.999999999999886
 30
0.0
 11
111.25
 21
87.499999999999886
 31
0.0
  0
LINE
  5
1E954
  8
2
 10
102.75
 20
87.499999999999886
 30
0.0
 11
102.75
 21
69.999999999999886
 31
0.0
  0
LINE
  5
1E955
  8
1
 10
599.00000000000011
 20
255.0
 30
0.0
 11
65.0
 21
255.0
 31
0.0
  0
LINE
  5
1E956
  8
1
 10
599.00000000000011
 20
120.0
 30
0.0
 11
65.0
 21
120.0
 31
0.0
  0
LINE
  5
1E957
  8
1
 10
107.0
 20
90.499999999999886
 30
0.0
 11
107.0
 21
66.999999999999886
 31
0.0
  0
LINE
  5
1E958
  8
1
 10
556.99999999999989
 20
90.5
 30
0.0
 11
556.99999999999989
 21
67.0
 31
0.0
  0
LINE
  5
1E959
  8
2
 10
93.500000000000014
 20
240.0
 30
0.0
 11
120.5
 21
240.0
 31
0.0
  0
LINE
  5
1E95A
  8
2
 10
120.5
 20
270.0
 30
0.0
 11
93.500000000000014
 21
270.0
 31
0.0
  0
LINE
  5
1E95B
  8
2
 10
543.50000000000023
 20
240.0
 30
0.0
 11
570.49999999999989
 21
240.0
 31
0.0
  0
LINE
  5
1E95C
  8
2
 10
570.49999999999989
 20
270.0
 30
0.0
 11
543.50000000000023
 21
270.0
 31
0.0
  0
LINE
  5
1E95D
  8
1
 10
683.0000000000008
 20
67.0
 30
0.0
 11
683.0000000000008
 21
90.5
 31
0.0
  0
LINE
  5
1E95E
  8
1
 10
720.5000000000008
 20
140.0
 30
0.0
 11
720.5000000000008
 21
100.0
 31
0.0
  0
LINE
  5
1E95F
  8
1
 10
740.50000000000091
 20
120.0
 30
0.0
 11
700.50000000000091
 21
120.0
 31
0.0
  0
LINE
  5
1E960
  8
2
 10
93.499999999999986
 20
104.9999999999999
 30
0.0
 11
120.5
 21
104.9999999999999
 31
0.0
  0
LINE
  5
1E961
  8
2
 10
120.5
 20
134.99999999999989
 30
0.0
 11
93.499999999999986
 21
134.99999999999989
 31
0.0
  0
LINE
  5
1E962
  8
2
 10
543.5
 20
105.0
 30
0.0
 11
570.49999999999955
 21
105.0
 31
0.0
  0
LINE
  5
1E963
  8
2
 10
570.49999999999955
 20
135.0
 30
0.0
 11
543.5
 21
135.0
 31
0.0
  0
LINE
  5
207D1
  8
1
 10
556.99999999999989
 20
224.75
 30
0.0
 11
556.99999999999989
 21
210.25
 31
0.0
  0
LINE
  5
207D2
  8
1
 10
564.24999999999989
 20
217.5
 30
0.0
 11
549.74999999999977
 21
217.5
 31
0.0
  0
CIRCLE
  5
207D3
  8
2
 10
556.99999999999989
 20
217.5
 30
0.0
 40
4.25
  0
LINE
  5
207D4
  8
1
 10
107.0
 20
224.75
 30
0.0
 11
107.0
 21
210.25
 31
0.0
  0
LINE
  5
207D5
  8
1
 10
114.25
 20
217.5
 30
0.0
 11
99.750000000000014
 21
217.5
 31
0.0
  0
CIRCLE
  5
207D6
  8
2
 10
107.0
 20
217.5
 30
0.0
 40
4.25
  0
ENDSEC
  0
EOF
