  0
SECTION
  2
HEADER
  9
$ACADVER
  1
AC1009
  9
$INSBASE
 10
0.0
 20
0.0
 30
0.0
  9
$EXTMIN
 10
0.0
 20
-2.960436562073669
 30
0.0
  9
$EXTMAX
 10
100.4569137950616
 20
83.138047723372466
 30
0.0
  9
$LIMMIN
 10
0.0
 20
0.0
  9
$LIMMAX
 10
187.5
 20
139.0
  9
$ORTHOMODE
 70
     1
  9
$REGENMODE
 70
     1
  9
$FILLMODE
 70
     1
  9
$QTEXTMODE
 70
     0
  9
$MIRRTEXT
 70
     0
  9
$DRAGMODE
 70
     2
  9
$LTSCALE
 40
4.0
  9
$OSMODE
 70
    37
  9
$ATTMODE
 70
     1
  9
$TEXTSIZE
 40
0.2
  9
$TRACEWID
 40
0.05
  9
$TEXTSTYLE
  7
STANDARD
  9
$CLAYER
  8
0
  9
$CELTYPE
  6
BYLAYER
  9
$CECOLOR
 62
   256
  9
$DIMSCALE
 40
1.0
  9
$DIMASZ
 40
3.0
  9
$DIMEXO
 40
1.0
  9
$DIMDLI
 40
6.0
  9
$DIMRND
 40
0.0
  9
$DIMDLE
 40
0.0
  9
$DIMEXE
 40
1.0
  9
$DIMTP
 40
495.0
  9
$DIMTM
 40
0.0
  9
$DIMTXT
 40
3.0
  9
$DIMCEN
 40
0.0
  9
$DIMTSZ
 40
0.0
  9
$DIMTOL
 70
     0
  9
$DIMLIM
 70
     0
  9
$DIMTIH
 70
     0
  9
$DIMTOH
 70
     0
  9
$DIMSE1
 70
     0
  9
$DIMSE2
 70
     0
  9
$DIMTAD
 70
     1
  9
$DIMZIN
 70
     0
  9
$DIMBLK
  1

  9
$DIMASO
 70
     0
  9
$DIMSHO
 70
     0
  9
$DIMPOST
  1

  9
$DIMAPOST
  1

  9
$DIMALT
 70
     0
  9
$DIMALTD
 70
     2
  9
$DIMALTF
 40
25.399999999999999
  9
$DIMLFAC
 40
1.0
  9
$DIMTOFL
 70
     1
  9
$DIMTVP
 40
0.0
  9
$DIMTIX
 70
     1
  9
$DIMSOXD
 70
     0
  9
$DIMSAH
 70
     0
  9
$DIMBLK1
  1

  9
$DIMBLK2
  1

  9
$DIMSTYLE
  2
STANDARD
  9
$DIMCLRD
 70
     0
  9
$DIMCLRE
 70
     0
  9
$DIMCLRT
 70
     4
  9
$DIMTFAC
 40
1.0
  9
$DIMGAP
 40
1.0
  9
$LUNITS
 70
     2
  9
$LUPREC
 70
     4
  9
$SKETCHINC
 40
0.1
  9
$FILLETRAD
 40
0.0
  9
$AUNITS
 70
     0
  9
$AUPREC
 70
     0
  9
$MENU
  1
C:\R13\WIN\SUPPORT\ACAD-I
  9
$ELEVATION
 40
0.0
  9
$PELEVATION
 40
0.0
  9
$THICKNESS
 40
0.0
  9
$LIMCHECK
 70
     0
  9
$BLIPMODE
 70
     0
  9
$CHAMFERA
 40
0.0
  9
$CHAMFERB
 40
0.0
  9
$SKPOLY
 70
     0
  9
$TDCREATE
 40
2450837.486061343
  9
$TDUPDATE
 40
2456598.7262659948
  9
$TDINDWG
 40
0.0377805208
  9
$TDUSRTIMER
 40
2456598.1495274189
  9
$USRTIMER
 70
     1
  9
$ANGBASE
 50
0.0
  9
$ANGDIR
 70
     0
  9
$PDMODE
 70
     0
  9
$PDSIZE
 40
0.0
  9
$PLINEWID
 40
0.0
  9
$COORDS
 70
     1
  9
$SPLFRAME
 70
     0
  9
$SPLINETYPE
 70
     6
  9
$SPLINESEGS
 70
     8
  9
$ATTDIA
 70
     0
  9
$ATTREQ
 70
     1
  9
$HANDLING
 70
     1
  9
$HANDSEED
  5
789
  9
$SURFTAB1
 70
     6
  9
$SURFTAB2
 70
     6
  9
$SURFTYPE
 70
     6
  9
$SURFU
 70
     6
  9
$SURFV
 70
     6
  9
$UCSNAME
  2

  9
$UCSORG
 10
0.0
 20
0.0
 30
0.0
  9
$UCSXDIR
 10
1.0
 20
0.0
 30
0.0
  9
$UCSYDIR
 10
0.0
 20
1.0
 30
0.0
  9
$PUCSNAME
  2

  9
$PUCSORG
 10
0.0
 20
0.0
 30
0.0
  9
$PUCSXDIR
 10
1.0
 20
0.0
 30
0.0
  9
$PUCSYDIR
 10
0.0
 20
1.0
 30
0.0
  9
$USERI1
 70
     4
  9
$USERI2
 70
     1
  9
$USERI3
 70
     0
  9
$USERI4
 70
     0
  9
$USERI5
 70
     0
  9
$USERR1
 40
1.0
  9
$USERR2
 40
3.0
  9
$USERR3
 40
3.0
  9
$USERR4
 40
3.0
  9
$USERR5
 40
10.0
  9
$WORLDVIEW
 70
     1
  9
$SHADEDGE
 70
     3
  9
$SHADEDIF
 70
    70
  9
$TILEMODE
 70
     1
  9
$MAXACTVP
 70
    16
  9
$PLIMCHECK
 70
     0
  9
$PEXTMIN
 10
1.0000000000000000E+020
 20
1.0000000000000000E+020
 30
1.0000000000000000E+020
  9
$PEXTMAX
 10
-1.0000000000000000E+020
 20
-1.0000000000000000E+020
 30
-1.0000000000000000E+020
  9
$PLIMMIN
 10
0.0
 20
0.0
  9
$PLIMMAX
 10
12.0
 20
9.0
  9
$UNITMODE
 70
     0
  9
$VISRETAIN
 70
     0
  9
$PLINEGEN
 70
     0
  9
$PSLTSCALE
 70
     0
  0
ENDSEC
  0
SECTION
  2
TABLES
  0
TABLE
  2
VPORT
 70
     1
  0
VPORT
  2
*ACTIVE
 70
     0
 10
0.0
 20
0.0
 11
1.0
 21
1.0
 12
93.74713919532617
 22
90.905971068230244
 13
0.0
 23
0.0
 14
5.0
 24
5.0
 15
5.0
 25
5.0
 16
0.0
 26
0.0
 36
1.0
 17
0.0
 27
0.0
 37
0.0
 40
189.36969495668109
 41
1.755244755244755
 42
50.0
 43
0.0
 44
0.0
 50
0.0
 51
0.0
 71
     0
 72
   100
 73
     1
 74
     0
 75
     0
 76
     0
 77
     0
 78
     0
  0
ENDTAB
  0
TABLE
  2
LTYPE
 70
     3
  0
LTYPE
  2
CONTINUOUS
 70
     0
  3
Solid Line
 72
    65
 73
     0
 40
0.0
  0
LTYPE
  2
CENTER
 70
     0
  3
____ _ ____ _ ____ _ ____ _ ____ _ ____ _ ____
 72
    65
 73
     4
 40
2.0
 49
1.25
 49
-0.25
 49
0.25
 49
-0.25
  0
LTYPE
  2
PHANTOM2
 70
     0
  3
___ _ _ ___ _ _ ___ _ _ ___ _ _
 72
    65
 73
     6
 40
1.25
 49
0.625
 49
-0.125
 49
0.125
 49
-0.125
 49
0.125
 49
-0.125
  0
ENDTAB
  0
TABLE
  2
LAYER
 70
     3
  0
LAYER
  2
0
 70
     0
 62
     7
  6
CONTINUOUS
  0
LAYER
  2
1
 70
     0
 62
     1
  6
CENTER
  0
LAYER
  2
3
 70
     0
 62
     3
  6
CONTINUOUS
  0
ENDTAB
  0
TABLE
  2
STYLE
 70
     2
  0
STYLE
  2
STANDARD
 70
     0
 40
0.0
 41
1.0
 50
0.0
 71
     0
 42
0.2
  3
SIMPLEX
  4
BIGFONT
  0
STYLE
  2
STANDARD1
 70
     0
 40
0.0
 41
1.0
 50
0.0
 71
     0
 42
3.0
  3
txt
  4

  0
ENDTAB
  0
TABLE
  2
VIEW
 70
     0
  0
ENDTAB
  0
TABLE
  2
UCS
 70
     0
  0
ENDTAB
  0
TABLE
  2
APPID
 70
    21
  0
APPID
  2
ACAD
 70
     0
  0
APPID
  2
GENIUS_GENOBJ_13
 70
     0
  0
APPID
  2
GENIUS_GENODEF_13
 70
     0
  0
APPID
  2
GENIUS_GENOENT_13
 70
     0
  0
APPID
  2
GENIUS_GENOLIS_13
 70
     0
  0
APPID
  2
GENIUS_GENOREF_13
 70
     0
  0
APPID
  2
GENIUS_GENOBJ-N-TIT_13
 70
     0
  0
APPID
  2
GENIUS_GENTITLE_13
 70
     0
  0
APPID
  2
GENIUS_GENZVEED_13
 70
     0
  0
APPID
  2
GENIUS_GENOBJ-N-FIL_13
 70
     0
  0
APPID
  2
GENIUS_GENOBJ-N-CRS_13
 70
     0
  0
APPID
  2
GENIUS_GENOBJ-N-SEC_13
 70
     0
  0
APPID
  2
GENIUS_GENOBJ-N-LEADER_13
 70
     0
  0
APPID
  2
GENIUS_GENOBJ-N-ZOO_13
 70
     0
  0
APPID
  2
GENIUS_GENZOO_13
 70
     0
  0
APPID
  2
GENIUS_GENOBJ-N-REV_13
 70
     0
  0
APPID
  2
GENIUS_GENOBJ-N-RSSYM_13
 70
     0
  0
APPID
  2
GENIUS_GENSYMENT_13
 70
     0
  0
APPID
  2
_FTCNV
 70
     0
  0
APPID
  2
ACAD_MLEADERVER
 70
     0
  0
APPID
  2
ACAD_NAV_VCDISPLAY
 70
     0
  0
ENDTAB
  0
TABLE
  2
DIMSTYLE
 70
     1
  0
DIMSTYLE
  2
STANDARD
 70
     0
  3

  4

  5

  6

  7

 40
1.0
 41
0.18
 42
0.0625
 43
0.38
 44
0.18
 45
0.0
 46
0.0
 47
0.0
 48
0.0
140
0.18
141
0.09
142
0.0
143
25.399999999999999
144
1.0
145
0.0
146
1.0
147
0.09
 71
     0
 72
     0
 73
     1
 74
     1
 75
     0
 76
     0
 77
     0
 78
     0
170
     0
171
     2
172
     0
173
     0
174
     0
175
     0
176
     0
177
     0
178
     0
  0
ENDTAB
  0
ENDSEC
  0
SECTION
  2
BLOCKS
  0
BLOCK
  8
0
  2
$MODEL_SPACE
 70
     0
 10
0.0
 20
0.0
 30
0.0
  3
$MODEL_SPACE
  1

  0
ENDBLK
  5
4B9
  8
0
  0
BLOCK
 67
     1
  8
0
  2
$PAPER_SPACE
 70
     0
 10
0.0
 20
0.0
 30
0.0
  3
$PAPER_SPACE
  1

  0
ENDBLK
  5
4B7
 67
     1
  8
0
  0
ENDSEC
  0
SECTION
  2
ENTITIES
  0
LINE
  5
448
  8
1
 10
53.847349307560812
 20
45.600623427567847
 30
0.0
 11
53.847349307560812
 21
24.541693520650721
 31
0.0
  0
LINE
  5
462
  8
0
 10
75.456913795061652
 20
29.87152266014462
 30
0.0
 11
100.4569137950616
 21
29.87152266014462
 31
0.0
  0
LINE
  5
463
  8
0
 10
100.4569137950616
 20
29.87152266014462
 30
0.0
 11
100.4569137950616
 21
41.171525312005173
 31
0.0
  0
LINE
  5
464
  8
0
 10
75.456913795061624
 20
41.171525312005173
 30
0.0
 11
100.4569137950616
 21
41.171525312005173
 31
0.0
  0
LINE
  5
465
  8
0
 10
75.456913795061652
 20
29.87152266014462
 30
0.0
 11
75.456913795061652
 21
41.171525312005173
 31
0.0
  0
LINE
  5
466
  8
3
 10
75.456913795061624
 20
39.443980212129361
 30
0.0
 11
100.4569137950616
 21
39.443980212129361
 31
0.0
  0
LINE
  5
467
  8
3
 10
75.456913795061652
 20
34.327316478886758
 30
0.0
 11
100.4569137950616
 21
34.327316478886758
 31
0.0
  0
LINE
  5
468
  8
0
 10
32.237784820059957
 20
29.87152266014462
 30
0.0
 11
32.237784820059957
 21
41.171525312005173
 31
0.0
  0
LINE
  5
469
  8
0
 10
7.2377848200599573
 20
29.87152266014462
 30
0.0
 11
7.2377848200599573
 21
41.171525312005173
 31
0.0
  0
LINE
  5
46B
  8
0
 10
7.2377848200599573
 20
29.87152266014462
 30
0.0
 11
32.237784820059943
 21
29.87152266014462
 31
0.0
  0
LINE
  5
46D
  8
0
 10
7.2377848200599431
 20
41.171525312005173
 30
0.0
 11
32.237784820059957
 21
41.171525312005173
 31
0.0
  0
LINE
  5
46F
  8
0
 10
32.237784820059957
 20
39.313756309094927
 30
0.0
 11
7.2377848200599573
 21
39.313756309094927
 31
0.0
  0
LINE
  5
470
  8
0
 10
57.347349307560819
 20
53.708949607809792
 30
0.0
 11
57.347349307560819
 21
78.708949607809785
 31
0.0
  0
LINE
  5
471
  8
0
 10
50.347349307560798
 20
53.708949607809792
 30
0.0
 11
50.347349307560791
 21
78.708949607809785
 31
0.0
  0
LINE
  5
472
  8
0
 10
50.347349307560791
 20
78.708949607809785
 30
0.0
 11
57.347349307560819
 21
78.708949607809785
 31
0.0
  0
LINE
  5
473
  8
0
 10
50.347349307560791
 20
53.708949607809792
 30
0.0
 11
57.347349307560819
 21
53.708949607809792
 31
0.0
  0
LINE
  5
58A
  8
0
 10
56.310354383357073
 20
30.060383466902021
 30
0.0
 11
51.525849479797529
 21
34.678450530093407
 31
0.0
  0
LINE
  5
58B
  8
0
 10
51.106558289024598
 20
40.290393799588692
 30
0.0
 11
56.94259724479673
 21
41.167216231213473
 31
0.0
  0
ARC
  5
58C
  8
0
 10
51.247349307560803
 20
38.318606396988372
 30
0.0
 40
1.0
 50
0.0
 51
90.0
  0
ARC
  5
58D
  8
0
 10
51.247349307560803
 20
36.041683320065367
 30
0.0
 40
1.0
 50
292.61986494803881
 51
0.0
  0
LINE
  5
58E
  8
0
 10
52.247349307560789
 20
36.041683320065367
 30
0.0
 11
52.247349307560789
 21
38.318606396988372
 31
0.0
  0
LINE
  5
58F
  8
0
 10
50.347349307560791
 20
39.621574293053072
 30
0.0
 11
50.347349307560791
 21
39.418606396988402
 31
0.0
  0
ARC
  5
590
  8
0
 10
51.047958645964712
 20
39.591596104485291
 30
0.0
 40
0.7012504095175868
 50
85.206516655829645
 51
177.54988053066791
  0
ARC
  5
591
  8
0
 10
50.447349307560778
 20
39.418606396988402
 30
0.0
 40
0.0999999999999998
 50
180.0
 51
270.0
  0
ARC
  5
592
  8
0
 10
51.747349307560803
 20
34.841683320065329
 30
0.0
 40
0.3000000000000001
 50
112.6198649480431
 51
180.0
  0
ARC
  5
593
  8
0
 10
51.744346941899437
 20
34.884020126714688
 30
0.0
 40
0.3
 50
188.11281661032299
 51
223.25385447954059
  0
LINE
  5
594
  8
0
 10
51.247349307560803
 20
39.318606396988372
 30
0.0
 11
50.447349307560778
 21
39.318606396988372
 31
0.0
  0
LINE
  5
595
  8
0
 10
54.61526042132288
 20
33.725781546165081
 30
0.0
 11
57.206975973432172
 21
30.857195225956499
 31
0.0
  0
ARC
  5
596
  8
0
 10
56.747349307560803
 20
30.471522660144618
 30
0.0
 40
0.6000000000000001
 50
223.25385447954869
 51
40.000000000003581
  0
LINE
  5
597
  8
0
 10
57.084159631257869
 20
40.463938262029039
 30
0.0
 11
55.275305063144849
 21
40.000817602955742
 31
0.0
  0
LINE
  5
598
  8
0
 10
54.14734930756083
 20
38.767788881817523
 30
0.0
 11
54.14734930756083
 21
35.011356765538153
 31
0.0
  0
ARC
  5
599
  8
0
 10
56.14734930756083
 20
35.011356765538153
 30
0.0
 40
1.9999999999999989
 50
180.0
 51
220.00000000000361
  0
ARC
  5
59A
  8
0
 10
55.412551098540121
 20
38.742834365568811
 30
0.0
 40
1.2654478652944801
 50
96.226346698231097
 51
178.87005922219871
  0
LINE
  5
59B
  8
0
 10
57.347349307560819
 20
40.803001630294709
 30
0.0
 11
57.347349307560819
 21
40.821525312005178
 31
0.0
  0
ARC
  5
59C
  8
0
 10
56.997349307560789
 20
40.803001630294709
 30
0.0
 40
0.35
 50
284.36093850915381
 51
0.0
  0
ARC
  5
59D
  8
0
 10
56.997349307560789
 20
40.821525312005178
 30
0.0
 40
0.35
 50
0.0
 51
98.999999999998934
  0
LINE
  5
603
  8
1
 10
53.847349307560812
 20
83.138047723372466
 30
0.0
 11
53.847349307560812
 21
49.30894960780978
 31
0.0
  0
LINE
  5
60E
  8
0
 10
32.237784820059957
 20
35.113756309094931
 30
0.0
 11
7.2377848200599573
 21
35.113756309094931
 31
0.0
  0
TEXT
  5
6C9
  8
0
 62
     3
 10
0.0
 20
0.0
 30
0.0
 40
10.0
  1
PCPL4-6-20M
  7
STANDARD1
  0
ENDSEC
  0
EOF
