  0
SECTION
  2
HEADER
  9
$ACADVER
  1
AC1009
  9
$INSBASE
 10
0.0
 20
0.0
 30
0.0
  9
$EXTMIN
 10
0.0
 20
-2.960436562073669
 30
0.0
  9
$EXTMAX
 10
71.439290586630293
 20
64.541451919556977
 30
0.0
  9
$LIMMIN
 10
0.0
 20
0.0
  9
$LIMMAX
 10
750.0
 20
540.0
  9
$ORTHOMODE
 70
     1
  9
$REGENMODE
 70
     1
  9
$FILLMODE
 70
     1
  9
$QTEXTMODE
 70
     0
  9
$MIRRTEXT
 70
     0
  9
$DRAGMODE
 70
     2
  9
$LTSCALE
 40
5.0
  9
$OSMODE
 70
    37
  9
$ATTMODE
 70
     1
  9
$TEXTSIZE
 40
0.2
  9
$TRACEWID
 40
0.05
  9
$TEXTSTYLE
  7
STANDARD
  9
$CLAYER
  8
0
  9
$CELTYPE
  6
BYLAYER
  9
$CECOLOR
 62
   256
  9
$DIMSCALE
 40
1.0
  9
$DIMASZ
 40
3.0
  9
$DIMEXO
 40
2.0
  9
$DIMDLI
 40
0.38
  9
$DIMRND
 40
0.0
  9
$DIMDLE
 40
0.0
  9
$DIMEXE
 40
2.0
  9
$DIMTP
 40
0.0
  9
$DIMTM
 40
0.0
  9
$DIMTXT
 40
3.2000000000000002
  9
$DIMCEN
 40
0.0
  9
$DIMTSZ
 40
0.0
  9
$DIMTOL
 70
     0
  9
$DIMLIM
 70
     0
  9
$DIMTIH
 70
     0
  9
$DIMTOH
 70
     0
  9
$DIMSE1
 70
     0
  9
$DIMSE2
 70
     0
  9
$DIMTAD
 70
     1
  9
$DIMZIN
 70
     0
  9
$DIMBLK
  1

  9
$DIMASO
 70
     0
  9
$DIMSHO
 70
     0
  9
$DIMPOST
  1

  9
$DIMAPOST
  1

  9
$DIMALT
 70
     0
  9
$DIMALTD
 70
     2
  9
$DIMALTF
 40
25.399999999999999
  9
$DIMLFAC
 40
1.0
  9
$DIMTOFL
 70
     0
  9
$DIMTVP
 40
1.6000000000000001
  9
$DIMTIX
 70
     1
  9
$DIMSOXD
 70
     0
  9
$DIMSAH
 70
     0
  9
$DIMBLK1
  1

  9
$DIMBLK2
  1

  9
$DIMSTYLE
  2
STANDARD
  9
$DIMCLRD
 70
     0
  9
$DIMCLRE
 70
     0
  9
$DIMCLRT
 70
     0
  9
$DIMTFAC
 40
1.0
  9
$DIMGAP
 40
0.09
  9
$LUNITS
 70
     2
  9
$LUPREC
 70
     4
  9
$SKETCHINC
 40
0.1
  9
$FILLETRAD
 40
0.0
  9
$AUNITS
 70
     0
  9
$AUPREC
 70
     4
  9
$MENU
  1
E:\r13\win\SUPPORT\ACAD
  9
$ELEVATION
 40
0.0
  9
$PELEVATION
 40
0.0
  9
$THICKNESS
 40
0.0
  9
$LIMCHECK
 70
     0
  9
$BLIPMODE
 70
     0
  9
$CHAMFERA
 40
0.0
  9
$CHAMFERB
 40
0.0
  9
$SKPOLY
 70
     0
  9
$TDCREATE
 40
2449840.6227546302
  9
$TDUPDATE
 40
2456598.7262887498
  9
$TDINDWG
 40
0.0247945486
  9
$TDUSRTIMER
 40
2456598.1514802668
  9
$USRTIMER
 70
     1
  9
$ANGBASE
 50
0.0
  9
$ANGDIR
 70
     0
  9
$PDMODE
 70
     0
  9
$PDSIZE
 40
0.0
  9
$PLINEWID
 40
0.0
  9
$COORDS
 70
     1
  9
$SPLFRAME
 70
     0
  9
$SPLINETYPE
 70
     6
  9
$SPLINESEGS
 70
     8
  9
$ATTDIA
 70
     0
  9
$ATTREQ
 70
     1
  9
$HANDLING
 70
     1
  9
$HANDSEED
  5
789
  9
$SURFTAB1
 70
     6
  9
$SURFTAB2
 70
     6
  9
$SURFTYPE
 70
     6
  9
$SURFU
 70
     6
  9
$SURFV
 70
     6
  9
$UCSNAME
  2

  9
$UCSORG
 10
0.0
 20
0.0
 30
0.0
  9
$UCSXDIR
 10
1.0
 20
0.0
 30
0.0
  9
$UCSYDIR
 10
0.0
 20
1.0
 30
0.0
  9
$PUCSNAME
  2

  9
$PUCSORG
 10
0.0
 20
0.0
 30
0.0
  9
$PUCSXDIR
 10
1.0
 20
0.0
 30
0.0
  9
$PUCSYDIR
 10
0.0
 20
1.0
 30
0.0
  9
$USERI1
 70
     0
  9
$USERI2
 70
     1
  9
$USERI3
 70
     0
  9
$USERI4
 70
     0
  9
$USERI5
 70
     0
  9
$USERR1
 40
0.0
  9
$USERR2
 40
0.0
  9
$USERR3
 40
0.0
  9
$USERR4
 40
0.0
  9
$USERR5
 40
0.0
  9
$WORLDVIEW
 70
     1
  9
$SHADEDGE
 70
     3
  9
$SHADEDIF
 70
    70
  9
$TILEMODE
 70
     1
  9
$MAXACTVP
 70
    16
  9
$PLIMCHECK
 70
     0
  9
$PEXTMIN
 10
1.0000000000000000E+020
 20
1.0000000000000000E+020
 30
1.0000000000000000E+020
  9
$PEXTMAX
 10
-1.0000000000000000E+020
 20
-1.0000000000000000E+020
 30
-1.0000000000000000E+020
  9
$PLIMMIN
 10
0.0
 20
0.0
  9
$PLIMMAX
 10
12.0
 20
9.0
  9
$UNITMODE
 70
     0
  9
$VISRETAIN
 70
     0
  9
$PLINEGEN
 70
     0
  9
$PSLTSCALE
 70
     0
  0
ENDSEC
  0
SECTION
  2
TABLES
  0
TABLE
  2
VPORT
 70
     1
  0
VPORT
  2
*ACTIVE
 70
     0
 10
0.0
 20
0.0
 11
1.0
 21
1.0
 12
78.158889164070246
 22
16.29001594133517
 13
0.0
 23
0.0
 14
20.0
 24
20.0
 15
20.0
 25
20.0
 16
0.0
 26
0.0
 36
1.0
 17
0.0
 27
0.0
 37
0.0
 40
115.48299085304259
 41
1.755244755244755
 42
50.0
 43
0.0
 44
0.0
 50
0.0
 51
0.0
 71
    16
 72
   100
 73
     1
 74
     0
 75
     0
 76
     0
 77
     0
 78
     2
  0
ENDTAB
  0
TABLE
  2
LTYPE
 70
     7
  0
LTYPE
  2
CONTINUOUS
 70
     0
  3
Solid Line
 72
    65
 73
     0
 40
0.0
  0
LTYPE
  2
CENTER
 70
     0
  3
____ _ ____ _ ____ _ ____ _ ____ _ ____ _ ____
 72
    65
 73
     4
 40
2.0
 49
1.25
 49
-0.25
 49
0.25
 49
-0.25
  0
LTYPE
  2
HIDDEN
 70
     0
  3
_ _ _ _ _ _ _ _ _ _ _ _ _ _ _ _ _ _ _ _ _ _ _
 72
    65
 73
     2
 40
0.375
 49
0.25
 49
-0.125
  0
LTYPE
  2
PHANTOM2
 70
     0
  3
___ _ _ ___ _ _ ___ _ _ ___ _ _
 72
    65
 73
     6
 40
1.25
 49
0.625
 49
-0.125
 49
0.125
 49
-0.125
 49
0.125
 49
-0.125
  0
LTYPE
  2
CNS_SOLID
 70
     0
  3

 72
    65
 73
     0
 40
0.0
  0
LTYPE
  2
CNS_DASHED
 70
     0
  3

 72
    65
 73
     2
 40
2.0
 49
1.0
 49
-1.0
  0
LTYPE
  2
CNS_CENTER
 70
     0
  3

 72
    65
 73
     4
 40
2.0
 49
0.45
 49
-0.5
 49
0.05
 49
-0.5
  0
ENDTAB
  0
TABLE
  2
LAYER
 70
     4
  0
LAYER
  2
0
 70
     0
 62
     7
  6
CONTINUOUS
  0
LAYER
  2
1
 70
     0
 62
     1
  6
CENTER
  0
LAYER
  2
2
 70
     0
 62
     2
  6
HIDDEN
  0
LAYER
  2
3
 70
     0
 62
     3
  6
CONTINUOUS
  0
ENDTAB
  0
TABLE
  2
STYLE
 70
     3
  0
STYLE
  2
STANDARD
 70
     0
 40
0.0
 41
1.0
 50
0.0
 71
     0
 42
0.2
  3
TXT
  4
BIGFONT
  0
STYLE
  2
IMAO_TXT_W100
 70
     0
 40
0.0
 41
1.0
 50
0.0
 71
     0
 42
2.5
  3
txt
  4

  0
STYLE
  2
STANDARD1
 70
     0
 40
0.0
 41
1.0
 50
0.0
 71
     0
 42
3.0
  3
txt
  4

  0
ENDTAB
  0
TABLE
  2
VIEW
 70
     1
  0
VIEW
  2
ALL
 70
     0
 40
540.0
 10
441.98319299999991
 20
270.0
 41
0.0
 11
0.0
 21
0.0
 31
1.0
 12
0.0
 22
0.0
 32
0.0
 42
0.0
 43
0.0
 44
0.0
 50
0.0
 71
     0
  0
ENDTAB
  0
TABLE
  2
UCS
 70
     0
  0
ENDTAB
  0
TABLE
  2
APPID
 70
     9
  0
APPID
  2
ACAD
 70
     0
  0
APPID
  2
ACAD_NAV_VCDISPLAY
 70
     0
  0
APPID
  2
ACAD_EXEMPT_FROM_CAD_STANDARDS
 70
     0
  0
APPID
  2
ACAD_DSTYLE_DIMJAG
 70
     0
  0
APPID
  2
ACAD_DSTYLE_DIMTALN
 70
     0
  0
APPID
  2
ACAD_MLEADERVER
 70
     0
  0
APPID
  2
ACAD_PSEXT
 70
     0
  0
APPID
  2
ACAD_DSTYLE_DIMBREAK
 70
     0
  0
APPID
  2
ACAD_DSTYLE_DIM_LINETYPE
 70
     0
  0
ENDTAB
  0
TABLE
  2
DIMSTYLE
 70
     4
  0
DIMSTYLE
  2
STANDARD
 70
     0
  3

  4

  5

  6

  7

 40
1.0
 41
0.18
 42
0.0625
 43
0.38
 44
0.18
 45
0.0
 46
0.0
 47
0.0
 48
0.0
140
0.18
141
0.09
142
0.0
143
25.399999999999999
144
1.0
145
0.0
146
1.0
147
0.09
 71
     0
 72
     0
 73
     1
 74
     1
 75
     0
 76
     0
 77
     0
 78
     0
170
     0
171
     2
172
     0
173
     0
174
     0
175
     0
176
     0
177
     0
178
     0
  0
DIMSTYLE
  2
ISO-25
 70
     0
  3

  4

  5

  6

  7

 40
1.0
 41
2.5
 42
0.625
 43
3.75
 44
1.25
 45
0.0
 46
0.0
 47
0.0
 48
0.0
140
2.5
141
2.5
142
0.0
143
0.03937007874016
144
1.0
145
0.0
146
1.0
147
0.625
 71
     0
 72
     0
 73
     0
 74
     0
 75
     0
 76
     0
 77
     1
 78
     8
170
     0
171
     3
172
     1
173
     0
174
     0
175
     0
176
     0
177
     0
178
     0
  0
DIMSTYLE
  2
IMAO_DIM_HAN
 70
     0
  3

  4

  5

  6

  7

 40
1.0
 41
1.5
 42
1.0
 43
4.0
 44
1.0
 45
0.0
 46
0.0
 47
0.0
 48
0.0
140
1.8
141
0.09
142
0.0
143
25.399999999999999
144
1.0
145
0.0
146
1.0
147
0.9
 71
     0
 72
     0
 73
     0
 74
     0
 75
     0
 76
     0
 77
     1
 78
     8
170
     0
171
     2
172
     1
173
     0
174
     0
175
     0
176
   256
177
     0
178
   256
  0
DIMSTYLE
  2
IMAO_DIM_ZEN
 70
     0
  3

  4

  5

  6

  7

 40
1.0
 41
1.5
 42
1.0
 43
4.0
 44
1.0
 45
0.0
 46
0.0
 47
0.0
 48
0.0
140
1.8
141
0.09
142
0.0
143
25.399999999999999
144
1.0
145
0.0
146
1.0
147
0.65
 71
     0
 72
     0
 73
     0
 74
     0
 75
     0
 76
     0
 77
     1
 78
     8
170
     0
171
     2
172
     1
173
     0
174
     0
175
     0
176
   256
177
     0
178
   256
  0
ENDTAB
  0
ENDSEC
  0
SECTION
  2
BLOCKS
  0
BLOCK
  8
0
  2
$MODEL_SPACE
 70
     0
 10
0.0
 20
0.0
 30
0.0
  3
$MODEL_SPACE
  1

  0
ENDBLK
  5
11D
  8
0
  0
BLOCK
 67
     1
  8
0
  2
$PAPER_SPACE
 70
     0
 10
0.0
 20
0.0
 30
0.0
  3
$PAPER_SPACE
  1

  0
ENDBLK
  5
11B
 67
     1
  8
0
  0
ENDSEC
  0
SECTION
  2
ENTITIES
  0
LINE
  5
3E5
  8
0
 10
27.582903814685299
 20
55.00000003522959
 30
0.0
 11
27.270296423515649
 21
54.458548150902203
 31
0.0
  0
LINE
  5
3E6
  8
0
 10
27.270296423515639
 20
62.541451919556998
 30
0.0
 11
27.582903814685292
 21
62.000000035229618
 31
0.0
  0
LINE
  5
3E7
  8
0
 10
25.182903814685289
 20
62.000000035229618
 30
0.0
 11
25.495511205854939
 21
62.541451919556998
 31
0.0
  0
LINE
  5
3E8
  8
0
 10
25.49551120585495
 20
54.458548150902203
 30
0.0
 11
25.1829038146853
 21
55.00000003522959
 31
0.0
  0
LINE
  5
3E9
  8
0
 10
35.582903814685302
 20
56.000000035229597
 30
0.0
 11
29.582903814685299
 21
56.000000035229597
 31
0.0
  0
LINE
  5
3EA
  8
0
 10
29.582903814685292
 20
61.000000035229597
 30
0.0
 11
35.582903814685302
 21
61.000000035229597
 31
0.0
  0
LINE
  5
3EB
  8
0
 10
43.882903814685278
 20
57.000000035229597
 30
0.0
 11
36.882903814685278
 21
57.000000035229597
 31
0.0
  0
LINE
  5
3EC
  8
0
 10
36.882903814685278
 20
61.000000035229611
 30
0.0
 11
43.882903814685278
 21
61.000000035229611
 31
0.0
  0
LINE
  5
3ED
  8
0
 10
43.882903814685278
 20
61.000000035229611
 30
0.0
 11
44.582903814685288
 21
60.300000035229623
 31
0.0
  0
LINE
  5
3EE
  8
0
 10
44.582903814685288
 20
57.700000035229621
 30
0.0
 11
43.882903814685278
 21
57.000000035229597
 31
0.0
  0
LINE
  5
3EF
  8
0
 10
25.182903814685289
 20
56.50000003522959
 30
0.0
 11
24.38290381468531
 21
56.50000003522959
 31
0.0
  0
LINE
  5
3F0
  8
0
 10
24.38290381468531
 20
60.50000003522959
 30
0.0
 11
25.182903814685279
 21
60.50000003522959
 31
0.0
  0
LINE
  5
3F1
  8
0
 10
24.38290381468531
 20
56.50000003522959
 30
0.0
 11
24.08290381468527
 21
57.019615277500257
 31
0.0
  0
LINE
  5
3F2
  8
0
 10
24.08290381468527
 20
59.980384792958922
 30
0.0
 11
24.38290381468531
 21
60.50000003522959
 31
0.0
  0
ARC
  5
3F3
  8
0
 10
36.482903814685272
 20
60.90000003522961
 30
0.0
 40
0.4000000000000057
 50
270.0
 51
0.0
  0
ARC
  5
3F4
  8
0
 10
36.482903814685272
 20
57.100000035229598
 30
0.0
 40
0.4000000000000057
 50
0.0
 51
89.999999999997968
  0
ARC
  5
3F5
  8
0
 10
35.982903814685272
 20
57.100000035229591
 30
0.0
 40
0.4000000000000057
 50
89.999999999997968
 51
180.0
  0
ARC
  5
3F6
  8
0
 10
35.982903814685272
 20
60.900000035229603
 30
0.0
 40
0.4000000000000057
 50
180.0
 51
270.0
  0
ARC
  5
3F9
  8
0
 10
29.1829038146853
 20
60.400000035229603
 30
0.0
 40
0.4000000000000057
 50
270.0
 51
0.0
  0
ARC
  5
3FA
  8
0
 10
29.1829038146853
 20
56.600000035229591
 30
0.0
 40
0.4000000000000057
 50
0.0
 51
89.999999999999474
  0
LINE
  5
3FB
  8
0
 10
36.482903814685272
 20
57.500000035229597
 30
0.0
 11
35.982903814685272
 21
57.50000003522959
 31
0.0
  0
LINE
  5
3FC
  8
0
 10
35.982903814685272
 20
60.500000035229597
 30
0.0
 11
36.482903814685272
 21
60.500000035229597
 31
0.0
  0
LINE
  5
3FD
  8
0
 10
29.1829038146853
 20
57.00000003522959
 30
0.0
 11
28.6829038146853
 21
57.00000003522959
 31
0.0
  0
LINE
  5
3FE
  8
0
 10
28.6829038146853
 20
60.00000003522959
 30
0.0
 11
29.1829038146853
 21
60.00000003522959
 31
0.0
  0
ARC
  5
3FF
  8
0
 10
32.3381929679596
 20
58.42761618789843
 30
0.0
 40
7.1556552661737047
 50
162.99163810613379
 51
179.42040811987351
  0
ARC
  5
400
  8
0
 10
27.197278528242489
 20
61.600796636588569
 30
0.0
 40
2.0155804743053012
 50
181.98193671337279
 51
212.4023107546642
  0
ARC
  5
401
  8
0
 10
27.21358389012585
 20
55.394158537346947
 30
0.0
 40
2.0320554908026489
 50
147.7239499800439
 51
177.8918025519155
  0
ARC
  5
402
  8
0
 10
32.22247101483223
 20
58.554481634109671
 30
0.0
 40
7.0397780227789193
 50
180.44342262328331
 51
197.14453115071001
  0
ARC
  5
403
  8
0
 10
27.213583890125701
 20
61.456336363838027
 30
0.0
 40
2.032055490802513
 50
147.72394998004009
 51
177.8918025519153
  0
LINE
  5
404
  8
0
 10
27.270296423515649
 20
60.520725977393312
 30
0.0
 11
25.49551120585491
 21
60.520725977393312
 31
0.0
  0
ARC
  5
405
  8
0
 10
25.55222373924488
 20
61.605841533112248
 30
0.0
 40
2.0320554908025348
 50
327.72394998004188
 51
357.89180255191542
  0
ARC
  5
406
  8
0
 10
25.568529101127041
 20
61.461381260361293
 30
0.0
 40
2.0155804743063941
 50
1.981936713384322
 51
32.402310754658323
  0
LINE
  5
407
  8
0
 10
27.270296423515639
 20
62.541451919556998
 30
0.0
 11
25.495511205854939
 21
62.541451919556998
 31
0.0
  0
ARC
  5
408
  8
0
 10
20.41713816241802
 20
58.574004602595402
 30
0.0
 40
7.1661477837960437
 50
343.00374833323127
 51
359.40829789277308
  0
ARC
  5
409
  8
0
 10
25.568529101127499
 20
55.399203433870319
 30
0.0
 40
2.0155804743059358
 50
1.9819367133811361
 51
32.402310754662061
  0
LINE
  5
40A
  8
0
 10
27.270296423515649
 20
56.479274093065889
 30
0.0
 11
25.49551120585491
 21
56.479274093065889
 31
0.0
  0
ARC
  5
40B
  8
0
 10
20.430527341262131
 20
58.428066781039441
 30
0.0
 40
7.1527381897170059
 50
0.5762186785741036
 51
17.011735095418821
  0
ARC
  5
40C
  8
0
 10
27.19727852824213
 20
55.538618810097432
 30
0.0
 40
2.015580474304929
 50
181.98193671337279
 51
212.40231075466991
  0
LINE
  5
40D
  8
0
 10
27.270296423515649
 20
54.458548150902203
 30
0.0
 11
25.49551120585495
 21
54.458548150902203
 31
0.0
  0
ARC
  5
40E
  8
0
 10
25.552223739244909
 20
55.543663706621167
 30
0.0
 40
2.0320554908025068
 50
327.72394998003989
 51
357.89180255191542
  0
LINE
  5
40F
  8
0
 10
35.582903814685302
 20
56.000000035229597
 30
0.0
 11
35.582903814685302
 21
61.000000035229597
 31
0.0
  0
LINE
  5
410
  8
0
 10
29.582903814685299
 20
56.000000035229597
 30
0.0
 11
29.582903814685292
 21
61.000000035229597
 31
0.0
  0
LINE
  5
411
  8
0
 10
36.882903814685278
 20
57.000000035229597
 30
0.0
 11
36.882903814685278
 21
61.000000035229611
 31
0.0
  0
LINE
  5
412
  8
0
 10
43.882903814685278
 20
61.000000035229611
 30
0.0
 11
43.882903814685278
 21
57.000000035229597
 31
0.0
  0
LINE
  5
413
  8
0
 10
44.582903814685288
 20
57.700000035229621
 30
0.0
 11
44.582903814685288
 21
60.300000035229623
 31
0.0
  0
LINE
  5
414
  8
0
 10
24.38290381468531
 20
56.50000003522959
 30
0.0
 11
24.38290381468531
 21
60.50000003522959
 31
0.0
  0
LINE
  5
415
  8
0
 10
24.08290381468527
 20
57.019615277500257
 30
0.0
 11
24.08290381468527
 21
59.980384792958922
 31
0.0
  0
LINE
  5
416
  8
2
 10
26.582903814685299
 20
59.654700573608828
 30
0.0
 11
26.582903814685299
 21
57.345299496850338
 31
0.0
  0
LINE
  5
417
  8
2
 10
26.582903814685299
 20
57.922649766039989
 30
0.0
 11
24.08290381468527
 21
57.922649766039989
 31
0.0
  0
LINE
  5
418
  8
2
 10
26.582903814685299
 20
59.077350304419213
 30
0.0
 11
24.08290381468527
 21
59.077350304419213
 31
0.0
  0
LINE
  5
419
  8
2
 10
26.582903814685299
 20
57.345299496850338
 30
0.0
 11
24.08290381468527
 21
57.345299496850338
 31
0.0
  0
LINE
  5
41A
  8
2
 10
26.582903814685299
 20
59.654700573608828
 30
0.0
 11
24.08290381468527
 21
59.654700573608828
 31
0.0
  0
LINE
  5
41B
  8
0
 10
2.5414519303578831
 20
56.479274093065861
 30
0.0
 11
4.2914519303578693
 21
55.468911121984029
 31
0.0
  0
LINE
  5
41C
  8
0
 10
2.5414519303578831
 20
58.500000035229583
 30
0.0
 11
2.5414519303578831
 21
56.479274093065861
 31
0.0
  0
LINE
  5
41D
  8
0
 10
4.2914519303578693
 20
61.531088948475109
 30
0.0
 11
2.5414519303578831
 21
60.520725977393283
 31
0.0
  0
LINE
  5
41E
  8
0
 10
2.5414519303578831
 20
60.520725977393283
 30
0.0
 11
2.5414519303578831
 21
58.500000035229583
 31
0.0
  0
LINE
  5
41F
  8
0
 10
6.0414519303578826
 20
62.541451919556962
 30
0.0
 11
4.2914519303578693
 21
61.531088948475109
 31
0.0
  0
LINE
  5
420
  8
0
 10
7.7914519303578826
 20
61.531088948475109
 30
0.0
 11
6.0414519303578826
 21
62.541451919556962
 31
0.0
  0
LINE
  5
421
  8
0
 10
6.0414519303578826
 20
54.458548150902168
 30
0.0
 11
7.7914519303578826
 21
55.468911121984029
 31
0.0
  0
LINE
  5
422
  8
0
 10
4.2914519303578693
 20
55.468911121984029
 30
0.0
 11
6.0414519303578826
 21
54.458548150902168
 31
0.0
  0
LINE
  5
423
  8
0
 10
9.5414519303578835
 20
58.500000035229583
 30
0.0
 11
9.5414519303578835
 21
60.520725977393283
 31
0.0
  0
LINE
  5
424
  8
0
 10
9.5414519303578835
 20
60.520725977393283
 30
0.0
 11
7.7914519303578826
 21
61.531088948475109
 31
0.0
  0
LINE
  5
425
  8
0
 10
9.5414519303578835
 20
56.479274093065861
 30
0.0
 11
9.5414519303578835
 21
58.500000035229583
 31
0.0
  0
LINE
  5
426
  8
0
 10
7.7914519303578826
 20
55.468911121984029
 30
0.0
 11
9.5414519303578835
 21
56.479274093065861
 31
0.0
  0
CIRCLE
  5
427
  8
0
 10
6.0414519303578826
 20
58.500000035229583
 30
0.0
 40
2.0
  0
LINE
  5
428
  8
0
 10
6.0414519303578826
 20
57.34529949685033
 30
0.0
 11
7.0414519303578968
 21
57.92264976603996
 31
0.0
  0
LINE
  5
429
  8
0
 10
7.0414519303578968
 20
57.92264976603996
 30
0.0
 11
7.0414519303578968
 21
59.077350304419177
 31
0.0
  0
LINE
  5
42A
  8
0
 10
7.0414519303578968
 20
59.077350304419177
 30
0.0
 11
6.0414519303578826
 21
59.654700573608821
 31
0.0
  0
LINE
  5
42B
  8
0
 10
5.0414519303578826
 20
57.92264976603996
 30
0.0
 11
6.0414519303578826
 21
57.34529949685033
 31
0.0
  0
LINE
  5
42C
  8
0
 10
5.0414519303578826
 20
59.077350304419177
 30
0.0
 11
5.0414519303578826
 21
57.92264976603996
 31
0.0
  0
LINE
  5
42D
  8
0
 10
6.0414519303578826
 20
59.654700573608821
 30
0.0
 11
5.0414519303578826
 21
59.077350304419177
 31
0.0
  0
LINE
  5
42E
  8
0
 10
66.124355699012682
 20
60.520725977393298
 30
0.0
 11
66.124355699012682
 21
58.500000035229583
 31
0.0
  0
LINE
  5
42F
  8
0
 10
64.374355699012682
 20
61.53108894847513
 30
0.0
 11
66.124355699012682
 21
60.520725977393298
 31
0.0
  0
LINE
  5
430
  8
0
 10
66.124355699012682
 20
56.479274093065889
 30
0.0
 11
64.374355699012682
 21
55.46891112198405
 31
0.0
  0
LINE
  5
431
  8
0
 10
66.124355699012682
 20
58.500000035229583
 30
0.0
 11
66.124355699012682
 21
56.479274093065889
 31
0.0
  0
LINE
  5
432
  8
0
 10
62.624355699012682
 20
54.458548150902189
 30
0.0
 11
60.874355699012654
 21
55.46891112198405
 31
0.0
  0
LINE
  5
433
  8
0
 10
64.374355699012682
 20
55.46891112198405
 30
0.0
 11
62.624355699012682
 21
54.458548150902189
 31
0.0
  0
LINE
  5
434
  8
0
 10
60.874355699012654
 20
61.53108894847513
 30
0.0
 11
62.624355699012682
 21
62.541451919556998
 31
0.0
  0
LINE
  5
435
  8
0
 10
62.624355699012682
 20
62.541451919556998
 30
0.0
 11
64.374355699012682
 21
61.53108894847513
 31
0.0
  0
LINE
  5
436
  8
0
 10
59.124355699012682
 20
56.479274093065889
 30
0.0
 11
59.124355699012682
 21
58.500000035229583
 31
0.0
  0
LINE
  5
437
  8
0
 10
60.874355699012654
 20
55.46891112198405
 30
0.0
 11
59.124355699012682
 21
56.479274093065889
 31
0.0
  0
LINE
  5
438
  8
0
 10
59.124355699012682
 20
58.500000035229583
 30
0.0
 11
59.124355699012682
 21
60.520725977393298
 31
0.0
  0
LINE
  5
439
  8
0
 10
59.124355699012682
 20
60.520725977393298
 30
0.0
 11
60.874355699012654
 21
61.53108894847513
 31
0.0
  0
CIRCLE
  5
43A
  8
0
 10
62.624355699012632
 20
59.000000035229583
 30
0.0
 40
2.0
  0
CIRCLE
  5
43B
  8
0
 10
62.624355699012654
 20
58.500000035229583
 30
0.0
 40
2.5
  0
LINE
  5
43C
  8
0
 10
35.582903814685302
 20
36.000000035229583
 30
0.0
 11
29.582903814685299
 21
36.000000035229583
 31
0.0
  0
LINE
  5
43D
  8
0
 10
29.582903814685299
 20
31.000000035229579
 30
0.0
 11
35.582903814685302
 21
31.000000035229579
 31
0.0
  0
LINE
  5
43E
  8
0
 10
43.882903814685278
 20
35.50000003522959
 30
0.0
 11
36.882903814685278
 21
35.50000003522959
 31
0.0
  0
LINE
  5
43F
  8
0
 10
36.882903814685278
 20
31.500000035229579
 30
0.0
 11
43.882903814685278
 21
31.500000035229579
 31
0.0
  0
LINE
  5
440
  8
0
 10
43.882903814685278
 20
31.500000035229579
 30
0.0
 11
44.582903814685288
 21
32.200000035229571
 31
0.0
  0
LINE
  5
441
  8
0
 10
44.582903814685288
 20
34.800000035229573
 30
0.0
 11
43.882903814685278
 21
35.50000003522959
 31
0.0
  0
ARC
  5
442
  8
0
 10
35.982903814685272
 20
35.400000035229588
 30
0.0
 40
0.4000000000000057
 50
180.0
 51
270.0000000000021
  0
ARC
  5
443
  8
0
 10
35.982903814685272
 20
31.600000035229581
 30
0.0
 40
0.4000000000000057
 50
90.0
 51
180.0
  0
ARC
  5
444
  8
0
 10
36.482903814685272
 20
31.600000035229581
 30
0.0
 40
0.4000000000000057
 50
0.0
 51
90.0
  0
ARC
  5
445
  8
0
 10
36.482903814685272
 20
35.400000035229588
 30
0.0
 40
0.4000000000000057
 50
270.0000000000021
 51
0.0
  0
LINE
  5
44A
  8
0
 10
36.482903814685272
 20
35.000000035229583
 30
0.0
 11
35.982903814685272
 21
35.000000035229583
 31
0.0
  0
LINE
  5
44B
  8
0
 10
35.982903814685272
 20
32.000000035229583
 30
0.0
 11
36.482903814685272
 21
32.000000035229583
 31
0.0
  0
ARC
  5
452
  8
0
 10
30.686217619501271
 20
31.830151395689221
 30
0.0
 40
5.5038974440719368
 50
180.83440817266521
 51
199.4217498277516
  0
ARC
  5
453
  8
0
 10
30.65593623314593
 20
31.67525792344966
 30
0.0
 40
5.4735427500654792
 50
160.526249454685
 51
179.21759254489891
  0
LINE
  5
454
  8
0
 10
27.270296423515649
 20
33.500000035229611
 30
0.0
 11
25.49551120585495
 21
33.500000035229611
 31
0.0
  0
ARC
  5
455
  8
0
 10
22.0795900098693
 20
31.66984867476992
 30
0.0
 40
5.5038974440719937
 50
0.8344081726638389
 51
19.421749827751611
  0
ARC
  5
456
  8
0
 10
22.109871396222019
 20
31.824742147010049
 30
0.0
 40
5.473542750068157
 50
340.52624945468978
 51
359.21759254489558
  0
ARC
  5
457
  8
0
 10
22.10987139622177
 20
35.324742147010127
 30
0.0
 40
5.4735427500684137
 50
340.52624945469069
 51
359.21759254489399
  0
ARC
  5
458
  8
0
 10
30.686217619499821
 20
35.33015139568905
 30
0.0
 40
5.5038974440704846
 50
180.83440817266191
 51
199.42174982775501
  0
ARC
  5
459
  8
0
 10
30.655936233146551
 20
35.1752579234496
 30
0.0
 40
5.4735427500661054
 50
160.52624945468699
 51
179.21759254489891
  0
ARC
  5
45A
  8
0
 10
22.079590009869751
 20
35.169848674769952
 30
0.0
 40
5.5038974440715389
 50
0.8344081726638709
 51
19.421749827753349
  0
LINE
  5
45B
  8
0
 10
27.582903814685299
 20
30.000000035229579
 30
0.0
 11
27.582903814685299
 21
37.000000035229583
 31
0.0
  0
LINE
  5
45C
  8
0
 10
25.1829038146853
 20
30.000000035229579
 30
0.0
 11
27.582903814685299
 21
30.000000035229579
 31
0.0
  0
LINE
  5
45D
  8
0
 10
25.1829038146853
 20
30.000000035229579
 30
0.0
 11
25.1829038146853
 21
37.000000035229583
 31
0.0
  0
LINE
  5
45E
  8
0
 10
27.582903814685299
 20
37.000000035229583
 30
0.0
 11
25.1829038146853
 21
37.000000035229583
 31
0.0
  0
LINE
  5
45F
  8
0
 10
35.582903814685302
 20
36.000000035229583
 30
0.0
 11
35.582903814685302
 21
31.000000035229579
 31
0.0
  0
LINE
  5
460
  8
0
 10
29.582903814685299
 20
36.000000035229583
 30
0.0
 11
29.582903814685299
 21
31.000000035229579
 31
0.0
  0
LINE
  5
461
  8
0
 10
43.882903814685278
 20
31.500000035229579
 30
0.0
 11
43.882903814685278
 21
35.50000003522959
 31
0.0
  0
LINE
  5
462
  8
0
 10
36.882903814685278
 20
35.50000003522959
 30
0.0
 11
36.882903814685278
 21
31.500000035229579
 31
0.0
  0
LINE
  5
463
  8
0
 10
44.582903814685288
 20
34.800000035229573
 30
0.0
 11
44.582903814685288
 21
32.200000035229571
 31
0.0
  0
LINE
  5
466
  8
2
 10
26.582903814685299
 20
32.500000035229583
 30
0.0
 11
26.582903814685299
 21
33.500000035229583
 31
0.0
  0
LINE
  5
467
  8
2
 10
26.582903814685299
 20
33.500000035229583
 30
0.0
 11
26.582903814685299
 21
34.500000035229583
 31
0.0
  0
LINE
  5
468
  8
2
 10
26.495511205854939
 20
33.500000035229583
 30
0.0
 11
24.08290381468527
 21
33.500000035229583
 31
0.0
  0
LINE
  5
469
  8
2
 10
26.582903814685299
 20
32.500000035229583
 30
0.0
 11
24.08290381468527
 21
32.500000035229583
 31
0.0
  0
LINE
  5
46A
  8
2
 10
26.582903814685299
 20
34.500000035229583
 30
0.0
 11
24.08290381468527
 21
34.500000035229583
 31
0.0
  0
CIRCLE
  5
46B
  8
0
 10
6.0414519303578826
 20
58.500000035229583
 30
0.0
 40
3.5
  0
CIRCLE
  5
46C
  8
0
 10
62.624355699012654
 20
58.500000035229583
 30
0.0
 40
3.5
  0
LINE
  5
46D
  8
1
 10
0.0000000460304967
 20
58.500000035229583
 30
0.0
 11
12.08290381468527
 21
58.500000035229583
 31
0.0
  0
LINE
  5
46E
  8
1
 10
6.0414519303578826
 20
64.541451919556977
 30
0.0
 11
6.0414519303578826
 21
52.458548150902189
 31
0.0
  0
LINE
  5
46F
  8
1
 10
56.582903814685288
 20
58.500000035229583
 30
0.0
 11
68.665807583340069
 21
58.500000035229583
 31
0.0
  0
LINE
  5
470
  8
1
 10
62.624355699012682
 20
52.458548150902189
 30
0.0
 11
62.624355699012682
 21
64.541451919556977
 31
0.0
  0
LINE
  5
471
  8
1
 10
22.08290381468527
 20
58.50000003522959
 30
0.0
 11
37.582903814685309
 21
58.500000035229597
 31
0.0
  0
LINE
  5
472
  8
1
 10
46.582903814685288
 20
59.000000035229618
 30
0.0
 11
33.582903814685302
 21
59.000000035229611
 31
0.0
  0
LINE
  5
473
  8
1
 10
22.08290381468527
 20
33.500000035229583
 30
0.0
 11
46.582903814685288
 21
33.500000035229583
 31
0.0
  0
LINE
  5
474
  8
1
 10
58.624355699012618
 20
59.000000035229583
 30
0.0
 11
66.624355699012625
 21
59.000000035229583
 31
0.0
  0
LINE
  5
475
  8
3
 10
36.769537727541419
 20
60.621000035228221
 30
0.0
 11
44.261903814686669
 21
60.621000035228221
 31
0.0
  0
LINE
  5
476
  8
3
 10
36.769537727541412
 20
57.379000035231009
 30
0.0
 11
44.26190381468669
 21
57.379000035231009
 31
0.0
  0
CIRCLE
  5
477
  8
3
 10
62.624355699012682
 20
59.000000035229583
 30
0.0
 40
1.620999999998616
  0
CIRCLE
  5
478
  8
3
 10
6.0414519303578826
 20
58.500000035229583
 30
0.0
 40
1.620999999998616
  0
LINE
  5
479
  8
3
 10
24.164088062661609
 20
60.121000035228192
 30
0.0
 11
25.182903814685279
 21
60.121000035228192
 31
0.0
  0
LINE
  5
47A
  8
3
 10
24.164088062661619
 20
56.879000035230973
 30
0.0
 11
25.182903814685289
 21
56.879000035230973
 31
0.0
  0
LINE
  5
47B
  8
0
 10
25.1829038146853
 20
55.00000003522959
 30
0.0
 11
25.182903814685289
 21
62.000000035229618
 31
0.0
  0
LINE
  5
47C
  8
0
 10
27.582903814685299
 20
55.00000003522959
 30
0.0
 11
27.582903814685292
 21
62.000000035229618
 31
0.0
  0
LINE
  5
47D
  8
3
 10
36.769537727541433
 20
31.87900003523097
 30
0.0
 11
44.261903814686669
 21
31.87900003523097
 31
0.0
  0
LINE
  5
47E
  8
3
 10
36.769537727541412
 20
35.121000035228171
 30
0.0
 11
44.26190381468669
 21
35.121000035228192
 31
0.0
  0
LINE
  5
58E
  8
0
 10
28.282903564345801
 20
60.499999979350122
 30
0.0
 11
27.582904202115579
 21
60.499999979350122
 31
0.0
  0
LINE
  5
58F
  8
0
 10
27.582904202115579
 20
56.50000002219096
 30
0.0
 11
28.282903564345801
 21
56.50000002219096
 31
0.0
  0
ARC
  5
592
  8
0
 10
28.682903814685371
 20
60.400000035229567
 30
0.0
 40
0.3999999999999986
 50
180.0
 51
270.0
  0
ARC
  5
593
  8
0
 10
28.682903814685371
 20
56.600000035229613
 30
0.0
 40
0.3999999999999986
 50
90.0
 51
180.0
  0
LINE
  5
596
  8
0
 10
28.282903564345801
 20
60.499999979350122
 30
0.0
 11
28.282903564345801
 21
56.50000002219096
 31
0.0
  0
LINE
  5
597
  8
3
 10
27.582904202115579
 20
60.272500035229363
 30
0.0
 11
28.303768284828308
 21
60.272500035229548
 31
0.0
  0
LINE
  5
598
  8
3
 10
27.582904202115579
 20
56.72750003522944
 30
0.0
 11
28.303768284828308
 21
56.727500035229632
 31
0.0
  0
LINE
  5
653
  8
0
 10
25.1829038146853
 20
31.500000035229579
 30
0.0
 11
24.382903814685321
 21
31.500000035229579
 31
0.0
  0
LINE
  5
654
  8
0
 10
24.382903814685321
 20
35.500000035229583
 30
0.0
 11
25.182903814685289
 21
35.500000035229583
 31
0.0
  0
LINE
  5
655
  8
0
 10
24.382903814685321
 20
31.500000035229579
 30
0.0
 11
24.08290381468527
 21
32.01961527750025
 31
0.0
  0
LINE
  5
656
  8
0
 10
24.08290381468527
 20
34.980384792958901
 30
0.0
 11
24.382903814685321
 21
35.500000035229583
 31
0.0
  0
ARC
  5
657
  8
0
 10
29.1829038146853
 20
35.400000035229603
 30
0.0
 40
0.4000000000000057
 50
270.0
 51
0.0
  0
ARC
  5
658
  8
0
 10
29.1829038146853
 20
31.600000035229581
 30
0.0
 40
0.4000000000000057
 50
0.0
 51
89.999999999999474
  0
LINE
  5
659
  8
0
 10
29.1829038146853
 20
32.00000003522959
 30
0.0
 11
28.6829038146853
 21
32.00000003522959
 31
0.0
  0
LINE
  5
65A
  8
0
 10
28.6829038146853
 20
35.00000003522959
 30
0.0
 11
29.1829038146853
 21
35.00000003522959
 31
0.0
  0
LINE
  5
65B
  8
0
 10
24.382903814685321
 20
31.500000035229579
 30
0.0
 11
24.382903814685321
 21
35.500000035229583
 31
0.0
  0
LINE
  5
65C
  8
0
 10
24.08290381468527
 20
32.01961527750025
 30
0.0
 11
24.08290381468527
 21
34.980384792958901
 31
0.0
  0
LINE
  5
65D
  8
3
 10
24.164088062661609
 20
35.121000035228178
 30
0.0
 11
25.182903814685289
 21
35.121000035228178
 31
0.0
  0
LINE
  5
65E
  8
3
 10
24.16408806266163
 20
31.879000035230959
 30
0.0
 11
25.1829038146853
 21
31.879000035230959
 31
0.0
  0
LINE
  5
65F
  8
0
 10
28.282903564345801
 20
35.499999979350122
 30
0.0
 11
27.582904202115589
 21
35.499999979350122
 31
0.0
  0
LINE
  5
660
  8
0
 10
27.582904202115589
 20
31.50000002219095
 30
0.0
 11
28.282903564345801
 21
31.50000002219095
 31
0.0
  0
ARC
  5
661
  8
0
 10
28.682903814685378
 20
35.40000003522956
 30
0.0
 40
0.3999999999999986
 50
180.0
 51
270.0
  0
ARC
  5
662
  8
0
 10
28.682903814685378
 20
31.600000035229609
 30
0.0
 40
0.3999999999999986
 50
90.0
 51
180.0
  0
LINE
  5
663
  8
0
 10
28.282903564345801
 20
35.499999979350122
 30
0.0
 11
28.282903564345801
 21
31.50000002219095
 31
0.0
  0
LINE
  5
664
  8
3
 10
27.582904202115589
 20
35.272500035229349
 30
0.0
 11
28.303768284828308
 21
35.272500035229548
 31
0.0
  0
LINE
  5
665
  8
3
 10
27.582904202115589
 20
31.727500035229429
 30
0.0
 11
28.303768284828319
 21
31.727500035229632
 31
0.0
  0
TEXT
  5
6CB
  8
0
 62
     3
 10
0.0
 20
0.0
 30
0.0
 40
10.0
  1
PCRLP05E
  7
STANDARD1
  0
ENDSEC
  0
EOF
