  0
SECTION
  2
HEADER
  9
$ACADVER
  1
AC1009
  9
$INSBASE
 10
0.0
 20
0.0
 30
0.0
  9
$EXTMIN
 10
-0.0000001402656089
 20
-2.960436562073669
 30
0.0
  9
$EXTMAX
 10
145.3128741466025
 20
96.000000104859566
 30
0.0
  9
$LIMMIN
 10
0.0
 20
0.0
  9
$LIMMAX
 10
750.0
 20
540.0
  9
$ORTHOMODE
 70
     1
  9
$REGENMODE
 70
     1
  9
$FILLMODE
 70
     1
  9
$QTEXTMODE
 70
     0
  9
$MIRRTEXT
 70
     0
  9
$DRAGMODE
 70
     2
  9
$LTSCALE
 40
10.0
  9
$OSMODE
 70
    37
  9
$ATTMODE
 70
     1
  9
$TEXTSIZE
 40
0.2
  9
$TRACEWID
 40
0.05
  9
$TEXTSTYLE
  7
STANDARD
  9
$CLAYER
  8
0
  9
$CELTYPE
  6
BYLAYER
  9
$CECOLOR
 62
   256
  9
$DIMSCALE
 40
1.0
  9
$DIMASZ
 40
3.0
  9
$DIMEXO
 40
2.0
  9
$DIMDLI
 40
0.38
  9
$DIMRND
 40
0.0
  9
$DIMDLE
 40
0.0
  9
$DIMEXE
 40
2.0
  9
$DIMTP
 40
0.0
  9
$DIMTM
 40
0.0
  9
$DIMTXT
 40
3.2000000000000002
  9
$DIMCEN
 40
0.0
  9
$DIMTSZ
 40
0.0
  9
$DIMTOL
 70
     0
  9
$DIMLIM
 70
     0
  9
$DIMTIH
 70
     0
  9
$DIMTOH
 70
     0
  9
$DIMSE1
 70
     0
  9
$DIMSE2
 70
     0
  9
$DIMTAD
 70
     1
  9
$DIMZIN
 70
     0
  9
$DIMBLK
  1

  9
$DIMASO
 70
     0
  9
$DIMSHO
 70
     0
  9
$DIMPOST
  1

  9
$DIMAPOST
  1

  9
$DIMALT
 70
     0
  9
$DIMALTD
 70
     2
  9
$DIMALTF
 40
25.399999999999999
  9
$DIMLFAC
 40
1.0
  9
$DIMTOFL
 70
     0
  9
$DIMTVP
 40
1.6000000000000001
  9
$DIMTIX
 70
     1
  9
$DIMSOXD
 70
     0
  9
$DIMSAH
 70
     0
  9
$DIMBLK1
  1

  9
$DIMBLK2
  1

  9
$DIMSTYLE
  2
STANDARD
  9
$DIMCLRD
 70
     0
  9
$DIMCLRE
 70
     0
  9
$DIMCLRT
 70
     0
  9
$DIMTFAC
 40
1.0
  9
$DIMGAP
 40
0.09
  9
$LUNITS
 70
     2
  9
$LUPREC
 70
     4
  9
$SKETCHINC
 40
0.1
  9
$FILLETRAD
 40
0.0
  9
$AUNITS
 70
     0
  9
$AUPREC
 70
     4
  9
$MENU
  1
E:\r13\win\SUPPORT\ACAD
  9
$ELEVATION
 40
0.0
  9
$PELEVATION
 40
0.0
  9
$THICKNESS
 40
0.0
  9
$LIMCHECK
 70
     0
  9
$BLIPMODE
 70
     0
  9
$CHAMFERA
 40
0.0
  9
$CHAMFERB
 40
0.0
  9
$SKPOLY
 70
     0
  9
$TDCREATE
 40
2449840.6227546302
  9
$TDUPDATE
 40
2457436.5938359029
  9
$TDINDWG
 40
0.0441905093
  9
$TDUSRTIMER
 40
2456598.1813429049
  9
$USRTIMER
 70
     1
  9
$ANGBASE
 50
0.0
  9
$ANGDIR
 70
     0
  9
$PDMODE
 70
     0
  9
$PDSIZE
 40
0.0
  9
$PLINEWID
 40
0.0
  9
$COORDS
 70
     1
  9
$SPLFRAME
 70
     0
  9
$SPLINETYPE
 70
     6
  9
$SPLINESEGS
 70
     8
  9
$ATTDIA
 70
     0
  9
$ATTREQ
 70
     1
  9
$HANDLING
 70
     1
  9
$HANDSEED
  5
7DC
  9
$SURFTAB1
 70
     6
  9
$SURFTAB2
 70
     6
  9
$SURFTYPE
 70
     6
  9
$SURFU
 70
     6
  9
$SURFV
 70
     6
  9
$UCSNAME
  2

  9
$UCSORG
 10
0.0
 20
0.0
 30
0.0
  9
$UCSXDIR
 10
1.0
 20
0.0
 30
0.0
  9
$UCSYDIR
 10
0.0
 20
1.0
 30
0.0
  9
$PUCSNAME
  2

  9
$PUCSORG
 10
0.0
 20
0.0
 30
0.0
  9
$PUCSXDIR
 10
1.0
 20
0.0
 30
0.0
  9
$PUCSYDIR
 10
0.0
 20
1.0
 30
0.0
  9
$USERI1
 70
     0
  9
$USERI2
 70
     1
  9
$USERI3
 70
     0
  9
$USERI4
 70
     0
  9
$USERI5
 70
     0
  9
$USERR1
 40
0.0
  9
$USERR2
 40
0.0
  9
$USERR3
 40
0.0
  9
$USERR4
 40
0.0
  9
$USERR5
 40
0.0
  9
$WORLDVIEW
 70
     1
  9
$SHADEDGE
 70
     3
  9
$SHADEDIF
 70
    70
  9
$TILEMODE
 70
     1
  9
$MAXACTVP
 70
    16
  9
$PLIMCHECK
 70
     0
  9
$PEXTMIN
 10
1.0000000000000000E+020
 20
1.0000000000000000E+020
 30
1.0000000000000000E+020
  9
$PEXTMAX
 10
-1.0000000000000000E+020
 20
-1.0000000000000000E+020
 30
-1.0000000000000000E+020
  9
$PLIMMIN
 10
0.0
 20
0.0
  9
$PLIMMAX
 10
12.0
 20
9.0
  9
$UNITMODE
 70
     0
  9
$VISRETAIN
 70
     0
  9
$PLINEGEN
 70
     0
  9
$PSLTSCALE
 70
     0
  0
ENDSEC
  0
SECTION
  2
TABLES
  0
TABLE
  2
VPORT
 70
     1
  0
VPORT
  2
*ACTIVE
 70
     0
 10
0.0
 20
0.0
 11
1.0
 21
1.0
 12
172.54273504273499
 22
95.0
 13
0.0
 23
0.0
 14
20.0
 24
20.0
 15
20.0
 25
20.0
 16
0.0
 26
0.0
 36
1.0
 17
0.0
 27
0.0
 37
0.0
 40
190.0
 41
1.816239316239316
 42
50.0
 43
0.0
 44
0.0
 50
0.0
 51
0.0
 71
    16
 72
   100
 73
     1
 74
     0
 75
     0
 76
     0
 77
     0
 78
     2
  0
ENDTAB
  0
TABLE
  2
LTYPE
 70
     4
  0
LTYPE
  2
CONTINUOUS
 70
     0
  3
Solid Line
 72
    65
 73
     0
 40
0.0
  0
LTYPE
  2
CENTER
 70
     0
  3
____ _ ____ _ ____ _ ____ _ ____ _ ____ _ ____
 72
    65
 73
     4
 40
2.0
 49
1.25
 49
-0.25
 49
0.25
 49
-0.25
  0
LTYPE
  2
HIDDEN
 70
     0
  3
_ _ _ _ _ _ _ _ _ _ _ _ _ _ _ _ _ _ _ _ _ _ _
 72
    65
 73
     2
 40
0.375
 49
0.25
 49
-0.125
  0
LTYPE
  2
PHANTOM2
 70
     0
  3
___ _ _ ___ _ _ ___ _ _ ___ _ _
 72
    65
 73
     6
 40
1.25
 49
0.625
 49
-0.125
 49
0.125
 49
-0.125
 49
0.125
 49
-0.125
  0
ENDTAB
  0
TABLE
  2
LAYER
 70
     4
  0
LAYER
  2
0
 70
     0
 62
     7
  6
CONTINUOUS
  0
LAYER
  2
1
 70
     0
 62
     1
  6
CENTER
  0
LAYER
  2
2
 70
     0
 62
     2
  6
HIDDEN
  0
LAYER
  2
3
 70
     0
 62
     3
  6
CONTINUOUS
  0
ENDTAB
  0
TABLE
  2
STYLE
 70
     2
  0
STYLE
  2
STANDARD
 70
     0
 40
0.0
 41
1.0
 50
0.0
 71
     0
 42
0.2
  3
TXT
  4
BIGFONT
  0
STYLE
  2
STANDARD1
 70
     0
 40
0.0
 41
1.0
 50
0.0
 71
     0
 42
3.0
  3
txt
  4

  0
ENDTAB
  0
TABLE
  2
VIEW
 70
     1
  0
VIEW
  2
ALL
 70
     0
 40
540.0
 10
441.98319299999991
 20
270.0
 41
0.0
 11
0.0
 21
0.0
 31
1.0
 12
0.0
 22
0.0
 32
0.0
 42
50.0
 43
0.0
 44
0.0
 50
0.0
 71
     0
  0
ENDTAB
  0
TABLE
  2
UCS
 70
     0
  0
ENDTAB
  0
TABLE
  2
APPID
 70
     6
  0
APPID
  2
ACAD
 70
     0
  0
APPID
  2
ACAD_NAV_VCDISPLAY
 70
     0
  0
APPID
  2
ACAD_EXEMPT_FROM_CAD_STANDARDS
 70
     0
  0
APPID
  2
ACAD_DSTYLE_DIMJAG
 70
     0
  0
APPID
  2
ACAD_DSTYLE_DIMTALN
 70
     0
  0
APPID
  2
ACAD_MLEADERVER
 70
     0
  0
ENDTAB
  0
TABLE
  2
DIMSTYLE
 70
     1
  0
DIMSTYLE
  2
STANDARD
 70
     0
  3

  4

  5

  6

  7

 40
1.0
 41
0.18
 42
0.0625
 43
0.38
 44
0.18
 45
0.0
 46
0.0
 47
0.0
 48
0.0
140
0.18
141
0.09
142
0.0
143
25.399999999999999
144
1.0
145
0.0
146
1.0
147
0.09
 71
     0
 72
     0
 73
     1
 74
     1
 75
     0
 76
     0
 77
     0
 78
     0
170
     0
171
     2
172
     0
173
     0
174
     0
175
     0
176
     0
177
     0
178
     0
  0
ENDTAB
  0
ENDSEC
  0
SECTION
  2
BLOCKS
  0
BLOCK
  8
0
  2
$MODEL_SPACE
 70
     0
 10
0.0
 20
0.0
 30
0.0
  3
$MODEL_SPACE
  1

  0
ENDBLK
  5
11D
  8
0
  0
BLOCK
 67
     1
  8
0
  2
$PAPER_SPACE
 70
     0
 10
0.0
 20
0.0
 30
0.0
  3
$PAPER_SPACE
  1

  0
ENDBLK
  5
11B
 67
     1
  8
0
  0
ENDSEC
  0
SECTION
  2
ENTITIES
  0
CIRCLE
  5
42A
  8
0
 10
14.00003054261748
 20
82.000000104859538
 30
0.0
 40
10.499999999999989
  0
CIRCLE
  5
42B
  8
0
 10
14.00003054261748
 20
82.000000104859538
 30
0.0
 40
12.000000000000011
  0
LINE
  5
42C
  8
0
 10
2.00003054261748
 20
73.071796874583995
 30
0.0
 11
2.000030542617508
 21
86.928203335135038
 31
0.0
  0
LINE
  5
42D
  8
0
 10
2.000030542617508
 20
86.928203335135038
 30
0.0
 11
3.4876812350007191
 21
87.78709886284264
 31
0.0
  0
LINE
  5
42E
  8
0
 10
26.00003054261748
 20
73.071796874583995
 30
0.0
 11
14.00003054261748
 21
66.14359364430851
 31
0.0
  0
LINE
  5
42F
  8
0
 10
24.51237985023425
 20
87.78709886284264
 30
0.0
 11
26.00003054261748
 21
86.928203335135038
 31
0.0
  0
LINE
  5
430
  8
0
 10
26.00003054261748
 20
86.928203335135038
 30
0.0
 11
26.00003054261748
 21
73.071796874583995
 31
0.0
  0
LINE
  5
431
  8
0
 10
14.00003054261748
 20
66.14359364430851
 30
0.0
 11
2.00003054261748
 21
73.071796874583995
 31
0.0
  0
LINE
  5
432
  8
0
 10
99.719279112843509
 20
71.050000104859521
 30
0.0
 11
100.5564370031685
 21
72.500000104859538
 31
0.0
  0
LINE
  5
433
  8
0
 10
100.5564370031685
 20
91.500000104859566
 30
0.0
 11
99.719279112843509
 21
92.950000104859555
 31
0.0
  0
LINE
  5
434
  8
0
 10
90.556437003168469
 20
71.050000104859521
 30
0.0
 11
99.719279112843509
 21
71.050000104859521
 31
0.0
  0
LINE
  5
435
  8
0
 10
99.719279112843509
 20
92.950000104859555
 30
0.0
 11
90.556437003168469
 21
92.950000104859555
 31
0.0
  0
LINE
  5
436
  8
0
 10
87.556437003168497
 20
71.25000010485951
 30
0.0
 11
90.556437003168469
 21
71.25000010485951
 31
0.0
  0
LINE
  5
437
  8
0
 10
90.556437003168469
 20
92.750000104859566
 30
0.0
 11
87.556437003168497
 21
92.750000104859566
 31
0.0
  0
LINE
  5
438
  8
0
 10
50.956437003168489
 20
76.000000104859524
 30
0.0
 11
51.456437003168539
 21
76.000000104859524
 31
0.0
  0
LINE
  5
439
  8
0
 10
85.556437003168469
 20
76.000000104859524
 30
0.0
 11
87.556437003168497
 21
76.000000104859524
 31
0.0
  0
LINE
  5
43A
  8
0
 10
100.5564370031685
 20
76.000000104859524
 30
0.0
 11
101.4564370031684
 21
76.000000104859524
 31
0.0
  0
LINE
  5
43B
  8
0
 10
87.556437003168497
 20
88.000000104859538
 30
0.0
 11
85.556437003168469
 21
88.000000104859538
 31
0.0
  0
LINE
  5
43C
  8
0
 10
51.456437003168539
 20
88.000000104859538
 30
0.0
 11
50.956437003168489
 21
88.000000104859538
 31
0.0
  0
LINE
  5
43D
  8
0
 10
48.456437003168489
 20
70.000000104859524
 30
0.0
 11
50.956437003168489
 21
70.000000104859524
 31
0.0
  0
LINE
  5
43E
  8
0
 10
50.956437003168489
 20
94.000000104859566
 30
0.0
 11
48.456437003168489
 21
94.000000104859566
 31
0.0
  0
ARC
  5
43F
  8
0
 10
73.15643700316852
 20
90.400000104859515
 30
0.0
 40
0.4000000000000057
 50
270.0
 51
0.0
  0
ARC
  5
440
  8
0
 10
73.15643700316852
 20
69.600000104859546
 30
0.0
 40
0.4000000000000057
 50
0.0
 51
90.0
  0
LINE
  5
441
  8
0
 10
51.956437003168531
 20
90.000000104859524
 30
0.0
 11
51.456437003168539
 21
89.711324970264727
 31
0.0
  0
LINE
  5
442
  8
0
 10
51.456437003168539
 20
70.288675239454349
 30
0.0
 11
51.956437003168531
 21
70.000000104859538
 31
0.0
  0
LINE
  5
443
  8
0
 10
73.15643700316852
 20
90.000000104859524
 30
0.0
 11
51.956437003168531
 21
90.000000104859524
 31
0.0
  0
LINE
  5
444
  8
0
 10
51.956437003168531
 20
70.000000104859538
 30
0.0
 11
73.15643700316852
 21
70.000000104859538
 31
0.0
  0
LINE
  5
445
  8
0
 10
74.628233772893026
 20
93.85640656541058
 30
0.0
 11
73.556437003168497
 21
92.000000104859566
 31
0.0
  0
LINE
  5
446
  8
0
 10
73.556437003168497
 20
68.000000104859538
 30
0.0
 11
74.628233772893026
 21
66.143593644308524
 31
0.0
  0
ARC
  5
447
  8
0
 10
80.749148303366127
 20
82.258045159133445
 30
0.0
 40
19.808969505942379
 50
343.26635607574411
 51
359.25360525626252
  0
ARC
  5
448
  8
0
 10
95.064164310969275
 20
73.574088636507597
 30
0.0
 40
5.4958647315035991
 50
2.0716377192992299
 51
32.110841306982259
  0
LINE
  5
449
  8
0
 10
99.719279112843509
 20
76.554589192908054
 30
0.0
 11
99.719279112843509
 21
76.495464224883179
 31
0.0
  0
LINE
  5
44A
  8
0
 10
90.556437003168469
 20
87.445411016810979
 30
0.0
 11
99.719279112843509
 21
87.445411016810979
 31
0.0
  0
ARC
  5
44B
  8
0
 10
81.142394396216545
 20
81.802411290673305
 30
0.0
 40
19.415048073183851
 50
0.5831147326511951
 51
16.896923935343931
  0
LINE
  5
44C
  8
0
 10
99.719279112843509
 20
76.554589192908054
 30
0.0
 11
90.556437003168469
 21
76.554589192908054
 31
0.0
  0
LINE
  5
44D
  8
0
 10
90.556437003168469
 20
76.495464224883179
 30
0.0
 11
99.719279112843509
 21
76.495464224883179
 31
0.0
  0
ARC
  5
44E
  8
0
 10
95.103011032327174
 20
90.413967262736506
 30
0.0
 40
5.4566217893509741
 50
327.77856776548151
 51
358.03895320823898
  0
LINE
  5
44F
  8
0
 10
99.719279112843509
 20
87.504535984835925
 30
0.0
 11
99.719279112843509
 21
87.445411016810979
 31
0.0
  0
LINE
  5
450
  8
0
 10
99.719279112843509
 20
87.504535984835925
 30
0.0
 11
90.556437003168469
 21
87.504535984835925
 31
0.0
  0
ARC
  5
451
  8
0
 10
95.103031586882693
 20
73.959478270865375
 30
0.0
 40
5.456601030567219
 50
327.77850882864942
 51
358.0390121450709
  0
LINE
  5
452
  8
0
 10
99.719279112843509
 20
71.050053312931624
 30
0.0
 11
90.556437003168469
 21
71.050053312931624
 31
0.0
  0
LINE
  5
453
  8
0
 10
90.556437003168469
 20
71.050053312931624
 30
0.0
 11
90.556437003168469
 21
92.949946896787424
 31
0.0
  0
LINE
  5
454
  8
0
 10
90.556437003168469
 20
92.949946896787424
 30
0.0
 11
99.719279112843509
 21
92.949946896787424
 31
0.0
  0
ARC
  5
455
  8
0
 10
95.064164310969275
 20
90.028571308411884
 30
0.0
 40
5.495864731503576
 50
2.0716377192989461
 51
32.11084130698196
  0
LINE
  5
456
  8
0
 10
99.719279112843509
 20
71.050053312931624
 30
0.0
 11
99.719279112843509
 21
71.050000104859521
 31
0.0
  0
LINE
  5
457
  8
0
 10
100.5564370031685
 20
91.500000104859566
 30
0.0
 11
100.5564370031685
 21
72.50000010485951
 31
0.0
  0
LINE
  5
458
  8
0
 10
99.719279112843509
 20
92.949946896787424
 30
0.0
 11
99.719279112843509
 21
92.950000104859555
 31
0.0
  0
LINE
  5
459
  8
0
 10
87.556437003168497
 20
92.750000104859566
 30
0.0
 11
87.556437003168497
 21
71.25000010485951
 31
0.0
  0
LINE
  5
45A
  8
0
 10
50.956437003168489
 20
94.000000104859566
 30
0.0
 11
50.956437003168489
 21
70.000000104859524
 31
0.0
  0
LINE
  5
45B
  8
0
 10
48.456437003168489
 20
94.000000104859566
 30
0.0
 11
48.456437003168489
 21
70.000000104859524
 31
0.0
  0
LINE
  5
45C
  8
0
 10
74.628233772893026
 20
86.928203335135038
 30
0.0
 11
84.484640233443969
 21
86.928203335135038
 31
0.0
  0
ARC
  5
45D
  8
0
 10
80.462925268493194
 20
90.631321511305785
 30
0.0
 40
6.9106229151585881
 50
181.98207487032289
 51
212.40217259772061
  0
ARC
  5
45E
  8
0
 10
80.518768690393088
 20
90.136010374374123
 30
0.0
 40
6.9670473970374811
 50
147.72394998004279
 51
177.89180255191619
  0
LINE
  5
45F
  8
0
 10
74.628233772893026
 20
93.85640656541058
 30
0.0
 11
84.484640233443898
 21
93.856406565410595
 31
0.0
  0
ARC
  5
460
  8
0
 10
80.518768690393088
 20
69.351400683547567
 30
0.0
 40
6.967047397037466
 50
147.72394998004279
 51
177.8918025519159
  0
ARC
  5
461
  8
0
 10
98.434726087756289
 20
80.301679436407326
 30
0.0
 40
24.880118130656069
 50
180.6947465421913
 51
196.8932072318035
  0
LINE
  5
462
  8
0
 10
74.628233772893026
 20
73.071796874584024
 30
0.0
 11
84.484640233443969
 21
73.071796874584024
 31
0.0
  0
ARC
  5
463
  8
0
 10
98.047698968671142
 20
79.75819407700159
 30
0.0
 40
24.492455630621919
 50
162.97771796349889
 51
179.43432826250771
  0
LINE
  5
464
  8
0
 10
74.628233772893026
 20
66.143593644308524
 30
0.0
 11
84.484640233443969
 21
66.143593644308524
 31
0.0
  0
ARC
  5
465
  8
0
 10
80.46292526849308
 20
69.846711820479243
 30
0.0
 40
6.9106229151585321
 50
181.98207487032289
 51
212.40217259772069
  0
LINE
  5
467
  8
0
 10
51.456437003168539
 20
70.288675239454349
 30
0.0
 11
51.456437003168539
 21
89.711324970264727
 31
0.0
  0
LINE
  5
468
  8
0
 10
51.956437003168531
 20
90.000000104859524
 30
0.0
 11
51.956437003168531
 21
70.000000104859538
 31
0.0
  0
LINE
  5
469
  8
0
 10
73.556437003168497
 20
68.000000104859538
 30
0.0
 11
73.556437003168497
 21
92.000000104859566
 31
0.0
  0
LINE
  5
46A
  8
0
 10
121.8128434637194
 20
82.000000104859538
 30
0.0
 11
121.8128434637194
 21
76.554589192908082
 31
0.0
  0
ARC
  5
46B
  8
0
 10
131.31284346371939
 20
82.000000104859538
 30
0.0
 40
9.5000000000000266
 50
180.0
 51
240.0
  0
LINE
  5
46C
  8
0
 10
121.8469792799244
 20
76.495464224883179
 30
0.0
 11
126.5628434637193
 21
73.772758768907408
 31
0.0
  0
ARC
  5
46D
  8
0
 10
131.31284346371939
 20
82.000000104859538
 30
0.0
 40
10.950000000000029
 50
209.82138435007221
 51
210.1786156499283
  0
LINE
  5
46E
  8
0
 10
126.5628434637193
 20
90.227241440811639
 30
0.0
 11
121.8469792799244
 21
87.504535984835925
 31
0.0
  0
ARC
  5
46F
  8
0
 10
131.31284346371939
 20
82.000000104859538
 30
0.0
 40
9.5000000000000266
 50
120.0000000000001
 51
180.0
  0
LINE
  5
470
  8
0
 10
121.8128434637194
 20
87.445411016810979
 30
0.0
 11
121.8128434637194
 21
82.000000104859538
 31
0.0
  0
ARC
  5
471
  8
0
 10
131.31284346371939
 20
82.000000104859538
 30
0.0
 40
10.95000000000004
 50
149.82138435007201
 51
150.17861564992779
  0
LINE
  5
472
  8
0
 10
140.81284346371939
 20
82.000000104859538
 30
0.0
 11
140.81284346371939
 21
87.445411016810993
 31
0.0
  0
ARC
  5
473
  8
0
 10
131.31284346371939
 20
82.000000104859538
 30
0.0
 40
9.5000000000000231
 50
0.0
 51
59.999999999998103
  0
LINE
  5
474
  8
0
 10
140.77870764751441
 20
87.504535984835925
 30
0.0
 11
136.06284346371959
 21
90.227241440811639
 31
0.0
  0
ARC
  5
475
  8
0
 10
131.31284346371939
 20
82.000000104859538
 30
0.0
 40
10.950000000000021
 50
29.82138435007192
 51
30.178615649927941
  0
LINE
  5
476
  8
0
 10
126.5628434637193
 20
73.772758768907408
 30
0.0
 11
131.27870764751421
 21
71.050053312931652
 31
0.0
  0
ARC
  5
477
  8
0
 10
131.31284346371939
 20
82.000000104859538
 30
0.0
 40
9.5000000000000124
 50
239.99999999999989
 51
300.00000000000182
  0
LINE
  5
478
  8
0
 10
131.34697927992471
 20
71.050053312931652
 30
0.0
 11
136.06284346371959
 21
73.772758768907408
 31
0.0
  0
ARC
  5
479
  8
0
 10
131.31284346371939
 20
82.000000104859538
 30
0.0
 40
10.94999999999999
 50
269.82138435007062
 51
270.17861564992938
  0
LINE
  5
47A
  8
0
 10
131.27870764751421
 20
92.949946896787424
 30
0.0
 11
126.5628434637193
 21
90.227241440811639
 31
0.0
  0
ARC
  5
47B
  8
0
 10
131.31284346371939
 20
82.000000104859538
 30
0.0
 40
10.950000000000021
 50
89.821384350070645
 51
90.178615649929412
  0
LINE
  5
47C
  8
0
 10
136.06284346371959
 20
90.227241440811639
 30
0.0
 11
131.34697927992471
 21
92.949946896787424
 31
0.0
  0
ARC
  5
47D
  8
0
 10
131.31284346371939
 20
82.000000104859538
 30
0.0
 40
9.5000000000000231
 50
59.999999999998103
 51
120.0000000000001
  0
ARC
  5
47E
  8
0
 10
131.31284346371939
 20
82.000000104859538
 30
0.0
 40
9.5000000000000124
 50
300.00000000000182
 51
0.0
  0
LINE
  5
47F
  8
0
 10
136.06284346371959
 20
73.772758768907408
 30
0.0
 11
140.77870764751441
 21
76.495464224883179
 31
0.0
  0
LINE
  5
480
  8
0
 10
140.81284346371939
 20
76.554589192908111
 30
0.0
 11
140.81284346371939
 21
82.000000104859538
 31
0.0
  0
ARC
  5
481
  8
0
 10
131.31284346371939
 20
82.000000104859538
 30
0.0
 40
10.949999999999999
 50
329.82138435007261
 51
330.17861564992847
  0
ARC
  5
482
  8
0
 10
131.31284346371939
 20
82.000000104859538
 30
0.0
 40
10.749999999999989
 50
212.2278848177971
 51
267.85101171644737
  0
ARC
  5
483
  8
0
 10
131.31284346371939
 20
82.000000104859538
 30
0.0
 40
10.749999999999989
 50
272.45671574530053
 51
327.55311040788371
  0
ARC
  5
484
  8
0
 10
131.31284346371939
 20
82.000000104859538
 30
0.0
 40
10.749999999999989
 50
332.20643120882198
 51
27.707212224789231
  0
ARC
  5
485
  8
0
 10
131.31284346371939
 20
82.000000104859538
 30
0.0
 40
10.75000000000003
 50
32.426215113522417
 51
87.643347157901701
  0
ARC
  5
486
  8
0
 10
131.31284346371939
 20
82.000000104859538
 30
0.0
 40
10.750000000000011
 50
92.366276024287572
 51
147.56763295191561
  0
CIRCLE
  5
487
  8
0
 10
131.31284346371939
 20
82.000000104859538
 30
0.0
 40
6.0
  0
LINE
  5
488
  8
0
 10
143.3128434637195
 20
73.071796874584052
 30
0.0
 11
143.31284346371939
 21
86.928203335135066
 31
0.0
  0
LINE
  5
489
  8
0
 10
131.31284346371939
 20
66.143593644308524
 30
0.0
 11
143.3128434637195
 21
73.071796874584052
 31
0.0
  0
LINE
  5
48A
  8
0
 10
119.3128434637194
 20
73.071796874584052
 30
0.0
 11
131.31284346371939
 21
66.143593644308524
 31
0.0
  0
LINE
  5
48B
  8
0
 10
119.3128434637194
 20
86.928203335135066
 30
0.0
 11
119.3128434637194
 21
73.071796874584052
 31
0.0
  0
LINE
  5
48C
  8
0
 10
131.31284346371939
 20
93.856406565410538
 30
0.0
 11
128.93545906850221
 21
92.483823044864693
 31
0.0
  0
LINE
  5
48D
  8
0
 10
123.4222786665056
 20
89.300786855680954
 30
0.0
 11
119.3128434637194
 21
86.928203335135066
 31
0.0
  0
LINE
  5
48E
  8
0
 10
143.31284346371939
 20
86.928203335135066
 30
0.0
 11
139.20340826093329
 21
89.300786855680954
 31
0.0
  0
LINE
  5
48F
  8
0
 10
133.69022785893671
 20
92.483823044864693
 30
0.0
 11
131.31284346371939
 21
93.856406565410538
 31
0.0
  0
LINE
  5
490
  8
0
 10
87.556437003168497
 20
31.250000104859549
 30
0.0
 11
90.556437003168469
 21
31.250000104859549
 31
0.0
  0
LINE
  5
491
  8
0
 10
50.956437003168467
 20
36.000000104859531
 30
0.0
 11
51.45643700316846
 21
36.000000104859531
 31
0.0
  0
LINE
  5
492
  8
0
 10
51.45643700316846
 20
48.000000104859552
 30
0.0
 11
50.956437003168467
 21
48.000000104859552
 31
0.0
  0
LINE
  5
493
  8
0
 10
48.456437003168467
 20
30.000000104859549
 30
0.0
 11
50.956437003168467
 21
30.000000104859549
 31
0.0
  0
LINE
  5
494
  8
0
 10
50.956437003168467
 20
54.000000104859538
 30
0.0
 11
48.456437003168467
 21
54.000000104859538
 31
0.0
  0
ARC
  5
495
  8
0
 10
73.15643700316852
 20
52.400000104859529
 30
0.0
 40
0.4000000000000057
 50
270.0
 51
0.0
  0
ARC
  5
496
  8
0
 10
73.15643700316852
 20
31.600000104859539
 30
0.0
 40
0.4000000000000057
 50
0.0
 51
90.0
  0
LINE
  5
497
  8
0
 10
51.95643700316846
 20
52.000000104859538
 30
0.0
 11
51.45643700316846
 21
51.71132497026472
 31
0.0
  0
LINE
  5
498
  8
0
 10
51.45643700316846
 20
32.288675239454371
 30
0.0
 11
51.95643700316846
 21
32.000000104859538
 31
0.0
  0
LINE
  5
499
  8
0
 10
73.15643700316852
 20
52.000000104859538
 30
0.0
 11
51.95643700316846
 21
52.000000104859538
 31
0.0
  0
LINE
  5
49A
  8
0
 10
51.95643700316846
 20
32.000000104859538
 30
0.0
 11
73.15643700316852
 21
32.000000104859538
 31
0.0
  0
ARC
  5
49B
  8
0
 10
85.727403323807224
 20
46.950204849336977
 30
0.0
 40
14.83038508614468
 50
340.64098956098849
 51
359.22650455344342
  0
ARC
  5
49C
  8
0
 10
85.655221239970103
 20
37.036981632363407
 30
0.0
 40
14.90273827492838
 50
0.8190088868378385
 51
19.313496998730582
  0
LINE
  5
49D
  8
0
 10
99.719279112843509
 20
42.034135921064781
 30
0.0
 11
99.719279112843509
 21
41.965864288654309
 31
0.0
  0
LINE
  5
49E
  8
0
 10
99.719279112843509
 20
42.034135921064781
 30
0.0
 11
90.556437003168469
 21
42.034135921064781
 31
0.0
  0
LINE
  5
49F
  8
0
 10
90.556437003168469
 20
41.965864288654309
 30
0.0
 11
99.719279112843509
 21
41.965864288654309
 31
0.0
  0
LINE
  5
4A0
  8
0
 10
90.556437003168469
 20
51.465864288654572
 30
0.0
 11
99.719279112843509
 21
51.465864288654572
 31
0.0
  0
ARC
  5
4A1
  8
0
 10
85.655221239970246
 20
46.536981632363677
 30
0.0
 40
14.902738274928289
 50
0.8190088868378438
 51
19.31349699873056
  0
ARC
  5
4A2
  8
0
 10
85.727365151059786
 20
37.450211625744068
 30
0.0
 40
14.830423346893969
 50
340.64101374766312
 51
359.22648036676929
  0
LINE
  5
4A3
  8
0
 10
99.719279112843509
 20
32.534135921064539
 30
0.0
 11
90.556437003168469
 21
32.534135921064539
 31
0.0
  0
LINE
  5
4A4
  8
0
 10
99.719279112843509
 20
32.500000104859531
 30
0.0
 11
100.5564370031685
 21
32.500000104859517
 31
0.0
  0
LINE
  5
4A5
  8
0
 10
99.719279112843509
 20
32.534135921064539
 30
0.0
 11
99.719279112843509
 21
32.500000104859531
 31
0.0
  0
LINE
  5
4A6
  8
0
 10
100.5564370031685
 20
51.500000104859559
 30
0.0
 11
100.5564370031685
 21
32.500000104859517
 31
0.0
  0
LINE
  5
4A7
  8
0
 10
100.5564370031685
 20
51.500000104859559
 30
0.0
 11
99.719279112843509
 21
51.500000104859573
 31
0.0
  0
LINE
  5
4A8
  8
0
 10
99.719279112843509
 20
51.500000104859573
 30
0.0
 11
99.719279112843509
 21
51.465864288654572
 31
0.0
  0
LINE
  5
4A9
  8
0
 10
99.719279112843509
 20
51.500000104859573
 30
0.0
 11
90.556437003168469
 21
51.500000104859573
 31
0.0
  0
LINE
  5
4AA
  8
0
 10
90.556437003168469
 20
32.500000104859531
 30
0.0
 11
99.719279112843509
 21
32.500000104859531
 31
0.0
  0
LINE
  5
4AB
  8
0
 10
87.556437003168497
 20
52.733242858100503
 30
0.0
 11
87.556437003168497
 21
31.250000104859549
 31
0.0
  0
LINE
  5
4AC
  8
0
 10
90.556437003168469
 20
52.733242858100503
 30
0.0
 11
87.556437003168497
 21
52.733242858100503
 31
0.0
  0
LINE
  5
4AD
  8
0
 10
90.556437003168469
 20
52.733242858100503
 30
0.0
 11
90.556437003168469
 21
31.250000104859549
 31
0.0
  0
LINE
  5
4AE
  8
0
 10
50.956437003168467
 20
54.000000104859538
 30
0.0
 11
50.956437003168467
 21
30.000000104859549
 31
0.0
  0
LINE
  5
4AF
  8
0
 10
48.456437003168467
 20
54.000000104859538
 30
0.0
 11
48.456437003168467
 21
30.000000104859549
 31
0.0
  0
LINE
  5
4B0
  8
0
 10
74.628233772892955
 20
42.000000104859531
 30
0.0
 11
84.484640233443983
 21
42.000000104859581
 31
0.0
  0
ARC
  5
4B1
  8
0
 10
92.321232264721374
 20
48.256278902872459
 30
0.0
 40
18.766545234280819
 50
180.78246420716749
 51
199.47369379325011
  0
ARC
  5
4B2
  8
0
 10
92.424941476819583
 20
47.725195440427044
 30
0.0
 40
18.870505522528688
 50
160.5782501722463
 51
179.16559182733741
  0
LINE
  5
4B3
  8
0
 10
73.556437003168497
 20
54.000000104859531
 30
0.0
 11
85.556437003168469
 21
54.000000104859531
 31
0.0
  0
LINE
  5
4B4
  8
0
 10
85.556437003168469
 20
54.000000104859531
 30
0.0
 11
85.556437003168469
 21
30.000000104859549
 31
0.0
  0
LINE
  5
4B5
  8
0
 10
73.556437003168497
 20
30.000000104859549
 30
0.0
 11
85.556437003168469
 21
30.000000104859549
 31
0.0
  0
ARC
  5
4B6
  8
0
 10
92.321232264720919
 20
36.256278902872403
 30
0.0
 40
18.7665452342804
 50
180.78246420716749
 51
199.47369379325011
  0
ARC
  5
4B7
  8
0
 10
92.424941476819498
 20
35.725195440427022
 30
0.0
 40
18.87050552252861
 50
160.57825017224619
 51
179.16559182733741
  0
LINE
  5
4B8
  8
0
 10
73.556437003168497
 20
30.000000104859549
 30
0.0
 11
73.556437003168497
 21
54.000000104859531
 31
0.0
  0
LINE
  5
4B9
  8
0
 10
51.45643700316846
 20
32.288675239454371
 30
0.0
 11
51.45643700316846
 21
51.71132497026472
 31
0.0
  0
LINE
  5
4BA
  8
0
 10
51.95643700316846
 20
52.000000104859538
 30
0.0
 11
51.95643700316846
 21
32.000000104859531
 31
0.0
  0
ARC
  5
4BB
  8
0
 10
131.31284346371939
 20
82.000000104859538
 30
0.0
 40
10.749999999999989
 50
152.2927877752106
 51
207.7935687911793
  0
LINE
  5
4BC
  8
1
 10
39.85643700316848
 20
42.000000104859531
 30
0.0
 11
105.4564370031684
 21
42.000000104859531
 31
0.0
  0
LINE
  5
4BD
  8
1
 10
39.85643700316848
 20
82.000000104859538
 30
0.0
 11
105.4564370031684
 21
82.000000104859538
 31
0.0
  0
LINE
  5
4BE
  8
1
 10
49.456437003168531
 20
80.000000104859524
 30
0.0
 11
87.556437003168497
 21
80.000000104859524
 31
0.0
  0
LINE
  5
4BF
  8
1
 10
131.31284346371939
 20
95.856406565410552
 30
0.0
 11
131.31284346371939
 21
64.143593644308538
 31
0.0
  0
LINE
  5
4C0
  8
1
 10
118.5628434637195
 20
82.000000104859538
 30
0.0
 11
144.06284346371939
 21
82.000000104859538
 31
0.0
  0
LINE
  5
4C1
  8
1
 10
0.0000305426174521
 20
82.000000104859538
 30
0.0
 11
28.000030542617509
 21
82.000000104859538
 31
0.0
  0
LINE
  5
4C2
  8
1
 10
14.00003054261748
 20
96.000000104859566
 30
0.0
 11
14.00003054261748
 21
64.143593644308524
 31
0.0
  0
LINE
  5
4C3
  8
1
 10
-0.0000001402656089
 20
80.000000104859524
 30
0.0
 11
28.00006122550057
 21
80.000000104859524
 31
0.0
  0
LINE
  5
4C4
  8
1
 10
117.3128127808364
 20
80.000000104859524
 30
0.0
 11
145.3128741466025
 21
80.000000104859524
 31
0.0
  0
CIRCLE
  5
4C5
  8
0
 10
14.00003054261748
 20
82.000000104859538
 30
0.0
 40
4.8846885893364194
  0
LINE
  5
4C6
  8
0
 10
10.00003054261702
 20
84.309401181617687
 30
0.0
 11
10.00003054261793
 21
79.690599028101389
 31
0.0
  0
LINE
  5
4C7
  8
0
 10
14.00003054261748
 20
86.618802258376746
 30
0.0
 11
10.00003054261702
 21
84.309401181617687
 31
0.0
  0
LINE
  5
4C8
  8
0
 10
18.00003054261748
 20
84.309401181619037
 30
0.0
 11
14.00003054261748
 21
86.618802258376746
 31
0.0
  0
LINE
  5
4C9
  8
0
 10
18.00003054261748
 20
79.690599028101389
 30
0.0
 11
18.00003054261748
 21
84.309401181619037
 31
0.0
  0
LINE
  5
4CA
  8
0
 10
14.00003054261793
 20
77.381197951342784
 30
0.0
 11
18.00003054261748
 21
79.690599028101389
 31
0.0
  0
LINE
  5
4CB
  8
0
 10
10.00003054261793
 20
79.690599028101389
 30
0.0
 11
14.00003054261793
 21
77.381197951342784
 31
0.0
  0
LINE
  5
4CC
  8
0
 10
47.656437003169451
 20
71.500000104859524
 30
0.0
 11
48.456437003168482
 21
71.500000104859524
 31
0.0
  0
ARC
  5
4CD
  8
0
 10
48.324486243291169
 20
78.468049344982191
 30
0.0
 40
7.0
 50
191.14241003249941
 51
264.52360790056127
  0
ARC
  5
4CE
  8
0
 10
48.324486243291169
 20
85.531950864736899
 30
0.0
 40
7.0
 50
95.476392099438655
 51
168.8575899675005
  0
LINE
  5
4CF
  8
0
 10
41.456437003168482
 20
77.115311515521782
 30
0.0
 11
41.456437003168482
 21
86.884688694195276
 31
0.0
  0
LINE
  5
4D0
  8
0
 10
47.656437003168477
 20
71.500000104859524
 30
0.0
 11
47.656437003168477
 21
92.500000104859524
 31
0.0
  0
LINE
  5
4D1
  8
0
 10
47.656437003169451
 20
92.500000104859524
 30
0.0
 11
48.456437003168482
 21
92.500000104859524
 31
0.0
  0
LINE
  5
4D2
  8
0
 10
47.656437003169422
 20
31.500000104859559
 30
0.0
 11
48.456437003168467
 21
31.500000104859559
 31
0.0
  0
ARC
  5
4D3
  8
0
 10
48.32448624329114
 20
38.468049344982177
 30
0.0
 40
7.0
 50
191.1424100324993
 51
264.52360790056127
  0
ARC
  5
4D4
  8
0
 10
48.32448624329114
 20
45.531950864736899
 30
0.0
 40
7.0
 50
95.476392099438655
 51
168.85758996750059
  0
LINE
  5
4D5
  8
0
 10
41.45643700316846
 20
37.115311515521789
 30
0.0
 11
41.45643700316846
 21
46.88468869419529
 31
0.0
  0
LINE
  5
4D6
  8
0
 10
47.65643700316847
 20
31.500000104859559
 30
0.0
 11
47.65643700316847
 21
52.500000104859552
 31
0.0
  0
LINE
  5
4D7
  8
0
 10
47.656437003169422
 20
52.500000104859552
 30
0.0
 11
48.456437003168467
 21
52.500000104859552
 31
0.0
  0
LINE
  5
4D8
  8
0
 10
101.4564370031685
 20
88.000000104859538
 30
0.0
 11
101.4564370031684
 21
76.000000104859524
 31
0.0
  0
LINE
  5
4D9
  8
0
 10
103.4564370031684
 20
78.000000104859538
 30
0.0
 11
101.4564370031684
 21
76.000000104859524
 31
0.0
  0
LINE
  5
4DA
  8
0
 10
103.4564370031685
 20
86.000000104859538
 30
0.0
 11
101.4564370031685
 21
88.000000104859538
 31
0.0
  0
LINE
  5
4DB
  8
3
 10
100.5564370031685
 20
76.947000104859512
 30
0.0
 11
102.40343700316841
 21
76.947000104859512
 31
0.0
  0
LINE
  5
4DC
  8
0
 10
103.4564370031685
 20
86.000000104859538
 30
0.0
 11
103.4564370031684
 21
78.000000104859538
 31
0.0
  0
LINE
  5
4DD
  8
0
 10
100.5564370031685
 20
88.000000104859538
 30
0.0
 11
101.4564370031684
 21
88.000000104859538
 31
0.0
  0
LINE
  5
4DE
  8
3
 10
100.5564370031685
 20
87.053000104859535
 30
0.0
 11
102.40343700316841
 21
87.053000104859535
 31
0.0
  0
CIRCLE
  5
4DF
  8
3
 10
131.31284346371939
 20
82.000000104859538
 30
0.0
 40
5.0530000000000248
  0
LINE
  5
4E0
  8
2
 10
50.956437003168489
 20
88.000000104859538
 30
0.0
 11
48.45643700316851
 21
88.000000104859538
 31
0.0
  0
LINE
  5
4E1
  8
2
 10
51.456437003168539
 20
88.000000104859538
 30
0.0
 11
85.556437003168469
 21
88.000000104859538
 31
0.0
  0
LINE
  5
4E2
  8
2
 10
87.556437003168497
 20
88.000000104859538
 30
0.0
 11
100.5564370031685
 21
88.000000104859538
 31
0.0
  0
LINE
  5
4E3
  8
2
 10
69.456437003168503
 20
87.053000104859535
 30
0.0
 11
67.816184888400855
 21
88.000000104859538
 31
0.0
  0
LINE
  5
4E4
  8
2
 10
69.456437003168503
 20
88.000000104859538
 30
0.0
 11
69.456437003168503
 21
76.000000104859524
 31
0.0
  0
LINE
  5
4E5
  8
2
 10
100.5564370031685
 20
87.053000104859535
 30
0.0
 11
87.556437003168483
 21
87.053000104859535
 31
0.0
  0
LINE
  5
4E6
  8
3
 10
87.556437003168497
 20
87.053000104859535
 30
0.0
 11
85.556437003168469
 21
87.053000104859535
 31
0.0
  0
LINE
  5
4E7
  8
2
 10
85.556437003168469
 20
87.053000104859535
 30
0.0
 11
69.456437003168503
 21
87.053000104859535
 31
0.0
  0
LINE
  5
4E8
  8
2
 10
51.456437003168539
 20
76.000000104859524
 30
0.0
 11
85.556437003168469
 21
76.000000104859524
 31
0.0
  0
LINE
  5
4E9
  8
2
 10
87.556437003168497
 20
76.000000104859524
 30
0.0
 11
100.5564370031685
 21
76.000000104859524
 31
0.0
  0
LINE
  5
4EA
  8
2
 10
69.456437003168503
 20
76.947000104859512
 30
0.0
 11
67.816184888400855
 21
76.000000104859524
 31
0.0
  0
LINE
  5
4EB
  8
2
 10
100.5564370031685
 20
76.947000104859512
 30
0.0
 11
87.556437003168483
 21
76.947000104859512
 31
0.0
  0
LINE
  5
4EC
  8
3
 10
87.556437003168497
 20
76.947000104859512
 30
0.0
 11
85.556437003168469
 21
76.947000104859512
 31
0.0
  0
LINE
  5
4ED
  8
2
 10
85.556437003168469
 20
76.947000104859512
 30
0.0
 11
69.456437003168503
 21
76.947000104859512
 31
0.0
  0
LINE
  5
4EE
  8
0
 10
51.456437003168539
 20
76.000000104859524
 30
0.0
 11
50.956437003168489
 21
76.000000104859524
 31
0.0
  0
LINE
  5
4EF
  8
2
 10
50.956437003168489
 20
76.000000104859524
 30
0.0
 11
48.45643700316851
 21
76.000000104859524
 31
0.0
  0
LINE
  5
4F0
  8
0
 10
50.956437003168467
 20
36.000000104859531
 30
0.0
 11
51.456437003168489
 21
36.000000104859531
 31
0.0
  0
LINE
  5
4F1
  8
0
 10
85.556437003168469
 20
36.000000104859531
 30
0.0
 11
87.556437003168469
 21
36.000000104859531
 31
0.0
  0
LINE
  5
4F2
  8
0
 10
100.5564370031684
 20
36.000000104859531
 30
0.0
 11
101.4564370031683
 21
36.000000104859531
 31
0.0
  0
LINE
  5
4F3
  8
0
 10
87.556437003168469
 20
48.000000104859552
 30
0.0
 11
85.556437003168469
 21
48.000000104859552
 31
0.0
  0
LINE
  5
4F4
  8
0
 10
101.4564370031685
 20
48.000000104859552
 30
0.0
 11
101.4564370031683
 21
36.000000104859531
 31
0.0
  0
LINE
  5
4F5
  8
0
 10
103.4564370031684
 20
38.000000104859552
 30
0.0
 11
101.4564370031683
 21
36.000000104859552
 31
0.0
  0
LINE
  5
4F6
  8
0
 10
103.4564370031685
 20
46.000000104859538
 30
0.0
 11
101.4564370031685
 21
48.000000104859552
 31
0.0
  0
LINE
  5
4F7
  8
3
 10
100.5564370031684
 20
36.947000104859526
 30
0.0
 11
102.40343700316831
 21
36.947000104859526
 31
0.0
  0
LINE
  5
4F8
  8
0
 10
103.4564370031685
 20
46.000000104859538
 30
0.0
 11
103.4564370031684
 21
38.000000104859552
 31
0.0
  0
LINE
  5
4F9
  8
0
 10
100.5564370031684
 20
48.000000104859552
 30
0.0
 11
101.4564370031683
 21
48.000000104859552
 31
0.0
  0
LINE
  5
4FA
  8
3
 10
100.5564370031684
 20
47.053000104859542
 30
0.0
 11
102.40343700316831
 21
47.053000104859542
 31
0.0
  0
LINE
  5
4FB
  8
2
 10
50.956437003168467
 20
48.000000104859552
 30
0.0
 11
48.456437003168467
 21
48.000000104859552
 31
0.0
  0
LINE
  5
4FC
  8
2
 10
51.456437003168489
 20
48.000000104859552
 30
0.0
 11
85.556437003168469
 21
48.000000104859552
 31
0.0
  0
LINE
  5
4FD
  8
2
 10
87.556437003168469
 20
48.000000104859552
 30
0.0
 11
100.5564370031684
 21
48.000000104859552
 31
0.0
  0
LINE
  5
4FE
  8
2
 10
69.456437003168475
 20
47.053000104859542
 30
0.0
 11
67.816184888400826
 21
48.000000104859552
 31
0.0
  0
LINE
  5
4FF
  8
2
 10
69.456437003168475
 20
48.000000104859552
 30
0.0
 11
69.456437003168475
 21
36.000000104859531
 31
0.0
  0
LINE
  5
500
  8
2
 10
100.5564370031684
 20
47.053000104859542
 30
0.0
 11
87.556437003168455
 21
47.053000104859542
 31
0.0
  0
LINE
  5
501
  8
3
 10
87.556437003168469
 20
47.053000104859542
 30
0.0
 11
85.556437003168469
 21
47.053000104859542
 31
0.0
  0
LINE
  5
502
  8
2
 10
85.556437003168469
 20
47.053000104859542
 30
0.0
 11
69.456437003168475
 21
47.053000104859542
 31
0.0
  0
LINE
  5
503
  8
2
 10
51.456437003168489
 20
36.000000104859531
 30
0.0
 11
85.556437003168469
 21
36.000000104859531
 31
0.0
  0
LINE
  5
504
  8
2
 10
87.556437003168469
 20
36.000000104859531
 30
0.0
 11
100.5564370031684
 21
36.000000104859531
 31
0.0
  0
LINE
  5
505
  8
2
 10
69.456437003168475
 20
36.947000104859526
 30
0.0
 11
67.816184888400826
 21
36.000000104859531
 31
0.0
  0
LINE
  5
506
  8
2
 10
100.5564370031684
 20
36.947000104859526
 30
0.0
 11
87.556437003168455
 21
36.947000104859526
 31
0.0
  0
LINE
  5
507
  8
3
 10
87.556437003168469
 20
36.947000104859526
 30
0.0
 11
85.556437003168469
 21
36.947000104859526
 31
0.0
  0
LINE
  5
508
  8
2
 10
85.556437003168469
 20
36.947000104859526
 30
0.0
 11
69.456437003168475
 21
36.947000104859526
 31
0.0
  0
LINE
  5
509
  8
2
 10
50.956437003168467
 20
36.000000104859531
 30
0.0
 11
48.456437003168467
 21
36.000000104859531
 31
0.0
  0
LINE
  5
50A
  8
0
 10
87.556437003168497
 20
81.598076316212868
 30
0.0
 11
90.556437003168469
 21
82.401923893506208
 31
0.0
  0
ARC
  5
5A8
  8
0
 10
14.00003054261748
 20
80.000000104853598
 30
0.0
 40
11.99999999999676
 50
175.2198081528787
 51
4.7801918471213281
  0
TEXT
  5
608
  8
0
 62
     3
 10
0.0
 20
0.0
 30
0.0
 40
10.0
  1
PCRLP20E
  7
STANDARD1
  0
LINE
  5
6C2
  8
0
 10
84.48464023344394
 20
93.85640656541058
 30
0.0
 11
85.556437003168469
 21
92.000000104859566
 31
0.0
  0
LINE
  5
6C3
  8
0
 10
85.556437003168469
 20
68.000000104859538
 30
0.0
 11
84.48464023344394
 21
66.143593644308524
 31
0.0
  0
ARC
  5
6C4
  8
0
 10
78.649948737843786
 20
90.631321511305785
 30
0.0
 40
6.9106229151585881
 50
327.59782740227922
 51
358.01792512967711
  0
ARC
  5
6C5
  8
0
 10
78.594105315943878
 20
90.136010374374123
 30
0.0
 40
6.9670473970374811
 50
2.1081974480838421
 51
32.27605001995699
  0
ARC
  5
6C6
  8
0
 10
78.594105315943878
 20
69.351400683547567
 30
0.0
 40
6.967047397037466
 50
2.108197448084121
 51
32.27605001995699
  0
ARC
  5
6C7
  8
0
 10
60.678147918580677
 20
80.301679436407326
 30
0.0
 40
24.880118130656069
 50
343.1067927681965
 51
359.3052534578087
  0
ARC
  5
6C8
  8
0
 10
61.065175037665838
 20
79.75819407700159
 30
0.0
 40
24.492455630621919
 50
0.5656717374922951
 51
17.02228203650105
  0
ARC
  5
6C9
  8
0
 10
78.649948737843886
 20
69.846711820479243
 30
0.0
 40
6.9106229151585321
 50
327.59782740227911
 51
358.01792512967711
  0
LINE
  5
6CA
  8
0
 10
85.556437003168469
 20
68.000000104859538
 30
0.0
 11
85.556437003168469
 21
92.000000104859566
 31
0.0
  0
ARC
  5
6CB
  8
0
 10
66.791641741615592
 20
48.256278902872459
 30
0.0
 40
18.766545234280819
 50
340.52630620674989
 51
359.21753579283251
  0
ARC
  5
6CC
  8
0
 10
66.687932529517354
 20
47.725195440427044
 30
0.0
 40
18.870505522528688
 50
0.8344081726626086
 51
19.4217498277538
  0
ARC
  5
6CD
  8
0
 10
66.791641741616047
 20
36.256278902872403
 30
0.0
 40
18.7665452342804
 50
340.52630620674989
 51
359.21753579283251
  0
ARC
  5
6CE
  8
0
 10
66.687932529517468
 20
35.725195440427022
 30
0.0
 40
18.87050552252861
 50
0.8344081726626086
 51
19.42174982775391
  0
ARC
  5
6E6
  8
0
 10
131.31284346371939
 20
82.000000104859538
 30
0.0
 40
12.00000000000003
 50
28.832994718537851
 51
151.16700528146191
  0
ARC
  5
746
  8
0
 10
131.31284346371939
 20
80.000000104859524
 30
0.0
 40
12.0
 50
142.3415379937924
 51
37.658462006208083
  0
ENDSEC
  0
EOF
