  0
SECTION
  2
HEADER
  9
$ACADVER
  1
AC1009
  9
$INSBASE
 10
0.0
 20
0.0
 30
0.0
  9
$EXTMIN
 10
0.0
 20
-2.960436562073669
 30
0.0
  9
$EXTMAX
 10
180.0665505299643
 20
113.0366631362528
 30
0.0
  9
$LIMMIN
 10
0.0
 20
0.0
  9
$LIMMAX
 10
187.5
 20
139.0
  9
$ORTHOMODE
 70
     1
  9
$REGENMODE
 70
     1
  9
$FILLMODE
 70
     1
  9
$QTEXTMODE
 70
     0
  9
$MIRRTEXT
 70
     0
  9
$DRAGMODE
 70
     2
  9
$LTSCALE
 40
4.0
  9
$OSMODE
 70
  3071
  9
$ATTMODE
 70
     1
  9
$TEXTSIZE
 40
0.2
  9
$TRACEWID
 40
0.05
  9
$TEXTSTYLE
  7
STANDARD
  9
$CLAYER
  8
0
  9
$CELTYPE
  6
BYLAYER
  9
$CECOLOR
 62
   256
  9
$DIMSCALE
 40
1.0
  9
$DIMASZ
 40
3.0
  9
$DIMEXO
 40
1.0
  9
$DIMDLI
 40
6.0
  9
$DIMRND
 40
0.0
  9
$DIMDLE
 40
0.0
  9
$DIMEXE
 40
1.0
  9
$DIMTP
 40
495.0
  9
$DIMTM
 40
0.0
  9
$DIMTXT
 40
3.0
  9
$DIMCEN
 40
0.0
  9
$DIMTSZ
 40
0.0
  9
$DIMTOL
 70
     0
  9
$DIMLIM
 70
     0
  9
$DIMTIH
 70
     0
  9
$DIMTOH
 70
     0
  9
$DIMSE1
 70
     0
  9
$DIMSE2
 70
     0
  9
$DIMTAD
 70
     1
  9
$DIMZIN
 70
     0
  9
$DIMBLK
  1

  9
$DIMASO
 70
     0
  9
$DIMSHO
 70
     0
  9
$DIMPOST
  1

  9
$DIMAPOST
  1

  9
$DIMALT
 70
     0
  9
$DIMALTD
 70
     2
  9
$DIMALTF
 40
25.399999999999999
  9
$DIMLFAC
 40
1.0
  9
$DIMTOFL
 70
     1
  9
$DIMTVP
 40
0.0
  9
$DIMTIX
 70
     1
  9
$DIMSOXD
 70
     0
  9
$DIMSAH
 70
     0
  9
$DIMBLK1
  1

  9
$DIMBLK2
  1

  9
$DIMSTYLE
  2
STANDARD
  9
$DIMCLRD
 70
     0
  9
$DIMCLRE
 70
     0
  9
$DIMCLRT
 70
     4
  9
$DIMTFAC
 40
1.0
  9
$DIMGAP
 40
1.0
  9
$LUNITS
 70
     2
  9
$LUPREC
 70
     4
  9
$SKETCHINC
 40
0.1
  9
$FILLETRAD
 40
0.0
  9
$AUNITS
 70
     0
  9
$AUPREC
 70
     0
  9
$MENU
  1
C:\R13\WIN\SUPPORT\ACAD-I
  9
$ELEVATION
 40
0.0
  9
$PELEVATION
 40
0.0
  9
$THICKNESS
 40
0.0
  9
$LIMCHECK
 70
     0
  9
$BLIPMODE
 70
     0
  9
$CHAMFERA
 40
0.0
  9
$CHAMFERB
 40
0.0
  9
$SKPOLY
 70
     0
  9
$TDCREATE
 40
2450837.486061343
  9
$TDUPDATE
 40
2456597.7048041089
  9
$TDINDWG
 40
0.0603511574
  9
$TDUSRTIMER
 40
0.0603511574
  9
$USRTIMER
 70
     1
  9
$ANGBASE
 50
0.0
  9
$ANGDIR
 70
     0
  9
$PDMODE
 70
     0
  9
$PDSIZE
 40
0.0
  9
$PLINEWID
 40
0.0
  9
$COORDS
 70
     1
  9
$SPLFRAME
 70
     0
  9
$SPLINETYPE
 70
     6
  9
$SPLINESEGS
 70
     8
  9
$ATTDIA
 70
     0
  9
$ATTREQ
 70
     1
  9
$HANDLING
 70
     1
  9
$HANDSEED
  5
B3A
  9
$SURFTAB1
 70
     6
  9
$SURFTAB2
 70
     6
  9
$SURFTYPE
 70
     6
  9
$SURFU
 70
     6
  9
$SURFV
 70
     6
  9
$UCSNAME
  2

  9
$UCSORG
 10
0.0
 20
0.0
 30
0.0
  9
$UCSXDIR
 10
1.0
 20
0.0
 30
0.0
  9
$UCSYDIR
 10
0.0
 20
1.0
 30
0.0
  9
$PUCSNAME
  2

  9
$PUCSORG
 10
0.0
 20
0.0
 30
0.0
  9
$PUCSXDIR
 10
1.0
 20
0.0
 30
0.0
  9
$PUCSYDIR
 10
0.0
 20
1.0
 30
0.0
  9
$USERI1
 70
     4
  9
$USERI2
 70
     1
  9
$USERI3
 70
     0
  9
$USERI4
 70
     0
  9
$USERI5
 70
     0
  9
$USERR1
 40
1.0
  9
$USERR2
 40
3.0
  9
$USERR3
 40
3.0
  9
$USERR4
 40
3.0
  9
$USERR5
 40
10.0
  9
$WORLDVIEW
 70
     1
  9
$SHADEDGE
 70
     3
  9
$SHADEDIF
 70
    70
  9
$TILEMODE
 70
     1
  9
$MAXACTVP
 70
    16
  9
$PLIMCHECK
 70
     0
  9
$PEXTMIN
 10
1.0000000000000000E+020
 20
1.0000000000000000E+020
 30
1.0000000000000000E+020
  9
$PEXTMAX
 10
-1.0000000000000000E+020
 20
-1.0000000000000000E+020
 30
-1.0000000000000000E+020
  9
$PLIMMIN
 10
0.0
 20
0.0
  9
$PLIMMAX
 10
12.0
 20
9.0
  9
$UNITMODE
 70
     0
  9
$VISRETAIN
 70
     0
  9
$PLINEGEN
 70
     0
  9
$PSLTSCALE
 70
     0
  0
ENDSEC
  0
SECTION
  2
TABLES
  0
TABLE
  2
VPORT
 70
     1
  0
VPORT
  2
*ACTIVE
 70
     0
 10
0.0
 20
0.0
 11
1.0
 21
1.0
 12
93.74713919532617
 22
68.325823715754723
 13
0.0
 23
0.0
 14
5.0
 24
5.0
 15
5.0
 25
5.0
 16
0.0
 26
0.0
 36
1.0
 17
0.0
 27
0.0
 37
0.0
 40
144.2094002517301
 41
2.304913294797688
 42
50.0
 43
0.0
 44
0.0
 50
0.0
 51
0.0
 71
     0
 72
   100
 73
     1
 74
     0
 75
     0
 76
     0
 77
     0
 78
     0
  0
ENDTAB
  0
TABLE
  2
LTYPE
 70
     3
  0
LTYPE
  2
CONTINUOUS
 70
     0
  3
Solid Line
 72
    65
 73
     0
 40
0.0
  0
LTYPE
  2
CENTER
 70
     0
  3
____ _ ____ _ ____ _ ____ _ ____ _ ____ _ ____
 72
    65
 73
     4
 40
2.0
 49
1.25
 49
-0.25
 49
0.25
 49
-0.25
  0
LTYPE
  2
PHANTOM2
 70
     0
  3
___ _ _ ___ _ _ ___ _ _ ___ _ _
 72
    65
 73
     6
 40
1.25
 49
0.625
 49
-0.125
 49
0.125
 49
-0.125
 49
0.125
 49
-0.125
  0
ENDTAB
  0
TABLE
  2
LAYER
 70
     2
  0
LAYER
  2
0
 70
     0
 62
     7
  6
CONTINUOUS
  0
LAYER
  2
1
 70
     0
 62
     1
  6
CENTER
  0
ENDTAB
  0
TABLE
  2
STYLE
 70
     2
  0
STYLE
  2
STANDARD
 70
     0
 40
0.0
 41
1.0
 50
0.0
 71
     0
 42
0.2
  3
SIMPLEX
  4
BIGFONT
  0
STYLE
  2
STANDARD1
 70
     0
 40
0.0
 41
1.0
 50
0.0
 71
     0
 42
3.0
  3
txt
  4

  0
ENDTAB
  0
TABLE
  2
VIEW
 70
     0
  0
ENDTAB
  0
TABLE
  2
UCS
 70
     0
  0
ENDTAB
  0
TABLE
  2
APPID
 70
    20
  0
APPID
  2
ACAD
 70
     0
  0
APPID
  2
GENIUS_GENOBJ_13
 70
     0
  0
APPID
  2
GENIUS_GENODEF_13
 70
     0
  0
APPID
  2
GENIUS_GENOENT_13
 70
     0
  0
APPID
  2
GENIUS_GENOLIS_13
 70
     0
  0
APPID
  2
GENIUS_GENOREF_13
 70
     0
  0
APPID
  2
GENIUS_GENOBJ-N-TIT_13
 70
     0
  0
APPID
  2
GENIUS_GENTITLE_13
 70
     0
  0
APPID
  2
GENIUS_GENZVEED_13
 70
     0
  0
APPID
  2
GENIUS_GENOBJ-N-FIL_13
 70
     0
  0
APPID
  2
GENIUS_GENOBJ-N-CRS_13
 70
     0
  0
APPID
  2
GENIUS_GENOBJ-N-SEC_13
 70
     0
  0
APPID
  2
GENIUS_GENOBJ-N-LEADER_13
 70
     0
  0
APPID
  2
GENIUS_GENOBJ-N-ZOO_13
 70
     0
  0
APPID
  2
GENIUS_GENZOO_13
 70
     0
  0
APPID
  2
GENIUS_GENOBJ-N-REV_13
 70
     0
  0
APPID
  2
GENIUS_GENOBJ-N-RSSYM_13
 70
     0
  0
APPID
  2
GENIUS_GENSYMENT_13
 70
     0
  0
APPID
  2
ACAD_MLEADERVER
 70
     0
  0
APPID
  2
ACAD_NAV_VCDISPLAY
 70
     0
  0
ENDTAB
  0
TABLE
  2
DIMSTYLE
 70
     1
  0
DIMSTYLE
  2
STANDARD
 70
     0
  3

  4

  5

  6

  7

 40
1.0
 41
0.18
 42
0.0625
 43
0.38
 44
0.18
 45
0.0
 46
0.0
 47
0.0
 48
0.0
140
0.18
141
0.09
142
0.0
143
25.399999999999999
144
1.0
145
0.0
146
1.0
147
0.09
 71
     0
 72
     0
 73
     1
 74
     1
 75
     0
 76
     0
 77
     0
 78
     0
170
     0
171
     2
172
     0
173
     0
174
     0
175
     0
176
     0
177
     0
178
     0
  0
ENDTAB
  0
ENDSEC
  0
SECTION
  2
BLOCKS
  0
BLOCK
  8
0
  2
$MODEL_SPACE
 70
     0
 10
0.0
 20
0.0
 30
0.0
  3
$MODEL_SPACE
  1

  0
ENDBLK
  5
46F
  8
0
  0
BLOCK
 67
     1
  8
0
  2
$PAPER_SPACE
 70
     0
 10
0.0
 20
0.0
 30
0.0
  3
$PAPER_SPACE
  1

  0
ENDBLK
  5
46D
 67
     1
  8
0
  0
ENDSEC
  0
SECTION
  2
ENTITIES
  0
LINE
  5
726
  8
0
 10
90.066550053127173
 20
32.337029860720548
 30
0.0
 11
90.066550053127173
 21
33.929979222892733
 31
0.0
  0
LINE
  5
768
  8
0
 10
82.06694197589502
 20
38.03666313625277
 30
0.0
 11
86.066550529964331
 21
38.03666313625277
 31
0.0
  0
LINE
  5
786
  8
0
 10
93.674057782789674
 20
36.03666313625277
 30
0.0
 11
109.06672724019801
 21
36.036663136252898
 31
0.0
  0
LINE
  5
7AA
  8
0
 10
110.06672775184759
 20
35.03666313625277
 30
0.0
 11
110.06672775184759
 21
32.336663148173699
 31
0.0
  0
LINE
  5
7CE
  8
0
 10
109.7667264100515
 20
32.036663136250461
 30
0.0
 11
107.8673009188354
 21
32.036663136252763
 31
0.0
  0
LINE
  5
7F2
  8
0
 10
107.0665505299643
 20
31.23591352287028
 30
0.0
 11
107.0665505299643
 21
30.33703063980925
 31
0.0
  0
LINE
  5
816
  8
0
 10
106.7661832650854
 20
30.03666313625277
 30
0.0
 11
102.5671612516057
 21
30.03666313625277
 31
0.0
  0
LINE
  5
83A
  8
0
 10
102.0665500531271
 20
29.536051937747569
 30
0.0
 11
102.0665500531271
 21
26.036661228904141
 31
0.0
  0
LINE
  5
881
  8
0
 10
102.9244339833334
 20
24.98666294551791
 30
0.0
 11
100.9995630154685
 21
21.65268810726106
 31
0.0
  0
LINE
  5
8A4
  8
0
 10
100.0665500531271
 20
21.90268810726106
 30
0.0
 11
100.0665500531271
 21
32.036112842879611
 31
0.0
  0
LINE
  5
8E8
  8
0
 10
98.066550053127145
 20
32.036112842581218
 30
0.0
 11
98.066550053127173
 21
19.736662945517899
 31
0.0
  0
LINE
  5
90C
  8
0
 10
97.066550172336463
 20
18.736662945517899
 30
0.0
 11
96.875741220481757
 21
18.736662945517899
 31
0.0
  0
LINE
  5
918
  8
0
 10
96.682904935844306
 20
18.80684956050813
 30
0.0
 11
95.374286841476888
 21
19.904911008430901
 31
0.0
  0
LINE
  5
92C
  8
0
 10
95.266550160415534
 20
20.135952976300249
 30
0.0
 11
95.266550160415534
 21
20.43629728899133
 31
0.0
  0
LINE
  5
950
  8
0
 10
95.566916025812006
 20
20.736662945517899
 30
0.0
 11
95.766185987368615
 21
20.736662945517899
 31
0.0
  0
LINE
  5
974
  8
0
 10
96.066550149984735
 20
21.037026921636759
 30
0.0
 11
96.066550149984735
 21
31.53605487425158
 31
0.0
  0
LINE
  5
998
  8
0
 10
95.56594189543668
 20
32.036663136252763
 30
0.0
 11
90.366916598569546
 21
32.036663136252763
 31
0.0
  0
ARC
  5
9BE
  8
0
 10
109.06672724019801
 20
35.036662624603139
 30
0.0
 40
1.0000005116497619
 50
0.0
 51
90.0
  0
ARC
  5
9BF
  8
0
 10
109.7667264100515
 20
32.336664478049542
 30
0.0
 40
0.3000013417990803
 50
270.0
 51
0.0
  0
ARC
  5
9C1
  8
0
 10
107.86692534293439
 20
31.236288323645979
 30
0.0
 40
0.8003749007262758
 50
89.973113955990712
 51
180.02683055574499
  0
ARC
  5
9C2
  8
0
 10
106.76636680218419
 20
30.336846864178838
 30
0.0
 40
0.3001837840348046
 50
269.96496845480652
 51
0.0350770735038893
  0
ARC
  5
9C4
  8
0
 10
102.5668556523803
 20
29.536357536999599
 30
0.0
 40
0.5003056925870022
 50
89.965002303218
 51
180.0349976998302
  0
ARC
  5
9C8
  8
0
 10
102.6665504181649
 20
26.036661271935799
 30
0.0
 40
0.6000003650377169
 50
180.00000410922129
 51
269.87751349124909
  0
ARC
  5
9C9
  8
0
 10
102.66439366953939
 20
25.13652894383344
 30
0.0
 40
0.3001346068837258
 50
330.04436431094717
 51
89.833138967084665
  0
ARC
  5
9CA
  8
0
 10
100.5665502550183
 20
21.90268840961798
 30
0.0
 40
0.5000002018912033
 50
180.0
 51
330.00000389860901
  0
ARC
  5
9CB
  8
0
 10
99.066550053127116
 20
32.036387989380003
 30
0.0
 40
1.0000000378528431
 50
359.9842352671771
 51
180.0157647499191
  0
ARC
  5
9CD
  8
0
 10
97.066549069583857
 20
19.736663929061091
 30
0.0
 40
1.0000009835437991
 50
270.0
 51
0.0
  0
ARC
  5
9CE
  8
0
 10
96.875743873976447
 20
19.03667041120444
 30
0.0
 40
0.3000074656982725
 50
229.99998747234261
 51
270.0
  0
ARC
  5
9D0
  8
0
 10
95.567352308772854
 20
20.135579162996201
 30
0.0
 40
0.3008023806301479
 50
179.92879733825399
 51
230.071219808368
  0
ARC
  5
9D1
  8
0
 10
95.566733084175866
 20
20.436480021884719
 30
0.0
 40
0.3001829793785902
 50
89.965082016577327
 51
180.03487814078571
  0
ARC
  5
9D2
  8
0
 10
95.766368063461059
 20
21.03684503192855
 30
0.0
 40
0.3001821416299697
 50
269.9652471255277
 51
0.0347172992982206
  0
ARC
  5
9D3
  8
0
 10
95.566246018971029
 20
31.536359005234541
 30
0.0
 40
0.5003042234531027
 50
359.96517034636207
 51
90.034828800609503
  0
ARC
  5
9D4
  8
0
 10
90.366733421213297
 20
32.336846504448118
 30
0.0
 40
0.3001834240844374
 50
179.9650029269844
 51
270.03496292341782
  0
ARC
  5
9D8
  8
0
 10
88.061812117438222
 20
33.933321167646731
 30
0.0
 40
2.004740721236828
 50
359.90448669175657
 51
70.300365138157616
  0
ARC
  5
9D9
  8
0
 10
73.537575863765795
 20
-6.9455280068095169
 30
0.0
 40
45.387147933931367
 50
70.43373450554013
 51
79.216730029286836
  0
ARC
  5
9DA
  8
0
 10
82.066746252926336
 20
37.836644730933969
 30
0.0
 40
0.2000185010786666
 50
89.943934677095925
 51
259.1983632226125
  0
ARC
  5
9DD
  8
0
 10
84.015818830909296
 20
-2.7456924221478038
 30
0.0
 40
40.83388330040939
 50
85.902983357693387
 51
87.12131911347096
  0
ARC
  5
9DE
  8
0
 10
86.192206110755095
 20
27.929499239046809
 30
0.0
 40
10.08161027513755
 50
60.387171815258192
 51
85.784891426313337
  0
ARC
  5
9DF
  8
0
 10
93.663314748841245
 20
41.077155323098118
 30
0.0
 40
5.0405036353947308
 50
240.4039093802393
 51
270.1221169579382
  0
LINE
  5
9E3
  8
0
 10
61.866727751847662
 20
38.03666313625277
 30
0.0
 11
11.866727751847661
 21
38.03666313625277
 31
0.0
  0
LINE
  5
9E5
  8
0
 10
61.866727751847662
 20
38.03666313625277
 30
0.0
 11
61.866727751847662
 21
18.736662945517899
 31
0.0
  0
LINE
  5
9E6
  8
0
 10
130.0665505299643
 20
38.03666313625277
 30
0.0
 11
130.0665505299643
 21
18.736662945517899
 31
0.0
  0
LINE
  5
9E7
  8
0
 10
81.866727751847648
 20
58.03666313625277
 30
0.0
 11
81.866727751847648
 21
108.0366631362527
 31
0.0
  0
LINE
  5
9E8
  8
0
 10
110.0665505299643
 20
58.03666313625277
 30
0.0
 11
110.0665505299643
 21
108.0366631362527
 31
0.0
  0
LINE
  5
9E9
  8
0
 10
81.866727751847648
 20
58.03666313625277
 30
0.0
 11
110.0665505299643
 21
58.03666313625277
 31
0.0
  0
LINE
  5
9EC
  8
0
 10
130.0665505299643
 20
38.03666313625277
 30
0.0
 11
180.0665505299643
 21
38.03666313625277
 31
0.0
  0
LINE
  5
9ED
  8
0
 10
130.0665505299643
 20
18.736662945517899
 30
0.0
 11
180.0665505299643
 21
18.736662945517899
 31
0.0
  0
LINE
  5
9EE
  8
0
 10
61.866727751847662
 20
18.736662945517899
 30
0.0
 11
11.866727751847661
 21
18.736662945517899
 31
0.0
  0
LINE
  5
9EF
  8
1
 10
95.966639140905954
 20
53.03666313625277
 30
0.0
 11
95.966639140906025
 21
113.0366631362528
 31
0.0
  0
LINE
  5
9F1
  8
0
 10
81.866727751847648
 20
108.0366631362527
 30
0.0
 11
110.0665505299643
 21
108.0366631362527
 31
0.0
  0
LINE
  5
9F2
  8
0
 10
180.0665505299643
 20
38.03666313625277
 30
0.0
 11
180.0665505299643
 21
18.736662945517899
 31
0.0
  0
LINE
  5
9F3
  8
0
 10
11.866727751847661
 20
38.03666313625277
 30
0.0
 11
11.866727751847661
 21
18.736662945517899
 31
0.0
  0
LINE
  5
9F8
  8
0
 10
11.866727751847661
 20
32.036663136252763
 30
0.0
 11
61.866727751847662
 21
32.036663136252763
 31
0.0
  0
LINE
  5
9F9
  8
0
 10
11.866727751847661
 20
20.736662945517899
 30
0.0
 11
61.866727751847662
 21
20.736662945517899
 31
0.0
  0
LINE
  5
9FA
  8
0
 10
180.0665505299643
 20
36.03666313625277
 30
0.0
 11
130.0665505299643
 21
36.03666313625277
 31
0.0
  0
LINE
  5
9FB
  8
0
 10
180.0665505299643
 20
32.036663136252763
 30
0.0
 11
130.0665505299643
 21
32.036663136252763
 31
0.0
  0
LINE
  5
9FC
  8
0
 10
180.0665505299643
 20
30.03666313625277
 30
0.0
 11
130.0665505299643
 21
30.03666313625277
 31
0.0
  0
LINE
  5
9FD
  8
0
 10
180.0665505299643
 20
25.436662277945899
 30
0.0
 11
130.0665505299643
 21
25.436662277945899
 31
0.0
  0
LINE
  5
9FE
  8
0
 10
180.0665505299643
 20
21.402688207726779
 30
0.0
 11
130.0665505299643
 21
21.402688207726779
 31
0.0
  0
TEXT
  5
AA8
  8
0
 62
     3
 10
0.0
 20
0.0
 30
0.0
 40
10.0
  1
PCST4-6
  7
STANDARD1
  0
ENDSEC
  0
EOF
