  0
SECTION
  2
HEADER
  9
$ACADVER
  1
AC1009
  9
$INSBASE
 10
0.0
 20
0.0
 30
0.0
  9
$EXTMIN
 10
0.0
 20
-2.960436562073669
 30
0.0
  9
$EXTMAX
 10
85.388813096862208
 20
89.500000000000014
 30
0.0
  9
$LIMMIN
 10
0.0
 20
0.0
  9
$LIMMAX
 10
375.0
 20
270.0
  9
$ORTHOMODE
 70
     1
  9
$REGENMODE
 70
     1
  9
$FILLMODE
 70
     1
  9
$QTEXTMODE
 70
     0
  9
$MIRRTEXT
 70
     0
  9
$DRAGMODE
 70
     2
  9
$LTSCALE
 40
3.0
  9
$OSMODE
 70
    37
  9
$ATTMODE
 70
     1
  9
$TEXTSIZE
 40
0.2
  9
$TRACEWID
 40
0.05
  9
$TEXTSTYLE
  7
STANDARD
  9
$CLAYER
  8
0
  9
$CELTYPE
  6
BYLAYER
  9
$CECOLOR
 62
   256
  9
$DIMSCALE
 40
1.0
  9
$DIMASZ
 40
3.0
  9
$DIMEXO
 40
1.0
  9
$DIMDLI
 40
6.0
  9
$DIMRND
 40
0.0
  9
$DIMDLE
 40
0.0
  9
$DIMEXE
 40
1.0
  9
$DIMTP
 40
495.0
  9
$DIMTM
 40
0.0
  9
$DIMTXT
 40
3.0
  9
$DIMCEN
 40
0.0
  9
$DIMTSZ
 40
0.0
  9
$DIMTOL
 70
     0
  9
$DIMLIM
 70
     0
  9
$DIMTIH
 70
     0
  9
$DIMTOH
 70
     0
  9
$DIMSE1
 70
     0
  9
$DIMSE2
 70
     0
  9
$DIMTAD
 70
     1
  9
$DIMZIN
 70
     8
  9
$DIMBLK
  1

  9
$DIMASO
 70
     0
  9
$DIMSHO
 70
     0
  9
$DIMPOST
  1

  9
$DIMAPOST
  1

  9
$DIMALT
 70
     0
  9
$DIMALTD
 70
     2
  9
$DIMALTF
 40
25.399999999999999
  9
$DIMLFAC
 40
1.0
  9
$DIMTOFL
 70
     1
  9
$DIMTVP
 40
0.0
  9
$DIMTIX
 70
     1
  9
$DIMSOXD
 70
     0
  9
$DIMSAH
 70
     0
  9
$DIMBLK1
  1

  9
$DIMBLK2
  1

  9
$DIMSTYLE
  2
STANDARD
  9
$DIMCLRD
 70
     4
  9
$DIMCLRE
 70
     4
  9
$DIMCLRT
 70
     4
  9
$DIMTFAC
 40
1.0
  9
$DIMGAP
 40
1.0
  9
$LUNITS
 70
     2
  9
$LUPREC
 70
     1
  9
$SKETCHINC
 40
0.1
  9
$FILLETRAD
 40
2.0
  9
$AUNITS
 70
     0
  9
$AUPREC
 70
     1
  9
$MENU
  1
C:\R13\WIN\SUPPORT\ACAD-I
  9
$ELEVATION
 40
0.0
  9
$PELEVATION
 40
0.0
  9
$THICKNESS
 40
0.0
  9
$LIMCHECK
 70
     0
  9
$BLIPMODE
 70
     0
  9
$CHAMFERA
 40
0.0
  9
$CHAMFERB
 40
0.0
  9
$SKPOLY
 70
     0
  9
$TDCREATE
 40
2451963.5438110419
  9
$TDUPDATE
 40
2458043.3872528928
  9
$TDINDWG
 40
0.3854250116
  9
$TDUSRTIMER
 40
2456598.250578241
  9
$USRTIMER
 70
     1
  9
$ANGBASE
 50
0.0
  9
$ANGDIR
 70
     0
  9
$PDMODE
 70
     0
  9
$PDSIZE
 40
0.0
  9
$PLINEWID
 40
0.0
  9
$COORDS
 70
     1
  9
$SPLFRAME
 70
     0
  9
$SPLINETYPE
 70
     6
  9
$SPLINESEGS
 70
     8
  9
$ATTDIA
 70
     0
  9
$ATTREQ
 70
     1
  9
$HANDLING
 70
     1
  9
$HANDSEED
  5
1037D
  9
$SURFTAB1
 70
     6
  9
$SURFTAB2
 70
     6
  9
$SURFTYPE
 70
     6
  9
$SURFU
 70
     6
  9
$SURFV
 70
     6
  9
$UCSNAME
  2

  9
$UCSORG
 10
0.0
 20
0.0
 30
0.0
  9
$UCSXDIR
 10
1.0
 20
0.0
 30
0.0
  9
$UCSYDIR
 10
0.0
 20
1.0
 30
0.0
  9
$PUCSNAME
  2

  9
$PUCSORG
 10
0.0
 20
0.0
 30
0.0
  9
$PUCSXDIR
 10
1.0
 20
0.0
 30
0.0
  9
$PUCSYDIR
 10
0.0
 20
1.0
 30
0.0
  9
$USERI1
 70
     4
  9
$USERI2
 70
     1
  9
$USERI3
 70
     0
  9
$USERI4
 70
     0
  9
$USERI5
 70
     0
  9
$USERR1
 40
1.0
  9
$USERR2
 40
3.0
  9
$USERR3
 40
3.0
  9
$USERR4
 40
3.0
  9
$USERR5
 40
10.0
  9
$WORLDVIEW
 70
     1
  9
$SHADEDGE
 70
     3
  9
$SHADEDIF
 70
    70
  9
$TILEMODE
 70
     1
  9
$MAXACTVP
 70
    16
  9
$PLIMCHECK
 70
     0
  9
$PEXTMIN
 10
1.0000000000000000E+020
 20
1.0000000000000000E+020
 30
1.0000000000000000E+020
  9
$PEXTMAX
 10
-1.0000000000000000E+020
 20
-1.0000000000000000E+020
 30
-1.0000000000000000E+020
  9
$PLIMMIN
 10
0.0
 20
0.0
  9
$PLIMMAX
 10
12.0
 20
9.0
  9
$UNITMODE
 70
     0
  9
$VISRETAIN
 70
     0
  9
$PLINEGEN
 70
     0
  9
$PSLTSCALE
 70
     0
  0
ENDSEC
  0
SECTION
  2
TABLES
  0
TABLE
  2
VPORT
 70
     1
  0
VPORT
  2
*ACTIVE
 70
     0
 10
0.0
 20
0.0
 11
1.0
 21
1.0
 12
181.62732826071289
 22
100.0
 13
0.0
 23
0.0
 14
10.0
 24
10.0
 15
10.0
 25
10.0
 16
0.0
 26
0.0
 36
1.0
 17
0.0
 27
0.0
 37
0.0
 40
200.0378401425404
 41
1.816239316239316
 42
50.0
 43
0.0
 44
0.0
 50
0.0
 51
0.0
 71
     0
 72
   100
 73
     1
 74
     0
 75
     0
 76
     0
 77
     0
 78
     0
  0
ENDTAB
  0
TABLE
  2
LTYPE
 70
     3
  0
LTYPE
  2
CONTINUOUS
 70
     0
  3
Solid Line
 72
    65
 73
     0
 40
0.0
  0
LTYPE
  2
CENTER
 70
     0
  3
____ _ ____ _ ____ _ ____ _ ____ _ ____ _ ____
 72
    65
 73
     4
 40
2.0
 49
1.25
 49
-0.25
 49
0.25
 49
-0.25
  0
LTYPE
  2
PHANTOM2
 70
     0
  3
___ _ _ ___ _ _ ___ _ _ ___ _ _
 72
    65
 73
     6
 40
1.25
 49
0.625
 49
-0.125
 49
0.125
 49
-0.125
 49
0.125
 49
-0.125
  0
ENDTAB
  0
TABLE
  2
LAYER
 70
     3
  0
LAYER
  2
0
 70
     0
 62
     7
  6
CONTINUOUS
  0
LAYER
  2
1
 70
     0
 62
     1
  6
CENTER
  0
LAYER
  2
DEFPOINTS
 70
     0
 62
     7
  6
CONTINUOUS
  0
ENDTAB
  0
TABLE
  2
STYLE
 70
     2
  0
STYLE
  2
STANDARD
 70
     0
 40
0.0
 41
1.0
 50
0.0
 71
     0
 42
0.2
  3
SIMPLEX
  4
BIGFONT
  0
STYLE
  2
STANDARD1
 70
     0
 40
0.0
 41
1.0
 50
0.0
 71
     0
 42
3.0
  3
txt
  4

  0
ENDTAB
  0
TABLE
  2
VIEW
 70
     0
  0
ENDTAB
  0
TABLE
  2
UCS
 70
     0
  0
ENDTAB
  0
TABLE
  2
APPID
 70
    34
  0
APPID
  2
ACAD
 70
     0
  0
APPID
  2
GENIUS_GENOREF_13
 70
     0
  0
APPID
  2
GENIUS_GENOENT_13
 70
     0
  0
APPID
  2
GENIUS_GENBH_13
 70
     0
  0
APPID
  2
GENIUS_GENOBJ_13
 70
     0
  0
APPID
  2
GENIUS_GENODEF_13
 70
     0
  0
APPID
  2
GENIUS_GENOLIS_13
 70
     0
  0
APPID
  2
GENIUS_GENOBJ-NBEHI-BHF_13
 70
     0
  0
APPID
  2
GENIUS_GENOBJ-NBEHI-BHB_13
 70
     0
  0
APPID
  2
GENIUS_GENOBJ-F-PART_13
 70
     0
  0
APPID
  2
GENIUS_GEFSTDP_13
 70
     0
  0
APPID
  2
GENIUS_GENOBJ-N-RSSYM_13
 70
     0
  0
APPID
  2
GENIUS_GENSYMENT_13
 70
     0
  0
APPID
  2
GENIUS_GENOBJ-N-TIT_13
 70
     0
  0
APPID
  2
GENIUS_GENTITLE_13
 70
     0
  0
APPID
  2
GENIUS_GENZVEED_13
 70
     0
  0
APPID
  2
GENIUS_GENOBJ-N-LEADER_13
 70
     0
  0
APPID
  2
GENIUS_GENOBJ-N-FIL_13
 70
     0
  0
APPID
  2
GENIUS_GENOBJ-N-SEC_13
 70
     0
  0
APPID
  2
GENIUS_GENOBJ-N-CRS_13
 70
     0
  0
APPID
  2
GENIUS_GENOBJ-N-ZOO_13
 70
     0
  0
APPID
  2
GENIUS_GENZOO_13
 70
     0
  0
APPID
  2
GENIUS_GENOBJ-F-TOL_13
 70
     0
  0
APPID
  2
GENIUS_GENFIL_13
 70
     0
  0
APPID
  2
GENIUS_GENOBJ-N-CHA_13
 70
     0
  0
APPID
  2
_CALL_MAC$
 70
     0
  0
APPID
  2
ACAD_NAV_VCDISPLAY
 70
     0
  0
APPID
  2
ACAD_EXEMPT_FROM_CAD_STANDARDS
 70
     0
  0
APPID
  2
ACAD_MLEADERVER
 70
     0
  0
APPID
  2
ACAD_DSTYLE_DIMJAG
 70
     0
  0
APPID
  2
ACAD_DSTYLE_DIMTALN
 70
     0
  0
APPID
  2
ACAECLAYERSTANDARD
 70
     0
  0
APPID
  2
ACCMTRANSPARENCY
 70
     0
  0
APPID
  2
ACAD_PSEXT
 70
     0
  0
ENDTAB
  0
TABLE
  2
DIMSTYLE
 70
     1
  0
DIMSTYLE
  2
STANDARD
 70
     0
  3

  4

  5

  6

  7

 40
1.0
 41
0.18
 42
0.0625
 43
0.38
 44
0.18
 45
0.0
 46
0.0
 47
0.0
 48
0.0
140
0.18
141
0.09
142
0.0
143
25.399999999999999
144
1.0
145
0.0
146
1.0
147
0.09
 71
     0
 72
     0
 73
     1
 74
     1
 75
     0
 76
     0
 77
     0
 78
     0
170
     0
171
     2
172
     0
173
     0
174
     0
175
     0
176
     0
177
     0
178
     0
  0
ENDTAB
  0
ENDSEC
  0
SECTION
  2
BLOCKS
  0
BLOCK
  8
0
  2
$MODEL_SPACE
 70
     0
 10
0.0
 20
0.0
 30
0.0
  3
$MODEL_SPACE
  1

  0
ENDBLK
  5
CF6E
  8
0
  0
BLOCK
 67
     1
  8
0
  2
$PAPER_SPACE
 70
     0
 10
0.0
 20
0.0
 30
0.0
  3
$PAPER_SPACE
  1

  0
ENDBLK
  5
CF6C
 67
     1
  8
0
  0
ENDSEC
  0
SECTION
  2
ENTITIES
  0
LINE
  5
E266
  8
0
 10
43.5
 20
86.5
 30
0.0
 11
43.5
 21
73.5
 31
0.0
  0
LINE
  5
E26C
  8
0
 10
56.5
 20
73.5
 30
0.0
 11
56.5
 21
86.5
 31
0.0
  0
LINE
  5
E26E
  8
0
 10
56.5
 20
86.5
 30
0.0
 11
43.5
 21
86.5
 31
0.0
  0
LINE
  5
E270
  8
0
 10
43.5
 20
73.5
 30
0.0
 11
56.5
 21
73.5
 31
0.0
  0
TEXT
  5
E271
  8
0
 62
     3
 10
0.0
 20
0.0
 30
0.0
 40
10.0
  1
PEC-Q13-GR
  7
STANDARD1
  0
LINE
  5
E5B1
  8
1
 10
50.0
 20
27.0
 30
0.0
 11
50.000000000000107
 21
48.5
 31
0.0
  0
LINE
  5
E5B5
  8
1
 10
40.500000000000057
 20
80.000000000000014
 30
0.0
 11
59.5
 21
80.0
 31
0.0
  0
LINE
  5
E5B7
  8
1
 10
50.000000000000057
 20
70.5
 30
0.0
 11
50.0
 21
89.500000000000014
 31
0.0
  0
ARC
  5
10267
  8
0
 10
43.760000000000133
 20
45.240000000000002
 30
0.0
 40
0.2600000000000193
 50
90.0
 51
180.0
  0
LINE
  5
10268
  8
0
 10
56.240000000000038
 20
45.499999999999993
 30
0.0
 11
43.760000000000133
 21
45.499999999999993
 31
0.0
  0
ARC
  5
10269
  8
0
 10
56.240000000000038
 20
45.240000000000002
 30
0.0
 40
0.2600000000000051
 50
0.0
 51
90.0
  0
LINE
  5
1026B
  8
0
 10
56.500000000000092
 20
41.5
 30
0.0
 11
56.500000000000092
 21
45.240000000000002
 31
0.0
  0
LINE
  5
1026C
  8
0
 10
43.500000000000028
 20
41.5
 30
0.0
 11
56.500000000000092
 21
41.5
 31
0.0
  0
LINE
  5
1026D
  8
0
 10
43.500000000000028
 20
45.240000000000002
 30
0.0
 11
43.500000000000028
 21
41.5
 31
0.0
  0
LINE
  5
1026E
  8
0
 10
56.000000000000078
 20
38.050000000000011
 30
0.0
 11
44.000000000000028
 21
38.050000000000011
 31
0.0
  0
LINE
  5
1026F
  8
0
 10
56.000000000000078
 20
38.050000000000011
 30
0.0
 11
54.000000000000092
 21
36.649584923580591
 31
0.0
  0
LINE
  5
10270
  8
0
 10
54.000000000000092
 20
36.649584923580591
 30
0.0
 11
46.000000000000078
 21
36.649584923580591
 31
0.0
  0
LINE
  5
10271
  8
0
 10
46.000000000000078
 20
36.649584923580591
 30
0.0
 11
44.000000000000028
 21
38.050000000000011
 31
0.0
  0
LINE
  5
10272
  8
0
 10
56.000000000000078
 20
35.174999999999997
 30
0.0
 11
44.000000000000028
 21
35.174999999999997
 31
0.0
  0
LINE
  5
10273
  8
0
 10
54.000000000000092
 20
33.774584923580584
 30
0.0
 11
46.000000000000078
 21
33.774584923580584
 31
0.0
  0
LINE
  5
10274
  8
0
 10
46.000000000000078
 20
33.774584923580584
 30
0.0
 11
44.000000000000028
 21
35.174999999999997
 31
0.0
  0
LINE
  5
10275
  8
0
 10
56.000000000000078
 20
35.174999999999997
 30
0.0
 11
54.000000000000092
 21
33.774584923580584
 31
0.0
  0
LINE
  5
10276
  8
0
 10
54.000000000000092
 20
30.89958492358058
 30
0.0
 11
46.000000000000078
 21
30.89958492358058
 31
0.0
  0
LINE
  5
10277
  8
0
 10
56.000000000000078
 20
32.299999999999997
 30
0.0
 11
54.000000000000092
 21
30.89958492358058
 31
0.0
  0
LINE
  5
10278
  8
0
 10
56.000000000000078
 20
32.299999999999997
 30
0.0
 11
44.000000000000028
 21
32.299999999999997
 31
0.0
  0
LINE
  5
10279
  8
0
 10
46.000000000000078
 20
30.89958492358058
 30
0.0
 11
44.000000000000028
 21
32.299999999999997
 31
0.0
  0
LINE
  5
1027A
  8
0
 10
54.000000000000092
 20
39.524584923580584
 30
0.0
 11
46.000000000000078
 21
39.524584923580584
 31
0.0
  0
LINE
  5
1027B
  8
0
 10
46.000000000000078
 20
39.524584923580584
 30
0.0
 11
44.000000000000028
 21
40.924999999999997
 31
0.0
  0
LINE
  5
1027C
  8
0
 10
56.000000000000078
 20
40.924999999999997
 30
0.0
 11
44.000000000000028
 21
40.924999999999997
 31
0.0
  0
LINE
  5
1027D
  8
0
 10
56.000000000000078
 20
40.924999999999997
 30
0.0
 11
54.000000000000092
 21
39.524584923580584
 31
0.0
  0
LINE
  5
1027E
  8
0
 10
54.000000000000092
 20
39.524584923580584
 30
0.0
 11
54.000000000000092
 21
38.050000000000011
 31
0.0
  0
LINE
  5
1027F
  8
0
 10
46.000000000000078
 20
38.050000000000011
 30
0.0
 11
46.000000000000078
 21
39.524584923580584
 31
0.0
  0
LINE
  5
10280
  8
0
 10
54.000000000000092
 20
36.649584923580591
 30
0.0
 11
54.000000000000092
 21
35.174999999999997
 31
0.0
  0
LINE
  5
10281
  8
0
 10
46.000000000000078
 20
35.174999999999997
 30
0.0
 11
46.000000000000078
 21
36.649584923580591
 31
0.0
  0
LINE
  5
10282
  8
0
 10
46.000000000000078
 20
32.299999999999997
 30
0.0
 11
46.000000000000078
 21
33.774584923580584
 31
0.0
  0
LINE
  5
10283
  8
0
 10
54.000000000000092
 20
33.774584923580584
 30
0.0
 11
54.000000000000092
 21
32.299999999999997
 31
0.0
  0
LINE
  5
10284
  8
0
 10
54.000000000000092
 20
30.0
 30
0.0
 11
46.000000000000078
 21
30.0
 31
0.0
  0
LINE
  5
10285
  8
0
 10
46.000000000000078
 20
30.0
 30
0.0
 11
46.000000000000078
 21
30.89958492358058
 31
0.0
  0
LINE
  5
10286
  8
0
 10
54.000000000000092
 20
30.89958492358058
 30
0.0
 11
54.000000000000092
 21
30.0
 31
0.0
  0
LINE
  5
10287
  8
0
 10
54.000000000000092
 20
41.5
 30
0.0
 11
54.000000000000092
 21
40.924999999999997
 31
0.0
  0
LINE
  5
10288
  8
0
 10
46.000000000000078
 20
40.924999999999997
 30
0.0
 11
46.000000000000078
 21
41.5
 31
0.0
  0
ENDSEC
  0
EOF
