  0
SECTION
  2
HEADER
  9
$ACADVER
  1
AC1009
  9
$INSBASE
 10
0.0
 20
0.0
 30
0.0
  9
$EXTMIN
 10
0.0
 20
-2.960436562073669
 30
0.0
  9
$EXTMAX
 10
80.736698499317868
 20
94.0
 30
0.0
  9
$LIMMIN
 10
0.0
 20
0.0
  9
$LIMMAX
 10
375.0
 20
270.0
  9
$ORTHOMODE
 70
     1
  9
$REGENMODE
 70
     1
  9
$FILLMODE
 70
     1
  9
$QTEXTMODE
 70
     0
  9
$MIRRTEXT
 70
     0
  9
$DRAGMODE
 70
     2
  9
$LTSCALE
 40
5.0
  9
$OSMODE
 70
    37
  9
$ATTMODE
 70
     1
  9
$TEXTSIZE
 40
0.2
  9
$TRACEWID
 40
0.05
  9
$TEXTSTYLE
  7
STANDARD
  9
$CLAYER
  8
0
  9
$CELTYPE
  6
BYLAYER
  9
$CECOLOR
 62
   256
  9
$DIMSCALE
 40
1.0
  9
$DIMASZ
 40
3.0
  9
$DIMEXO
 40
1.0
  9
$DIMDLI
 40
6.0
  9
$DIMRND
 40
0.0
  9
$DIMDLE
 40
0.0
  9
$DIMEXE
 40
1.0
  9
$DIMTP
 40
495.0
  9
$DIMTM
 40
0.0
  9
$DIMTXT
 40
3.0
  9
$DIMCEN
 40
0.0
  9
$DIMTSZ
 40
0.0
  9
$DIMTOL
 70
     0
  9
$DIMLIM
 70
     0
  9
$DIMTIH
 70
     0
  9
$DIMTOH
 70
     0
  9
$DIMSE1
 70
     0
  9
$DIMSE2
 70
     0
  9
$DIMTAD
 70
     1
  9
$DIMZIN
 70
     8
  9
$DIMBLK
  1

  9
$DIMASO
 70
     0
  9
$DIMSHO
 70
     0
  9
$DIMPOST
  1

  9
$DIMAPOST
  1

  9
$DIMALT
 70
     0
  9
$DIMALTD
 70
     2
  9
$DIMALTF
 40
25.399999999999999
  9
$DIMLFAC
 40
1.0
  9
$DIMTOFL
 70
     1
  9
$DIMTVP
 40
0.0
  9
$DIMTIX
 70
     1
  9
$DIMSOXD
 70
     0
  9
$DIMSAH
 70
     0
  9
$DIMBLK1
  1

  9
$DIMBLK2
  1

  9
$DIMSTYLE
  2
STANDARD
  9
$DIMCLRD
 70
     4
  9
$DIMCLRE
 70
     4
  9
$DIMCLRT
 70
     4
  9
$DIMTFAC
 40
1.0
  9
$DIMGAP
 40
1.0
  9
$LUNITS
 70
     2
  9
$LUPREC
 70
     1
  9
$SKETCHINC
 40
0.1
  9
$FILLETRAD
 40
2.0
  9
$AUNITS
 70
     0
  9
$AUPREC
 70
     1
  9
$MENU
  1
C:\R13\WIN\SUPPORT\ACAD-I
  9
$ELEVATION
 40
0.0
  9
$PELEVATION
 40
0.0
  9
$THICKNESS
 40
0.0
  9
$LIMCHECK
 70
     0
  9
$BLIPMODE
 70
     0
  9
$CHAMFERA
 40
0.0
  9
$CHAMFERB
 40
0.0
  9
$SKPOLY
 70
     0
  9
$TDCREATE
 40
2451963.5438110419
  9
$TDUPDATE
 40
2458040.6601516558
  9
$TDINDWG
 40
0.742624456
  9
$TDUSRTIMER
 40
2456598.6077776859
  9
$USRTIMER
 70
     1
  9
$ANGBASE
 50
0.0
  9
$ANGDIR
 70
     0
  9
$PDMODE
 70
     0
  9
$PDSIZE
 40
0.0
  9
$PLINEWID
 40
0.0
  9
$COORDS
 70
     1
  9
$SPLFRAME
 70
     0
  9
$SPLINETYPE
 70
     6
  9
$SPLINESEGS
 70
     8
  9
$ATTDIA
 70
     0
  9
$ATTREQ
 70
     1
  9
$HANDLING
 70
     1
  9
$HANDSEED
  5
123FE
  9
$SURFTAB1
 70
     6
  9
$SURFTAB2
 70
     6
  9
$SURFTYPE
 70
     6
  9
$SURFU
 70
     6
  9
$SURFV
 70
     6
  9
$UCSNAME
  2

  9
$UCSORG
 10
0.0
 20
0.0
 30
0.0
  9
$UCSXDIR
 10
1.0
 20
0.0
 30
0.0
  9
$UCSYDIR
 10
0.0
 20
1.0
 30
0.0
  9
$PUCSNAME
  2

  9
$PUCSORG
 10
0.0
 20
0.0
 30
0.0
  9
$PUCSXDIR
 10
1.0
 20
0.0
 30
0.0
  9
$PUCSYDIR
 10
0.0
 20
1.0
 30
0.0
  9
$USERI1
 70
     4
  9
$USERI2
 70
     1
  9
$USERI3
 70
     0
  9
$USERI4
 70
     0
  9
$USERI5
 70
     0
  9
$USERR1
 40
1.0
  9
$USERR2
 40
3.0
  9
$USERR3
 40
3.0
  9
$USERR4
 40
3.0
  9
$USERR5
 40
10.0
  9
$WORLDVIEW
 70
     1
  9
$SHADEDGE
 70
     3
  9
$SHADEDIF
 70
    70
  9
$TILEMODE
 70
     1
  9
$MAXACTVP
 70
    16
  9
$PLIMCHECK
 70
     0
  9
$PEXTMIN
 10
1.0000000000000000E+020
 20
1.0000000000000000E+020
 30
1.0000000000000000E+020
  9
$PEXTMAX
 10
-1.0000000000000000E+020
 20
-1.0000000000000000E+020
 30
-1.0000000000000000E+020
  9
$PLIMMIN
 10
0.0
 20
0.0
  9
$PLIMMAX
 10
12.0
 20
9.0
  9
$UNITMODE
 70
     0
  9
$VISRETAIN
 70
     0
  9
$PLINEGEN
 70
     0
  9
$PSLTSCALE
 70
     0
  0
ENDSEC
  0
SECTION
  2
TABLES
  0
TABLE
  2
VPORT
 70
     1
  0
VPORT
  2
*ACTIVE
 70
     0
 10
0.0
 20
0.0
 11
1.0
 21
1.0
 12
181.62393162393161
 22
100.0
 13
0.0
 23
0.0
 14
10.0
 24
10.0
 15
10.0
 25
10.0
 16
0.0
 26
0.0
 36
1.0
 17
0.0
 27
0.0
 37
0.0
 40
200.0
 41
1.816239316239316
 42
50.0
 43
0.0
 44
0.0
 50
0.0
 51
0.0
 71
     0
 72
   100
 73
     1
 74
     0
 75
     0
 76
     0
 77
     0
 78
     0
  0
ENDTAB
  0
TABLE
  2
LTYPE
 70
     3
  0
LTYPE
  2
CONTINUOUS
 70
     0
  3
Solid Line
 72
    65
 73
     0
 40
0.0
  0
LTYPE
  2
CENTER
 70
     0
  3
____ _ ____ _ ____ _ ____ _ ____ _ ____ _ ____
 72
    65
 73
     4
 40
2.0
 49
1.25
 49
-0.25
 49
0.25
 49
-0.25
  0
LTYPE
  2
PHANTOM2
 70
     0
  3
___ _ _ ___ _ _ ___ _ _ ___ _ _
 72
    65
 73
     6
 40
1.25
 49
0.625
 49
-0.125
 49
0.125
 49
-0.125
 49
0.125
 49
-0.125
  0
ENDTAB
  0
TABLE
  2
LAYER
 70
     3
  0
LAYER
  2
0
 70
     0
 62
     7
  6
CONTINUOUS
  0
LAYER
  2
1
 70
     0
 62
     1
  6
CENTER
  0
LAYER
  2
DEFPOINTS
 70
     0
 62
     7
  6
CONTINUOUS
  0
ENDTAB
  0
TABLE
  2
STYLE
 70
     2
  0
STYLE
  2
STANDARD
 70
     0
 40
0.0
 41
1.0
 50
0.0
 71
     0
 42
0.2
  3
SIMPLEX
  4
BIGFONT
  0
STYLE
  2
STANDARD1
 70
     0
 40
0.0
 41
1.0
 50
0.0
 71
     0
 42
3.0
  3
txt
  4

  0
ENDTAB
  0
TABLE
  2
VIEW
 70
     0
  0
ENDTAB
  0
TABLE
  2
UCS
 70
     0
  0
ENDTAB
  0
TABLE
  2
APPID
 70
    33
  0
APPID
  2
ACAD
 70
     0
  0
APPID
  2
GENIUS_GENOREF_13
 70
     0
  0
APPID
  2
GENIUS_GENOENT_13
 70
     0
  0
APPID
  2
GENIUS_GENBH_13
 70
     0
  0
APPID
  2
GENIUS_GENOBJ_13
 70
     0
  0
APPID
  2
GENIUS_GENODEF_13
 70
     0
  0
APPID
  2
GENIUS_GENOLIS_13
 70
     0
  0
APPID
  2
GENIUS_GENOBJ-NBEHI-BHF_13
 70
     0
  0
APPID
  2
GENIUS_GENOBJ-NBEHI-BHB_13
 70
     0
  0
APPID
  2
GENIUS_GENOBJ-F-PART_13
 70
     0
  0
APPID
  2
GENIUS_GEFSTDP_13
 70
     0
  0
APPID
  2
GENIUS_GENOBJ-N-RSSYM_13
 70
     0
  0
APPID
  2
GENIUS_GENSYMENT_13
 70
     0
  0
APPID
  2
GENIUS_GENOBJ-N-TIT_13
 70
     0
  0
APPID
  2
GENIUS_GENTITLE_13
 70
     0
  0
APPID
  2
GENIUS_GENZVEED_13
 70
     0
  0
APPID
  2
GENIUS_GENOBJ-N-LEADER_13
 70
     0
  0
APPID
  2
GENIUS_GENOBJ-N-FIL_13
 70
     0
  0
APPID
  2
GENIUS_GENOBJ-N-SEC_13
 70
     0
  0
APPID
  2
GENIUS_GENOBJ-N-CRS_13
 70
     0
  0
APPID
  2
GENIUS_GENOBJ-N-ZOO_13
 70
     0
  0
APPID
  2
GENIUS_GENZOO_13
 70
     0
  0
APPID
  2
GENIUS_GENOBJ-F-TOL_13
 70
     0
  0
APPID
  2
GENIUS_GENFIL_13
 70
     0
  0
APPID
  2
GENIUS_GENOBJ-N-CHA_13
 70
     0
  0
APPID
  2
_CALL_MAC$
 70
     0
  0
APPID
  2
ACAD_NAV_VCDISPLAY
 70
     0
  0
APPID
  2
ACAD_EXEMPT_FROM_CAD_STANDARDS
 70
     0
  0
APPID
  2
ACAD_MLEADERVER
 70
     0
  0
APPID
  2
ACAD_DSTYLE_DIMJAG
 70
     0
  0
APPID
  2
ACAD_DSTYLE_DIMTALN
 70
     0
  0
APPID
  2
ACAECLAYERSTANDARD
 70
     0
  0
APPID
  2
ACCMTRANSPARENCY
 70
     0
  0
ENDTAB
  0
TABLE
  2
DIMSTYLE
 70
     1
  0
DIMSTYLE
  2
STANDARD
 70
     0
  3

  4

  5

  6

  7

 40
1.0
 41
0.18
 42
0.0625
 43
0.38
 44
0.18
 45
0.0
 46
0.0
 47
0.0
 48
0.0
140
0.18
141
0.09
142
0.0
143
25.399999999999999
144
1.0
145
0.0
146
1.0
147
0.09
 71
     0
 72
     0
 73
     1
 74
     1
 75
     0
 76
     0
 77
     0
 78
     0
170
     0
171
     2
172
     0
173
     0
174
     0
175
     0
176
     0
177
     0
178
     0
  0
ENDTAB
  0
ENDSEC
  0
SECTION
  2
BLOCKS
  0
BLOCK
  8
0
  2
$MODEL_SPACE
 70
     0
 10
0.0
 20
0.0
 30
0.0
  3
$MODEL_SPACE
  1

  0
ENDBLK
  5
CF6E
  8
0
  0
BLOCK
 67
     1
  8
0
  2
$PAPER_SPACE
 70
     0
 10
0.0
 20
0.0
 30
0.0
  3
$PAPER_SPACE
  1

  0
ENDBLK
  5
CF6C
 67
     1
  8
0
  0
ENDSEC
  0
SECTION
  2
ENTITIES
  0
TEXT
  5
F328
  8
0
 62
     3
 10
0.0
 20
0.0
 30
0.0
 40
10.0
  1
PEC-T22-BK
  7
STANDARD1
  0
CIRCLE
  5
12270
  8
0
 10
39.999999999999893
 20
80.0
 30
0.0
 40
11.0
  0
LINE
  5
12271
  8
1
 10
39.999999999999893
 20
26.999999999999972
 30
0.0
 11
39.999999999999893
 21
49.5
 31
0.0
  0
LINE
  5
12272
  8
1
 10
39.999999999999893
 20
66.0
 30
0.0
 11
39.999999999999893
 21
94.0
 31
0.0
  0
LINE
  5
12273
  8
1
 10
25.99999999999989
 20
80.0
 30
0.0
 11
53.999999999999879
 21
80.0
 31
0.0
  0
LINE
  5
12341
  8
0
 10
50.999999999999943
 20
41.5
 30
0.0
 11
50.999999999999943
 21
45.950000008195609
 31
0.0
  0
LINE
  5
12342
  8
0
 10
28.99999999999995
 20
45.950000008195609
 30
0.0
 11
28.99999999999995
 21
41.5
 31
0.0
  0
ARC
  5
12343
  8
0
 10
50.449999999999868
 20
45.949999999999982
 30
0.0
 40
0.5500000000000114
 50
0.0000008537736463
 51
90.0
  0
ARC
  5
12344
  8
0
 10
29.549999999999901
 20
45.949999999999982
 30
0.0
 40
0.5500000000000114
 50
90.0
 51
179.99999914622629
  0
LINE
  5
12345
  8
0
 10
29.99999999999995
 20
40.924999999999983
 30
0.0
 11
31.49999999999995
 21
39.874688692685432
 31
0.0
  0
LINE
  5
12346
  8
0
 10
48.499999999999943
 20
39.874688692685432
 30
0.0
 11
49.999999999999943
 21
40.924999999999983
 31
0.0
  0
LINE
  5
12347
  8
0
 10
29.99999999999995
 20
35.175000000000011
 30
0.0
 11
31.49999999999995
 21
34.124688692685417
 31
0.0
  0
LINE
  5
12348
  8
0
 10
48.499999999999943
 20
34.124688692685417
 30
0.0
 11
49.999999999999943
 21
35.175000000000011
 31
0.0
  0
LINE
  5
12349
  8
0
 10
29.99999999999995
 20
38.049999999999983
 30
0.0
 11
31.49999999999995
 21
36.999688692685432
 31
0.0
  0
LINE
  5
1234A
  8
0
 10
48.499999999999943
 20
36.999688692685432
 30
0.0
 11
49.999999999999943
 21
38.049999999999983
 31
0.0
  0
LINE
  5
1234B
  8
0
 10
29.99999999999995
 20
32.300000000000011
 30
0.0
 11
31.49999999999995
 21
31.249688692685421
 31
0.0
  0
LINE
  5
1234C
  8
0
 10
48.499999999999943
 20
31.249688692685421
 30
0.0
 11
49.999999999999943
 21
32.300000000000011
 31
0.0
  0
LINE
  5
1234D
  8
0
 10
48.499999999999943
 20
40.924999999999983
 30
0.0
 11
48.499999999999943
 21
41.5
 31
0.0
  0
LINE
  5
1234E
  8
0
 10
31.49999999999995
 20
41.5
 30
0.0
 11
31.49999999999995
 21
40.924999999999983
 31
0.0
  0
LINE
  5
1234F
  8
0
 10
48.499999999999943
 20
32.300000000000011
 30
0.0
 11
48.499999999999943
 21
34.124688692685417
 31
0.0
  0
LINE
  5
12350
  8
0
 10
31.49999999999995
 20
34.124688692685417
 30
0.0
 11
31.49999999999995
 21
32.300000000000011
 31
0.0
  0
LINE
  5
12351
  8
0
 10
48.499999999999943
 20
35.175000000000011
 30
0.0
 11
48.499999999999943
 21
36.999688692685432
 31
0.0
  0
LINE
  5
12352
  8
0
 10
31.49999999999995
 20
36.999688692685432
 30
0.0
 11
31.49999999999995
 21
35.175000000000011
 31
0.0
  0
LINE
  5
12353
  8
0
 10
48.499999999999943
 20
38.049999999999983
 30
0.0
 11
48.499999999999943
 21
39.874688692685432
 31
0.0
  0
LINE
  5
12354
  8
0
 10
31.49999999999995
 20
39.874688692685432
 30
0.0
 11
31.49999999999995
 21
38.049999999999983
 31
0.0
  0
LINE
  5
12355
  8
0
 10
48.499999999999943
 20
30.0
 30
0.0
 11
48.499999999999943
 21
31.249688692685421
 31
0.0
  0
LINE
  5
12356
  8
0
 10
31.49999999999995
 20
31.249688692685421
 30
0.0
 11
31.49999999999995
 21
30.0
 31
0.0
  0
LINE
  5
12357
  8
0
 10
50.999999999999943
 20
41.5
 30
0.0
 11
28.99999999999995
 21
41.5
 31
0.0
  0
LINE
  5
12358
  8
0
 10
50.449999999999868
 20
46.5
 30
0.0
 11
29.550000000000011
 21
46.5
 31
0.0
  0
LINE
  5
12359
  8
0
 10
48.499999999999943
 20
39.874688692685432
 30
0.0
 11
31.49999999999995
 21
39.874688692685432
 31
0.0
  0
LINE
  5
1235A
  8
0
 10
49.999999999999943
 20
40.924999999999983
 30
0.0
 11
29.99999999999995
 21
40.924999999999983
 31
0.0
  0
LINE
  5
1235B
  8
0
 10
48.499999999999943
 20
34.124688692685417
 30
0.0
 11
31.49999999999995
 21
34.124688692685417
 31
0.0
  0
LINE
  5
1235C
  8
0
 10
49.999999999999943
 20
35.175000000000011
 30
0.0
 11
29.99999999999995
 21
35.175000000000011
 31
0.0
  0
LINE
  5
1235D
  8
0
 10
48.499999999999943
 20
36.999688692685432
 30
0.0
 11
31.49999999999995
 21
36.999688692685432
 31
0.0
  0
LINE
  5
1235E
  8
0
 10
49.999999999999943
 20
38.049999999999983
 30
0.0
 11
29.99999999999995
 21
38.049999999999983
 31
0.0
  0
LINE
  5
1235F
  8
0
 10
48.499999999999943
 20
31.249688692685421
 30
0.0
 11
31.49999999999995
 21
31.249688692685421
 31
0.0
  0
LINE
  5
12360
  8
0
 10
49.999999999999943
 20
32.300000000000011
 30
0.0
 11
29.99999999999995
 21
32.300000000000011
 31
0.0
  0
LINE
  5
12361
  8
0
 10
48.499999999999943
 20
30.0
 30
0.0
 11
31.49999999999995
 21
30.0
 31
0.0
  0
ENDSEC
  0
EOF
