  0
SECTION
  2
HEADER
  9
$ACADVER
  1
AC1009
  9
$INSBASE
 10
0.0
 20
0.0
 30
0.0
  9
$EXTMIN
 10
0.0
 20
-1.4802182810368341
 30
0.0
  9
$EXTMAX
 10
69.230907439658694
 20
96.329138838559132
 30
0.0
  9
$LIMMIN
 10
0.0
 20
0.0
  9
$LIMMAX
 10
12.0
 20
9.0
  9
$ORTHOMODE
 70
     1
  9
$REGENMODE
 70
     1
  9
$FILLMODE
 70
     1
  9
$QTEXTMODE
 70
     0
  9
$MIRRTEXT
 70
     0
  9
$DRAGMODE
 70
     2
  9
$LTSCALE
 40
5.0
  9
$OSMODE
 70
  3071
  9
$ATTMODE
 70
     1
  9
$TEXTSIZE
 40
0.2
  9
$TRACEWID
 40
0.05
  9
$TEXTSTYLE
  7
STANDARD
  9
$CLAYER
  8
0
  9
$CELTYPE
  6
BYLAYER
  9
$CECOLOR
 62
   256
  9
$DIMSCALE
 40
1.0
  9
$DIMASZ
 40
0.18
  9
$DIMEXO
 40
0.0625
  9
$DIMDLI
 40
0.38
  9
$DIMRND
 40
0.0
  9
$DIMDLE
 40
0.0
  9
$DIMEXE
 40
0.18
  9
$DIMTP
 40
0.0
  9
$DIMTM
 40
0.0
  9
$DIMTXT
 40
2.0
  9
$DIMCEN
 40
0.09
  9
$DIMTSZ
 40
0.0
  9
$DIMTOL
 70
     0
  9
$DIMLIM
 70
     0
  9
$DIMTIH
 70
     0
  9
$DIMTOH
 70
     0
  9
$DIMSE1
 70
     0
  9
$DIMSE2
 70
     0
  9
$DIMTAD
 70
     1
  9
$DIMZIN
 70
     0
  9
$DIMBLK
  1

  9
$DIMASO
 70
     1
  9
$DIMSHO
 70
     1
  9
$DIMPOST
  1

  9
$DIMAPOST
  1

  9
$DIMALT
 70
     0
  9
$DIMALTD
 70
     2
  9
$DIMALTF
 40
25.399999999999999
  9
$DIMLFAC
 40
1.0
  9
$DIMTOFL
 70
     0
  9
$DIMTVP
 40
0.0
  9
$DIMTIX
 70
     0
  9
$DIMSOXD
 70
     0
  9
$DIMSAH
 70
     0
  9
$DIMBLK1
  1

  9
$DIMBLK2
  1

  9
$DIMSTYLE
  2
STANDARD
  9
$DIMCLRD
 70
     0
  9
$DIMCLRE
 70
     0
  9
$DIMCLRT
 70
     0
  9
$DIMTFAC
 40
1.0
  9
$DIMGAP
 40
0.09
  9
$LUNITS
 70
     2
  9
$LUPREC
 70
     4
  9
$SKETCHINC
 40
0.1
  9
$FILLETRAD
 40
2.5
  9
$AUNITS
 70
     0
  9
$AUPREC
 70
     0
  9
$MENU
  1
.
  9
$ELEVATION
 40
0.0
  9
$PELEVATION
 40
0.0
  9
$THICKNESS
 40
0.0
  9
$LIMCHECK
 70
     0
  9
$BLIPMODE
 70
     0
  9
$CHAMFERA
 40
0.25
  9
$CHAMFERB
 40
0.25
  9
$SKPOLY
 70
     0
  9
$TDCREATE
 40
2453083.4120647679
  9
$TDUPDATE
 40
2456597.7134242482
  9
$TDINDWG
 40
0.4195817593
  9
$TDUSRTIMER
 40
0.4195816435
  9
$USRTIMER
 70
     1
  9
$ANGBASE
 50
0.0
  9
$ANGDIR
 70
     0
  9
$PDMODE
 70
     0
  9
$PDSIZE
 40
0.0
  9
$PLINEWID
 40
0.0
  9
$COORDS
 70
     1
  9
$SPLFRAME
 70
     0
  9
$SPLINETYPE
 70
     6
  9
$SPLINESEGS
 70
     8
  9
$ATTDIA
 70
     0
  9
$ATTREQ
 70
     1
  9
$HANDLING
 70
     1
  9
$HANDSEED
  5
21EB
  9
$SURFTAB1
 70
     6
  9
$SURFTAB2
 70
     6
  9
$SURFTYPE
 70
     6
  9
$SURFU
 70
     6
  9
$SURFV
 70
     6
  9
$UCSNAME
  2

  9
$UCSORG
 10
0.0
 20
0.0
 30
0.0
  9
$UCSXDIR
 10
1.0
 20
0.0
 30
0.0
  9
$UCSYDIR
 10
0.0
 20
1.0
 30
0.0
  9
$PUCSNAME
  2

  9
$PUCSORG
 10
0.0
 20
0.0
 30
0.0
  9
$PUCSXDIR
 10
1.0
 20
0.0
 30
0.0
  9
$PUCSYDIR
 10
0.0
 20
1.0
 30
0.0
  9
$USERI1
 70
     0
  9
$USERI2
 70
     1
  9
$USERI3
 70
     0
  9
$USERI4
 70
     0
  9
$USERI5
 70
     0
  9
$USERR1
 40
0.0
  9
$USERR2
 40
0.0
  9
$USERR3
 40
0.0
  9
$USERR4
 40
0.0
  9
$USERR5
 40
0.0
  9
$WORLDVIEW
 70
     1
  9
$SHADEDGE
 70
     3
  9
$SHADEDIF
 70
    70
  9
$TILEMODE
 70
     1
  9
$MAXACTVP
 70
    64
  9
$PLIMCHECK
 70
     0
  9
$PEXTMIN
 10
0.0
 20
0.0
 30
0.0
  9
$PEXTMAX
 10
0.0
 20
0.0
 30
0.0
  9
$PLIMMIN
 10
0.0
 20
0.0
  9
$PLIMMAX
 10
12.0
 20
9.0
  9
$UNITMODE
 70
     0
  9
$VISRETAIN
 70
     1
  9
$PLINEGEN
 70
     0
  9
$PSLTSCALE
 70
     1
  0
ENDSEC
  0
SECTION
  2
TABLES
  0
TABLE
  2
VPORT
 70
     1
  0
VPORT
  2
*ACTIVE
 70
     0
 10
0.0
 20
0.0
 11
1.0
 21
1.0
 12
34.615453881020123
 22
47.634047676736792
 13
0.0
 23
0.0
 14
0.5
 24
0.5
 15
0.5
 25
0.5
 16
0.0
 26
0.0
 36
1.0
 17
0.0
 27
0.0
 37
0.0
 40
99.367466735527756
 41
2.304913294797688
 42
50.0
 43
0.0
 44
0.0
 50
0.0
 51
0.0
 71
     0
 72
  1000
 73
     1
 74
     2
 75
     0
 76
     0
 77
     0
 78
     0
  0
ENDTAB
  0
TABLE
  2
LTYPE
 70
     4
  0
LTYPE
  2
CONTINUOUS
 70
     0
  3
Solid Line
 72
    65
 73
     0
 40
0.0
  0
LTYPE
  2
CENTER
 70
     0
  3
____ _ ____ _ ____ _ ____ _ ____ _ ____ _ ____
 72
    65
 73
     4
 40
2.0
 49
1.25
 49
-0.25
 49
0.25
 49
-0.25
  0
LTYPE
  2
HIDDEN
 70
     0
  3
Hidden __ __ __ __ __ __ __ __ __ __ __ __ __ _
 72
    65
 73
     2
 40
0.375
 49
0.25
 49
-0.125
  0
LTYPE
  2
PHANTOM2
 70
     0
  3
___ _ _ ___ _ _ ___ _ _ ___ _ _
 72
    65
 73
     6
 40
1.25
 49
0.625
 49
-0.125
 49
0.125
 49
-0.125
 49
0.125
 49
-0.125
  0
ENDTAB
  0
TABLE
  2
LAYER
 70
     4
  0
LAYER
  2
0
 70
     0
 62
     7
  6
CONTINUOUS
  0
LAYER
  2
1
 70
     0
 62
     1
  6
CENTER
  0
LAYER
  2
2
 70
     0
 62
     2
  6
HIDDEN
  0
LAYER
  2
DEFPOINTS
 70
     0
 62
     7
  6
CONTINUOUS
  0
ENDTAB
  0
TABLE
  2
STYLE
 70
     2
  0
STYLE
  2
STANDARD
 70
     0
 40
0.0
 41
1.0
 50
0.0
 71
     0
 42
0.2
  3
simplex.shx
  4
bigfont.shx
  0
STYLE
  2
STANDARD1
 70
     0
 40
0.0
 41
1.0
 50
0.0
 71
     0
 42
3.0
  3
txt
  4

  0
ENDTAB
  0
TABLE
  2
VIEW
 70
     0
  0
ENDTAB
  0
TABLE
  2
UCS
 70
     0
  0
ENDTAB
  0
TABLE
  2
APPID
 70
     4
  0
APPID
  2
ACAD
 70
     0
  0
APPID
  2
DCO15
 70
     0
  0
APPID
  2
ACAD_MLEADERVER
 70
     0
  0
APPID
  2
ACAD_NAV_VCDISPLAY
 70
     0
  0
ENDTAB
  0
TABLE
  2
DIMSTYLE
 70
     1
  0
DIMSTYLE
  2
STANDARD
 70
     0
  3

  4

  5

  6

  7

 40
1.0
 41
0.18
 42
0.0625
 43
0.38
 44
0.18
 45
0.0
 46
0.0
 47
0.0
 48
0.0
140
0.18
141
0.09
142
0.0
143
25.399999999999999
144
1.0
145
0.0
146
1.0
147
0.09
 71
     0
 72
     0
 73
     1
 74
     1
 75
     0
 76
     0
 77
     0
 78
     0
170
     0
171
     2
172
     0
173
     0
174
     0
175
     0
176
     0
177
     0
178
     0
  0
ENDTAB
  0
ENDSEC
  0
SECTION
  2
BLOCKS
  0
BLOCK
  8
0
  2
$MODEL_SPACE
 70
     0
 10
0.0
 20
0.0
 30
0.0
  3
$MODEL_SPACE
  1

  0
ENDBLK
  5
21
  8
0
  0
BLOCK
 67
     1
  8
0
  2
$PAPER_SPACE
 70
     0
 10
0.0
 20
0.0
 30
0.0
  3
$PAPER_SPACE
  1

  0
ENDBLK
  5
5B
 67
     1
  8
0
  0
ENDSEC
  0
SECTION
  2
ENTITIES
  0
LINE
  5
1F40
  8
1
 10
56.230907439658687
 20
60.329138838559132
 30
0.0
 11
56.230907439658687
 21
18.18939357333829
 31
0.0
  0
LINE
  5
1F41
  8
0
 10
56.730907439658473
 20
44.529138838559192
 30
0.0
 11
55.73090743965853
 21
44.529138838559192
 31
0.0
  0
LINE
  5
1F42
  8
0
 10
56.730907439658473
 20
46.029138838559128
 30
0.0
 11
55.73090743965853
 21
46.029138838559128
 31
0.0
  0
LINE
  5
1F43
  8
0
 10
56.730907439658473
 20
48.622713582813361
 30
0.0
 11
55.73090743965853
 21
48.622713582813361
 31
0.0
  0
LINE
  5
1F44
  8
0
 10
56.730907439658523
 20
50.029138838559142
 30
0.0
 11
55.73090743965853
 21
50.029138838559099
 31
0.0
  0
LINE
  5
1F45
  8
2
 10
51.230907439658409
 20
50.029138838559071
 30
0.0
 11
55.730907439658409
 21
50.029138838559142
 31
0.0
  0
LINE
  5
1F46
  8
2
 10
52.730907439658523
 20
44.529138838559128
 30
0.0
 11
55.730907439658459
 21
44.529138838559192
 31
0.0
  0
LINE
  5
1F47
  8
2
 10
52.042907439658357
 20
48.622713582813297
 30
0.0
 11
52.042907439658357
 21
45.217138838559229
 31
0.0
  0
LINE
  5
1F48
  8
2
 10
51.230907439658459
 20
50.029138838559071
 30
0.0
 11
51.230907439658459
 21
46.029138838559128
 31
0.0
  0
LINE
  5
1F49
  8
2
 10
51.230907439658523
 20
46.029138838559128
 30
0.0
 11
52.730907439658523
 21
44.529138838559128
 31
0.0
  0
LINE
  5
1F4A
  8
2
 10
51.230907439658459
 20
48.622713582813297
 30
0.0
 11
55.730907439658409
 21
48.622713582813361
 31
0.0
  0
LINE
  5
1F4B
  8
2
 10
52.042907439658357
 20
48.622713582813297
 30
0.0
 11
51.230907439658409
 21
50.029138838559071
 31
0.0
  0
LINE
  5
1F4C
  8
2
 10
51.230907439658459
 20
46.029138838559071
 30
0.0
 11
55.730907439658409
 21
46.029138838559128
 31
0.0
  0
LINE
  5
1F50
  8
0
 10
49.230907439658523
 20
55.32913883855916
 30
0.0
 11
63.230907439658438
 21
55.329138838559217
 31
0.0
  0
LINE
  5
1F51
  8
0
 10
50.231559153747149
 20
24.32913883855916
 30
0.0
 11
50.940249634532357
 21
23.32913883855916
 31
0.0
  0
LINE
  5
1F52
  8
0
 10
50.940249634532357
 20
24.32913883855916
 30
0.0
 11
51.64735641571891
 21
23.32913883855916
 31
0.0
  0
LINE
  5
1F53
  8
0
 10
61.52314894438333
 20
24.32913883855921
 30
0.0
 11
60.814458463598122
 21
23.329138838559189
 31
0.0
  0
LINE
  5
1F54
  8
0
 10
62.23025572556989
 20
24.32913883855921
 30
0.0
 11
61.521565244784632
 21
23.329138838559189
 31
0.0
  0
LINE
  5
1F55
  8
0
 10
61.523148944383387
 20
41.329138838559203
 30
0.0
 11
62.23025572556989
 21
41.329138838559203
 31
0.0
  0
LINE
  5
1F56
  8
0
 10
48.23090743965863
 20
24.32913883855915
 30
0.0
 11
64.230907439658608
 21
24.329138838559221
 31
0.0
  0
LINE
  5
1F57
  8
0
 10
50.231559153747149
 20
41.329138838559132
 30
0.0
 11
50.938665934933653
 21
41.329138838559139
 31
0.0
  0
LINE
  5
1F58
  8
0
 10
49.230907439658637
 20
23.32913883855915
 30
0.0
 11
48.23090743965863
 21
24.32913883855915
 31
0.0
  0
LINE
  5
1F59
  8
0
 10
64.230907439658608
 20
24.32913883855921
 30
0.0
 11
63.230907439658608
 21
23.329138838559199
 31
0.0
  0
LINE
  5
1F5A
  8
0
 10
50.231559153747149
 20
24.32913883855916
 30
0.0
 11
50.231559153747149
 21
41.329138838559153
 31
0.0
  0
LINE
  5
1F5B
  8
0
 10
50.938665934933709
 20
24.32913883855916
 30
0.0
 11
50.938665934933653
 21
41.329138838559139
 31
0.0
  0
LINE
  5
1F5C
  8
0
 10
62.23025572556989
 20
24.32913883855921
 30
0.0
 11
62.23025572556989
 21
41.329138838559189
 31
0.0
  0
LINE
  5
1F5D
  8
0
 10
61.52314894438333
 20
24.32913883855921
 30
0.0
 11
61.52314894438333
 21
41.329138838559203
 31
0.0
  0
LINE
  5
1F5E
  8
0
 10
56.730907439658523
 20
53.029138838559163
 30
0.0
 11
64.230907439658495
 21
53.029138838559192
 31
0.0
  0
LINE
  5
1F5F
  8
0
 10
55.730907439658459
 20
35.029138838559177
 30
0.0
 11
56.730907439658473
 21
35.029138838559163
 31
0.0
  0
LINE
  5
1F60
  8
0
 10
55.730907439658523
 20
53.029138838559149
 30
0.0
 11
55.730907439658459
 21
35.029138838559142
 31
0.0
  0
LINE
  5
1F61
  8
0
 10
56.730907439658523
 20
53.029138838559163
 30
0.0
 11
56.730907439658473
 21
35.029138838559149
 31
0.0
  0
LINE
  5
1F62
  8
0
 10
64.230907439658495
 20
53.029138838559199
 30
0.0
 11
64.230907439658608
 21
24.32913883855921
 31
0.0
  0
LINE
  5
1F63
  8
0
 10
48.23090743965853
 20
53.029138838559142
 30
0.0
 11
48.23090743965863
 21
24.32913883855915
 31
0.0
  0
LINE
  5
1F64
  8
0
 10
49.230907439658637
 20
23.32913883855915
 30
0.0
 11
63.230907439658608
 21
23.329138838559199
 31
0.0
  0
LINE
  5
1F65
  8
0
 10
48.23090743965853
 20
53.029138838559142
 30
0.0
 11
55.73090743965853
 21
53.029138838559163
 31
0.0
  0
LINE
  5
1F67
  8
0
 10
48.280907439658691
 20
55.32913883855916
 30
0.0
 11
48.280907439658691
 21
53.32913883855916
 31
0.0
  0
LINE
  5
1F68
  8
0
 10
64.180907439658696
 20
55.329138838559217
 30
0.0
 11
64.180907439658696
 21
53.32913883855916
 31
0.0
  0
LINE
  5
1F69
  8
0
 10
48.280907439658691
 20
53.32913883855916
 30
0.0
 11
64.180907439658696
 21
53.32913883855916
 31
0.0
  0
LINE
  5
1F6A
  8
1
 10
43.230907439658687
 20
83.329138838559146
 30
0.0
 11
69.230907439658694
 21
83.329138838559146
 31
0.0
  0
LINE
  5
1F6B
  8
1
 10
56.230907439658687
 20
96.329138838559132
 30
0.0
 11
56.230907439658687
 21
70.329138838559132
 31
0.0
  0
CIRCLE
  5
1F6C
  8
0
 10
56.230907439658687
 20
83.329138838559146
 30
0.0
 40
8.0
  0
LINE
  5
1F6D
  8
2
 10
61.230907439658409
 20
46.029138838559071
 30
0.0
 11
56.730907439658473
 21
46.029138838559128
 31
0.0
  0
LINE
  5
1F6E
  8
2
 10
60.418907439658568
 20
48.622713582813297
 30
0.0
 11
61.230907439658459
 21
50.029138838559071
 31
0.0
  0
LINE
  5
1F6F
  8
2
 10
61.230907439658459
 20
48.622713582813297
 30
0.0
 11
56.730907439658473
 21
48.622713582813361
 31
0.0
  0
LINE
  5
1F70
  8
2
 10
61.230907439658409
 20
46.029138838559128
 30
0.0
 11
59.730907439658402
 21
44.529138838559128
 31
0.0
  0
LINE
  5
1F71
  8
2
 10
61.230907439658459
 20
50.029138838559071
 30
0.0
 11
61.230907439658409
 21
46.029138838559128
 31
0.0
  0
LINE
  5
1F72
  8
2
 10
60.418907439658568
 20
48.622713582813297
 30
0.0
 11
60.418907439658511
 21
45.217138838559229
 31
0.0
  0
LINE
  5
1F73
  8
2
 10
59.730907439658402
 20
44.529138838559128
 30
0.0
 11
56.730907439658473
 21
44.529138838559192
 31
0.0
  0
LINE
  5
1F74
  8
0
 10
48.280907439658691
 20
55.32913883855916
 30
0.0
 11
64.180907439658696
 21
55.329138838559217
 31
0.0
  0
LINE
  5
1F75
  8
2
 10
61.230907439658459
 20
50.029138838559071
 30
0.0
 11
56.730907439658523
 21
50.029138838559142
 31
0.0
  0
LINE
  5
1F76
  8
0
 10
53.230907439658353
 20
85.061189646127744
 30
0.0
 11
53.230907439659028
 21
81.59708803099052
 31
0.0
  0
LINE
  5
1F77
  8
0
 10
56.230907439658687
 20
86.793240453697024
 30
0.0
 11
53.230907439658353
 21
85.061189646127744
 31
0.0
  0
LINE
  5
1F78
  8
0
 10
59.230907439658687
 20
85.061189646128767
 30
0.0
 11
56.230907439658687
 21
86.793240453697024
 31
0.0
  0
LINE
  5
1F79
  8
0
 10
59.230907439658687
 20
81.59708803099052
 30
0.0
 11
59.230907439658687
 21
85.061189646128767
 31
0.0
  0
LINE
  5
1F7A
  8
0
 10
56.230907439659028
 20
79.865037223421567
 30
0.0
 11
59.230907439658687
 21
81.59708803099052
 31
0.0
  0
LINE
  5
1F7B
  8
0
 10
53.230907439659028
 20
81.59708803099052
 30
0.0
 11
56.230907439659028
 21
79.865037223421567
 31
0.0
  0
CIRCLE
  5
2020
  8
0
 10
56.230907439658687
 20
83.329138838559146
 30
0.0
 40
7.9500000000000002
  0
LINE
  5
2048
  8
2
 10
51.230907439658502
 20
50.029138838559071
 30
0.0
 11
48.549089257840492
 21
53.029138838559142
 31
0.0
  0
LINE
  5
2054
  8
0
 10
48.280907439658691
 20
53.32913883855916
 30
0.0
 11
48.549089257840492
 21
53.029138838559142
 31
0.0
  0
LINE
  5
2055
  8
2
 10
61.230907439658907
 20
50.029138838559071
 30
0.0
 11
63.912725621476902
 21
53.029138838559142
 31
0.0
  0
LINE
  5
2056
  8
0
 10
64.180907439658711
 20
53.32913883855916
 30
0.0
 11
63.912725621476902
 21
53.029138838559142
 31
0.0
  0
TEXT
  5
2151
  8
0
 62
     3
 10
0.0
 20
0.0
 30
0.0
 40
5.0
  1
PED-16
  7
STANDARD1
  0
ENDSEC
  0
EOF
