  0
SECTION
  2
HEADER
  9
$ACADVER
  1
AC1009
  9
$INSBASE
 10
0.0
 20
0.0
 30
0.0
  9
$EXTMIN
 10
0.0
 20
-1.4802182810368341
 30
0.0
  9
$EXTMAX
 10
44.0
 20
100.9999999999845
 30
0.0
  9
$LIMMIN
 10
0.0
 20
0.0
  9
$LIMMAX
 10
12.0
 20
9.0
  9
$ORTHOMODE
 70
     1
  9
$REGENMODE
 70
     1
  9
$FILLMODE
 70
     1
  9
$QTEXTMODE
 70
     0
  9
$MIRRTEXT
 70
     0
  9
$DRAGMODE
 70
     2
  9
$LTSCALE
 40
0.5
  9
$OSMODE
 70
    37
  9
$ATTMODE
 70
     1
  9
$TEXTSIZE
 40
0.2
  9
$TRACEWID
 40
0.05
  9
$TEXTSTYLE
  7
STANDARD
  9
$CLAYER
  8
0
  9
$CELTYPE
  6
BYLAYER
  9
$CECOLOR
 62
   256
  9
$DIMSCALE
 40
1.0
  9
$DIMASZ
 40
1.0
  9
$DIMEXO
 40
2.54
  9
$DIMDLI
 40
0.38
  9
$DIMRND
 40
0.0
  9
$DIMDLE
 40
0.0
  9
$DIMEXE
 40
2.54
  9
$DIMTP
 40
0.0
  9
$DIMTM
 40
0.0
  9
$DIMTXT
 40
3.2000000000000002
  9
$DIMCEN
 40
0.09
  9
$DIMTSZ
 40
0.0
  9
$DIMTOL
 70
     0
  9
$DIMLIM
 70
     0
  9
$DIMTIH
 70
     0
  9
$DIMTOH
 70
     0
  9
$DIMSE1
 70
     0
  9
$DIMSE2
 70
     0
  9
$DIMTAD
 70
     1
  9
$DIMZIN
 70
     8
  9
$DIMBLK
  1

  9
$DIMASO
 70
     1
  9
$DIMSHO
 70
     0
  9
$DIMPOST
  1

  9
$DIMAPOST
  1

  9
$DIMALT
 70
     0
  9
$DIMALTD
 70
     2
  9
$DIMALTF
 40
25.399999999999999
  9
$DIMLFAC
 40
1.0
  9
$DIMTOFL
 70
     0
  9
$DIMTVP
 40
1.0
  9
$DIMTIX
 70
     0
  9
$DIMSOXD
 70
     0
  9
$DIMSAH
 70
     0
  9
$DIMBLK1
  1

  9
$DIMBLK2
  1

  9
$DIMSTYLE
  2
STANDARD
  9
$DIMCLRD
 70
     0
  9
$DIMCLRE
 70
     0
  9
$DIMCLRT
 70
     0
  9
$DIMTFAC
 40
1.0
  9
$DIMGAP
 40
1.6000000000000001
  9
$LUNITS
 70
     2
  9
$LUPREC
 70
     1
  9
$SKETCHINC
 40
0.1
  9
$FILLETRAD
 40
0.5
  9
$AUNITS
 70
     0
  9
$AUPREC
 70
     1
  9
$MENU
  1
.
  9
$ELEVATION
 40
0.0
  9
$PELEVATION
 40
0.0
  9
$THICKNESS
 40
0.0
  9
$LIMCHECK
 70
     0
  9
$BLIPMODE
 70
     0
  9
$CHAMFERA
 40
0.2
  9
$CHAMFERB
 40
0.2
  9
$SKPOLY
 70
     0
  9
$TDCREATE
 40
2453173.4709223039
  9
$TDUPDATE
 40
2457711.4317228012
  9
$TDINDWG
 40
2.4094294444000002
  9
$TDUSRTIMER
 40
2456598.5125357411
  9
$USRTIMER
 70
     1
  9
$ANGBASE
 50
0.0
  9
$ANGDIR
 70
     0
  9
$PDMODE
 70
     0
  9
$PDSIZE
 40
0.0
  9
$PLINEWID
 40
0.0
  9
$COORDS
 70
     1
  9
$SPLFRAME
 70
     0
  9
$SPLINETYPE
 70
     6
  9
$SPLINESEGS
 70
     8
  9
$ATTDIA
 70
     0
  9
$ATTREQ
 70
     1
  9
$HANDLING
 70
     1
  9
$HANDSEED
  5
8805
  9
$SURFTAB1
 70
     6
  9
$SURFTAB2
 70
     6
  9
$SURFTYPE
 70
     6
  9
$SURFU
 70
     6
  9
$SURFV
 70
     6
  9
$UCSNAME
  2

  9
$UCSORG
 10
0.0
 20
0.0
 30
0.0
  9
$UCSXDIR
 10
1.0
 20
0.0
 30
0.0
  9
$UCSYDIR
 10
0.0
 20
1.0
 30
0.0
  9
$PUCSNAME
  2

  9
$PUCSORG
 10
0.0
 20
0.0
 30
0.0
  9
$PUCSXDIR
 10
1.0
 20
0.0
 30
0.0
  9
$PUCSYDIR
 10
0.0
 20
1.0
 30
0.0
  9
$USERI1
 70
     0
  9
$USERI2
 70
     0
  9
$USERI3
 70
     0
  9
$USERI4
 70
     0
  9
$USERI5
 70
     0
  9
$USERR1
 40
0.0
  9
$USERR2
 40
0.0
  9
$USERR3
 40
0.0
  9
$USERR4
 40
0.0
  9
$USERR5
 40
0.0
  9
$WORLDVIEW
 70
     1
  9
$SHADEDGE
 70
     3
  9
$SHADEDIF
 70
    70
  9
$TILEMODE
 70
     1
  9
$MAXACTVP
 70
    64
  9
$PLIMCHECK
 70
     0
  9
$PEXTMIN
 10
1.0000000000000000E+020
 20
1.0000000000000000E+020
 30
1.0000000000000000E+020
  9
$PEXTMAX
 10
-1.0000000000000000E+020
 20
-1.0000000000000000E+020
 30
-1.0000000000000000E+020
  9
$PLIMMIN
 10
0.0
 20
0.0
  9
$PLIMMAX
 10
12.0
 20
9.0
  9
$UNITMODE
 70
     0
  9
$VISRETAIN
 70
     1
  9
$PLINEGEN
 70
     0
  9
$PSLTSCALE
 70
     1
  0
ENDSEC
  0
SECTION
  2
TABLES
  0
TABLE
  2
VPORT
 70
     1
  0
VPORT
  2
*ACTIVE
 70
     0
 10
0.0
 20
0.0
 11
1.0
 21
1.0
 12
118.0616787678015
 22
65.0
 13
0.0
 23
0.0
 14
1.0
 24
1.0
 15
0.0
 25
0.0
 16
0.0
 26
0.0
 36
1.0
 17
0.0
 27
0.0
 37
0.0
 40
130.06742737249689
 41
1.816239316239316
 42
50.0
 43
0.0
 44
0.0
 50
0.0
 51
0.0
 71
     0
 72
   100
 73
     1
 74
     1
 75
     0
 76
     0
 77
     0
 78
     0
  0
ENDTAB
  0
TABLE
  2
LTYPE
 70
     4
  0
LTYPE
  2
CONTINUOUS
 70
     0
  3
Solid line
 72
    65
 73
     0
 40
0.0
  0
LTYPE
  2
CENTER
 70
     0
  3
Center ____ _ ____ _ ____ _ ____ _ ____ _ ____
 72
    65
 73
     4
 40
12.0
 49
7.5
 49
-1.5
 49
1.5
 49
-1.5
  0
LTYPE
  2
HIDDEN
 70
     0
  3
Hidden __ __ __ __ __ __ __ __ __ __ __ __ __ _
 72
    65
 73
     2
 40
4.5
 49
3.0
 49
-1.5
  0
LTYPE
  2
PHANTOM2
 70
     0
  3
___ _ _ ___ _ _ ___ _ _ ___ _ _
 72
    65
 73
     6
 40
1.25
 49
0.625
 49
-0.125
 49
0.125
 49
-0.125
 49
0.125
 49
-0.125
  0
ENDTAB
  0
TABLE
  2
LAYER
 70
     5
  0
LAYER
  2
0
 70
     0
 62
     7
  6
CONTINUOUS
  0
LAYER
  2
1
 70
     0
 62
     1
  6
CENTER
  0
LAYER
  2
2
 70
     0
 62
     2
  6
HIDDEN
  0
LAYER
  2
3
 70
     0
 62
     3
  6
CONTINUOUS
  0
LAYER
  2
DEFPOINTS
 70
     0
 62
     7
  6
CONTINUOUS
  0
ENDTAB
  0
TABLE
  2
STYLE
 70
     2
  0
STYLE
  2
STANDARD
 70
     0
 40
0.0
 41
1.0
 50
0.0
 71
     0
 42
0.2
  3
simplex.shx
  4
bigfont.shx
  0
STYLE
  2
STANDARD1
 70
     0
 40
0.0
 41
1.0
 50
0.0
 71
     0
 42
3.0
  3
txt
  4

  0
ENDTAB
  0
TABLE
  2
VIEW
 70
     0
  0
ENDTAB
  0
TABLE
  2
UCS
 70
     0
  0
ENDTAB
  0
TABLE
  2
APPID
 70
     7
  0
APPID
  2
ACAD
 70
     0
  0
APPID
  2
ACAD_EXEMPT_FROM_CAD_STANDARDS
 70
     0
  0
APPID
  2
ACAD_NAV_VCDISPLAY
 70
     0
  0
APPID
  2
ACAD_DSTYLE_DIMJAG
 70
     0
  0
APPID
  2
ACAD_DSTYLE_DIMTALN
 70
     0
  0
APPID
  2
ACAD_DSTYLE_DIMRADIAL_EXTENSION
 70
     0
  0
APPID
  2
ACAD_MLEADERVER
 70
     0
  0
ENDTAB
  0
TABLE
  2
DIMSTYLE
 70
     1
  0
DIMSTYLE
  2
STANDARD
 70
     0
  3

  4

  5

  6

  7

 40
1.0
 41
0.18
 42
0.0625
 43
0.38
 44
0.18
 45
0.0
 46
0.0
 47
0.0
 48
0.0
140
0.18
141
0.09
142
0.0
143
25.399999999999999
144
1.0
145
0.0
146
1.0
147
0.09
 71
     0
 72
     0
 73
     1
 74
     1
 75
     0
 76
     0
 77
     0
 78
     0
170
     0
171
     2
172
     0
173
     0
174
     0
175
     0
176
     0
177
     0
178
     0
  0
ENDTAB
  0
ENDSEC
  0
SECTION
  2
BLOCKS
  0
BLOCK
  8
0
  2
$MODEL_SPACE
 70
     0
 10
0.0
 20
0.0
 30
0.0
  3
$MODEL_SPACE
  1

  0
ENDBLK
  5
9
  8
0
  0
BLOCK
 67
     1
  8
0
  2
$PAPER_SPACE
 70
     0
 10
0.0
 20
0.0
 30
0.0
  3
$PAPER_SPACE
  1

  0
ENDBLK
  5
E
 67
     1
  8
0
  0
ENDSEC
  0
SECTION
  2
ENTITIES
  0
TEXT
  5
1450
  8
0
 62
     3
 10
0.0
 20
0.0
 30
0.0
 40
5.0
  1
PEPT12
  7
STANDARD1
  0
ARC
  5
6145
  8
0
 10
42.0
 20
53.793750000002433
 30
0.0
 40
0.7937500000000171
 50
127.68303599122309
 51
270.0
  0
ARC
  5
6146
  8
0
 10
30.0
 20
53.793750000002433
 30
0.0
 40
0.7937500000000171
 50
270.0
 51
52.316964008805968
  0
LINE
  5
6147
  8
0
 10
30.0
 20
44.640789755159688
 30
0.0
 11
29.999999999999972
 21
41.000000000002423
 31
0.0
  0
LINE
  5
6148
  8
0
 10
41.999999999999972
 20
41.000000000002423
 30
0.0
 11
42.0
 21
44.640789755159688
 31
0.0
  0
ARC
  5
614B
  8
0
 10
42.127000000000002
 20
45.000000000002437
 30
0.0
 40
0.3810000000000077
 50
109.47122063449289
 51
250.52877936550891
  0
ARC
  5
614C
  8
0
 10
29.873000000000019
 20
45.000000000002437
 30
0.0
 40
0.3809999999999983
 50
289.47122063448779
 51
70.528779365512193
  0
LINE
  5
614D
  8
0
 10
30.0
 20
53.000000000002423
 30
0.0
 11
30.0
 21
45.359210244845201
 31
0.0
  0
LINE
  5
614E
  8
0
 10
42.0
 20
45.359210244845201
 30
0.0
 11
42.0
 21
53.000000000002423
 31
0.0
  0
LINE
  5
6184
  8
0
 10
41.672052378713538
 20
54.516584296535989
 30
0.0
 11
41.999999999946681
 21
54.705924943931052
 31
0.0
  0
LINE
  5
6185
  8
0
 10
42.0
 20
54.705924943931052
 30
0.0
 11
42.0
 21
62.178896573456541
 31
0.0
  0
LINE
  5
6186
  8
0
 10
30.0
 20
62.178896573433491
 30
0.0
 11
30.0
 21
54.705924943931052
 31
0.0
  0
LINE
  5
6187
  8
0
 10
30.000000000038138
 20
54.705924943931052
 30
0.0
 11
30.327947621286508
 21
54.516584296535939
 31
0.0
  0
LINE
  5
6188
  8
0
 10
30.047768102225891
 20
67.652578926683191
 30
0.0
 11
30.00000000000048
 21
62.178896573433491
 31
0.0
  0
LINE
  5
6189
  8
0
 10
41.999999999999339
 20
62.178896573456541
 30
0.0
 11
41.952231897774112
 21
67.652578926683191
 31
0.0
  0
LINE
  5
618A
  8
0
 10
41.952231897708771
 20
67.652578926683191
 30
0.0
 11
41.350480947129192
 21
67.999999999984539
 31
0.0
  0
LINE
  5
618B
  8
0
 10
30.64951905287079
 20
67.999999999984539
 30
0.0
 11
30.047768102306492
 21
67.652578926683191
 31
0.0
  0
ARC
  5
618C
  8
0
 10
42.0
 20
53.793750000002433
 30
0.0
 40
0.7937500000165729
 50
114.4036445776583
 51
125.5963554175902
  0
ARC
  5
618D
  8
0
 10
30.0
 20
53.793750000002433
 30
0.0
 40
0.7937500000165589
 50
54.403644582408042
 51
65.59635542233805
  0
ARC
  5
618E
  8
0
 10
41.600480947161742
 20
54.330924943931052
 30
0.0
 40
0.1250000000000283
 50
120.0000000000377
 51
133.27939140907941
  0
ARC
  5
618F
  8
0
 10
30.39951905283834
 20
54.330924943931052
 30
0.0
 40
0.1249999999999885
 50
46.720608591119962
 51
59.999999999981291
  0
LINE
  5
6190
  8
0
 10
31.34089727946019
 20
53.79375000000087
 30
0.0
 11
31.33607679957759
 21
53.700000000002433
 31
0.0
  0
LINE
  5
6191
  8
0
 10
31.33607679957759
 20
53.700000000002433
 30
0.0
 11
31.653576799577589
 21
53.700000000002433
 31
0.0
  0
LINE
  5
6192
  8
0
 10
31.653576799577589
 20
53.700000000002433
 30
0.0
 11
31.658397279460189
 21
53.79375000000087
 31
0.0
  0
ARC
  5
6193
  8
0
 10
30.817724453798661
 20
53.80665041014359
 30
0.0
 40
0.8407718004236365
 50
359.12084579940381
 51
47.037522823513619
  0
LINE
  5
6196
  8
0
 10
35.68249999999999
 20
67.999999999984539
 30
0.0
 11
35.682500000000012
 21
53.700000000002433
 31
0.0
  0
LINE
  5
6197
  8
0
 10
35.682500000000012
 20
53.700000000002433
 30
0.0
 11
36.317500000000003
 21
53.700000000002461
 31
0.0
  0
LINE
  5
6199
  8
0
 10
36.317500000000003
 20
53.700000000002433
 30
0.0
 11
36.317499999999981
 21
67.999999999984539
 31
0.0
  0
ARC
  5
619C
  8
0
 10
41.182342761226941
 20
53.806621769362799
 30
0.0
 40
0.8408385686093776
 50
132.96449884007191
 51
180.8771325369851
  0
LINE
  5
619D
  8
0
 10
40.341602720539832
 20
53.79375000000087
 30
0.0
 11
40.346423200421299
 21
53.700000000002433
 31
0.0
  0
LINE
  5
619E
  8
0
 10
40.346423200421299
 20
53.700000000002433
 30
0.0
 11
40.66392320042246
 21
53.700000000002433
 31
0.0
  0
LINE
  5
619F
  8
0
 10
40.66392320042246
 20
53.700000000002433
 30
0.0
 11
40.659102720539828
 21
53.79375000000087
 31
0.0
  0
ARC
  5
61A0
  8
0
 10
41.499842761226937
 20
53.806621769362778
 30
0.0
 40
0.8408385686093781
 50
132.96449884006961
 51
180.87713253698351
  0
ARC
  5
61A3
  8
0
 10
30.500224453798609
 20
53.806650410143561
 30
0.0
 40
0.840771800423696
 50
359.12084579940472
 51
47.037522823512852
  0
LINE
  5
61A4
  8
0
 10
41.999999999999979
 20
53.000000000002423
 30
0.0
 11
30.0
 21
53.000000000002423
 31
0.0
  0
LINE
  5
61A6
  8
0
 10
42.0
 20
44.640789755159688
 30
0.0
 11
30.0
 21
44.640789755159688
 31
0.0
  0
LINE
  5
61A8
  8
0
 10
41.999999999999972
 20
41.000000000002423
 30
0.0
 11
29.999999999999972
 21
41.000000000002423
 31
0.0
  0
LINE
  5
61AC
  8
0
 10
30.0
 20
45.359210244845201
 30
0.0
 11
42.0
 21
45.359210244845201
 31
0.0
  0
LINE
  5
61AD
  8
0
 10
36.317500000000003
 20
54.705924943931052
 30
0.0
 11
41.030122258256142
 21
54.705924943931052
 31
0.0
  0
LINE
  5
61AE
  8
0
 10
36.317499999999967
 20
62.178896573456541
 30
0.0
 11
41.030122258255567
 21
62.178896573456541
 31
0.0
  0
LINE
  5
61AF
  8
0
 10
41.030122258256171
 20
54.705924943931052
 30
0.0
 11
41.030122258256171
 21
62.178896573429263
 31
0.0
  0
LINE
  5
61B1
  8
0
 10
40.745689718525277
 20
54.516584296535967
 30
0.0
 11
41.030122258232517
 21
54.705924943945583
 31
0.0
  0
LINE
  5
61B4
  8
0
 10
30.969877741743879
 20
54.705924943931052
 30
0.0
 11
35.682500000000012
 21
54.705924943931052
 31
0.0
  0
LINE
  5
61B7
  8
0
 10
30.969877741767501
 20
54.705924943945547
 30
0.0
 11
31.254310281474769
 21
54.516584296535939
 31
0.0
  0
LINE
  5
61B8
  8
0
 10
30.969877741743879
 20
62.178896573468421
 30
0.0
 11
30.969877741743879
 21
54.705924943931052
 31
0.0
  0
LINE
  5
61B9
  8
0
 10
35.682500000000012
 20
62.178896573433413
 30
0.0
 11
30.969877741743879
 21
62.178896573433413
 31
0.0
  0
LINE
  5
61BB
  8
0
 10
40.988695360192096
 20
67.652578926683191
 30
0.0
 11
36.317500000000003
 21
67.652578926683191
 31
0.0
  0
LINE
  5
61BC
  8
0
 10
41.030122258255773
 20
62.178896573429263
 30
0.0
 11
40.988695360191791
 21
67.652578926682054
 31
0.0
  0
LINE
  5
61BE
  8
0
 10
35.682500000000012
 20
67.652578926683191
 30
0.0
 11
31.011304639807911
 21
67.652578926683191
 31
0.0
  0
LINE
  5
61BF
  8
0
 10
31.01130463980823
 20
67.652578926682054
 30
0.0
 11
30.96987774174454
 21
62.178896573468421
 31
0.0
  0
LINE
  5
61C1
  8
0
 10
35.682500000001937
 20
67.999999999984539
 30
0.0
 11
30.649519052870801
 21
67.999999999984539
 31
0.0
  0
LINE
  5
61C2
  8
0
 10
31.53326298924156
 20
67.999999999969305
 30
0.0
 11
31.01130463981562
 21
67.652578926626347
 31
0.0
  0
LINE
  5
61C4
  8
0
 10
40.98869536018443
 20
67.652578926626347
 30
0.0
 11
40.466737010758493
 21
67.999999999969305
 31
0.0
  0
LINE
  5
61C5
  8
0
 10
41.350480947129228
 20
67.999999999984539
 30
0.0
 11
36.317499999998091
 21
67.999999999984539
 31
0.0
  0
LINE
  5
61E6
  8
0
 10
31.37060630532622
 20
54.439178119404119
 30
0.0
 11
31.254310281485768
 21
54.516584296494379
 31
0.0
  0
LINE
  5
61E9
  8
0
 10
40.745689718514448
 20
54.516584296493697
 30
0.0
 11
40.629393694673738
 21
54.439178119404062
 31
0.0
  0
LINE
  5
61EC
  8
0
 10
40.629393694673738
 20
54.439178119404062
 30
0.0
 11
40.609273377139338
 21
54.421927367811691
 31
0.0
  0
LINE
  5
61EE
  8
0
 10
31.390726622860679
 20
54.421927367812081
 30
0.0
 11
31.37060630532622
 21
54.439178119404119
 31
0.0
  0
LINE
  5
61F2
  8
0
 10
40.784237010758481
 20
67.999999999969305
 30
0.0
 11
41.306195360184432
 21
67.652578926626347
 31
0.0
  0
LINE
  5
61F3
  8
0
 10
41.347622258256173
 20
62.178896573428943
 30
0.0
 11
41.306195360192163
 21
67.652578926682054
 31
0.0
  0
LINE
  5
61F4
  8
0
 10
41.347622258256173
 20
54.705924943931052
 30
0.0
 11
41.347622258256173
 21
62.178896573428943
 31
0.0
  0
LINE
  5
61F5
  8
0
 10
41.347622258231041
 20
54.705924943945583
 30
0.0
 11
41.06318971852604
 21
54.516584296535967
 31
0.0
  0
LINE
  5
61F6
  8
0
 10
40.946893694673832
 20
54.439178119404119
 30
0.0
 11
41.06318971851433
 21
54.516584296494131
 31
0.0
  0
LINE
  5
61F7
  8
0
 10
40.926773377139362
 20
54.421927367811662
 30
0.0
 11
40.946893694673832
 21
54.439178119404119
 31
0.0
  0
LINE
  5
61F8
  8
0
 10
41.347622258256131
 20
54.705924943931052
 30
0.0
 11
41.999999999946681
 21
54.705924943931052
 31
0.0
  0
LINE
  5
61FA
  8
0
 10
30.0
 20
54.705924943931052
 30
0.0
 11
30.652377741743891
 21
54.705924943931052
 31
0.0
  0
LINE
  5
61FB
  8
0
 10
30.652377741743891
 20
62.178896573468649
 30
0.0
 11
30.652377741743891
 21
54.705924943931052
 31
0.0
  0
LINE
  5
61FC
  8
0
 10
30.69380463980783
 20
67.652578926682111
 30
0.0
 11
30.65237774174415
 21
62.178896573468649
 31
0.0
  0
LINE
  5
61FD
  8
0
 10
30.6938046398156
 20
67.652578926626347
 30
0.0
 11
31.21576298924154
 21
67.999999999969305
 31
0.0
  0
LINE
  5
61FF
  8
0
 10
31.053106305326249
 20
54.439178119404062
 30
0.0
 11
31.073226622860691
 21
54.421927367812117
 31
0.0
  0
LINE
  5
6200
  8
0
 10
30.93681028148557
 20
54.516584296493697
 30
0.0
 11
31.053106305326249
 21
54.439178119404062
 31
0.0
  0
LINE
  5
6201
  8
0
 10
30.93681028147401
 20
54.516584296535939
 30
0.0
 11
30.65237774176563
 21
54.705924943938953
 31
0.0
  0
LINE
  5
6203
  8
0
 10
30.693804639807919
 20
67.652578926683191
 30
0.0
 11
30.047768102225891
 21
67.652578926683191
 31
0.0
  0
LINE
  5
6204
  8
0
 10
41.952231897774112
 20
67.652578926683191
 30
0.0
 11
41.306195360192071
 21
67.652578926683191
 31
0.0
  0
LINE
  5
6209
  8
0
 10
36.317500000000003
 20
67.978956335815553
 30
0.0
 11
35.68249999999999
 21
67.978956335815553
 31
0.0
  0
LINE
  5
620A
  8
0
 10
35.682500000000012
 20
61.978956335845112
 30
0.0
 11
36.317500000000003
 21
61.978956335845112
 31
0.0
  0
LINE
  5
623E
  8
0
 10
41.347622258255541
 20
62.178896573456541
 30
0.0
 11
42.0
 21
62.178896573456541
 31
0.0
  0
LINE
  5
623F
  8
0
 10
30.652377741743891
 20
62.178896573433491
 30
0.0
 11
30.0
 21
62.178896573433491
 31
0.0
  0
LINE
  5
628A
  8
2
 10
32.498728576742451
 20
61.978956335845112
 30
0.0
 11
39.501271423257577
 21
61.978956335845112
 31
0.0
  0
ARC
  5
63BB
  8
2
 10
40.051300000000019
 20
67.470956335815515
 30
0.0
 40
0.5080000000038271
 50
348.99999999459038
 51
90.0
  0
ARC
  5
63BC
  8
2
 10
31.948699999999999
 20
67.470956335815515
 30
0.0
 40
0.5080000000038271
 50
90.0
 51
191.00000000541121
  0
LINE
  5
63BD
  8
2
 10
31.450033390816401
 20
67.374025366116427
 30
0.0
 11
32.498728576742451
 21
61.978956335845112
 31
0.0
  0
LINE
  5
63BE
  8
2
 10
39.501271423257577
 20
61.978956335845112
 30
0.0
 11
40.54996660918362
 21
67.374025366116427
 31
0.0
  0
CIRCLE
  5
64C7
  8
0
 10
36.0
 20
92.999999999984524
 30
0.0
 40
4.5593000000000092
  0
LINE
  5
64C9
  8
0
 10
41.030122258256078
 20
96.270759860780913
 30
0.0
 11
39.780134065315963
 21
95.549078841103011
 31
0.0
  0
LINE
  5
64CB
  8
0
 10
36.317500000000003
 20
97.548231550818343
 30
0.0
 11
36.317500000000003
 21
98.991593590174034
 31
0.0
  0
LINE
  5
64D2
  8
0
 10
30.969877741743861
 20
89.729240139188249
 30
0.0
 11
32.219865934684037
 21
90.450921158866066
 31
0.0
  0
LINE
  5
64D3
  8
0
 10
35.682500000000012
 20
88.451768449150734
 30
0.0
 11
35.682500000000012
 21
87.008406409795043
 31
0.0
  0
LINE
  5
64D6
  8
0
 10
41.347622258256123
 20
90.279166270591361
 30
0.0
 11
40.097634065315972
 21
91.000847290269206
 31
0.0
  0
LINE
  5
64D8
  8
0
 10
40.097634065315937
 20
94.999152709699914
 30
0.0
 11
41.347622258256102
 21
95.720833729377745
 31
0.0
  0
LINE
  5
64DC
  8
0
 10
36.317500000000003
 20
87.008406409795043
 30
0.0
 11
36.317500000000003
 21
88.451768449150734
 31
0.0
  0
LINE
  5
64DE
  8
0
 10
39.780134065316012
 20
90.450921158866123
 30
0.0
 11
41.0301222582561
 21
89.729240139188178
 31
0.0
  0
LINE
  5
64E6
  8
0
 10
30.652377741743859
 20
95.720833729377716
 30
0.0
 11
31.90236593468402
 21
94.999152709699871
 31
0.0
  0
LINE
  5
64E7
  8
0
 10
31.902365934684031
 20
91.000847290269164
 30
0.0
 11
30.652377741743852
 21
90.279166270591389
 31
0.0
  0
LINE
  5
64E9
  8
0
 10
35.682500000000012
 20
98.991593590174034
 30
0.0
 11
35.682500000000012
 21
97.548231550818343
 31
0.0
  0
LINE
  5
64EB
  8
0
 10
32.219865934684037
 20
95.549078841103011
 30
0.0
 11
30.969877741743879
 21
96.270759860780856
 31
0.0
  0
LINE
  5
6512
  8
0
 10
31.33607679957759
 20
90.673900105676296
 30
0.0
 11
31.653576799577589
 21
90.123973974273213
 31
0.0
  0
LINE
  5
6513
  8
0
 10
35.682500000000012
 20
87.79787407996497
 30
0.0
 11
36.0
 21
87.788194138506299
 31
0.0
  0
LINE
  5
6514
  8
0
 10
36.0
 20
87.788194138506299
 30
0.0
 11
36.317500000000003
 21
87.79787407996497
 31
0.0
  0
LINE
  5
6515
  8
0
 10
40.346423200421299
 20
90.123973974273895
 30
0.0
 11
40.66392320042246
 21
90.673900105676353
 31
0.0
  0
LINE
  5
6516
  8
0
 10
40.663923200422417
 20
95.326099894292781
 30
0.0
 11
40.346423200422443
 21
95.876026025695921
 31
0.0
  0
LINE
  5
6517
  8
0
 10
36.317500000000003
 20
98.202125920004107
 30
0.0
 11
36.0
 21
98.211805861462835
 31
0.0
  0
LINE
  5
6518
  8
0
 10
36.0
 20
98.211805861462835
 30
0.0
 11
35.682500000000012
 21
98.202125920004107
 31
0.0
  0
LINE
  5
6519
  8
0
 10
31.653576799577561
 20
95.876026025695865
 30
0.0
 11
31.336076799577569
 21
95.326099894292781
 31
0.0
  0
LINE
  5
6522
  8
0
 10
36.0
 20
90.113248654061465
 30
0.0
 11
33.500000000051301
 21
91.556624326961867
 31
0.0
  0
LINE
  5
6524
  8
0
 10
36.000000000065938
 20
90.113248654061465
 30
0.0
 11
38.499999999977291
 21
91.556624327016436
 31
0.0
  0
LINE
  5
6526
  8
0
 10
38.500000000008747
 20
91.556624327085373
 30
0.0
 11
38.499999999983487
 21
94.443375672941954
 31
0.0
  0
LINE
  5
6528
  8
0
 10
33.499999999991253
 20
94.443375672883747
 30
0.0
 11
33.500000000016463
 21
91.556624327022291
 31
0.0
  0
LINE
  5
652A
  8
0
 10
35.999999999930793
 20
95.886751345902837
 30
0.0
 11
33.500000000022681
 21
94.443375672952683
 31
0.0
  0
LINE
  5
652C
  8
0
 10
38.499999999939547
 20
94.443375673003644
 30
0.0
 11
36.000000000006231
 21
95.886751345910113
 31
0.0
  0
ARC
  5
6530
  8
2
 10
36.0
 20
92.999999999984524
 30
0.0
 40
3.0734000000194439
 50
167.4528740610647
 51
174.07043564330019
  0
ARC
  5
6533
  8
2
 10
36.0
 20
92.999999999984524
 30
0.0
 40
3.0734000000194421
 50
125.9295643567003
 51
132.54712593893561
  0
ARC
  5
6536
  8
2
 10
36.0
 20
92.999999999984524
 30
0.0
 40
3.0734000000194408
 50
347.4528740610665
 51
354.07043564330189
  0
ARC
  5
6538
  8
2
 10
36.0
 20
92.999999999984524
 30
0.0
 40
3.073400000019451
 50
305.92956435670033
 51
312.54712593893549
  0
ARC
  5
653C
  8
2
 10
36.0
 20
92.999999999984524
 30
0.0
 40
3.0734000000194399
 50
107.452874061066
 51
114.0704356433002
  0
ARC
  5
653F
  8
2
 10
36.0
 20
92.999999999984524
 30
0.0
 40
3.0734000000194399
 50
65.929564356699785
 51
72.547125938935366
  0
ARC
  5
6542
  8
2
 10
36.0
 20
92.999999999984524
 30
0.0
 40
3.073400000019451
 50
47.452874061066751
 51
54.070435643302147
  0
ARC
  5
6544
  8
2
 10
36.0
 20
92.999999999984524
 30
0.0
 40
3.0734000000194439
 50
5.9295643566997942
 51
12.54712593893524
  0
ARC
  5
6547
  8
2
 10
36.0
 20
92.999999999984524
 30
0.0
 40
3.0734000000194222
 50
287.45287406106598
 51
294.07043564330138
  0
ARC
  5
6549
  8
2
 10
36.0
 20
92.999999999984524
 30
0.0
 40
3.0734000000194222
 50
245.92956435669981
 51
252.54712593893399
  0
ARC
  5
654F
  8
2
 10
36.0
 20
92.999999999984524
 30
0.0
 40
3.0734000000194319
 50
227.45287406106681
 51
234.07043564330101
  0
ARC
  5
6551
  8
2
 10
36.0
 20
92.999999999984524
 30
0.0
 40
3.0734000000194439
 50
185.92956435669981
 51
192.54712593893521
  0
LINE
  5
6565
  8
2
 10
37.803441173984417
 20
95.488651741787294
 30
0.0
 11
37.253515042581277
 21
95.806151741787289
 31
0.0
  0
LINE
  5
6566
  8
2
 10
32.943043783434241
 20
93.317499999984534
 30
0.0
 11
32.943043783434241
 21
92.682499999984543
 31
0.0
  0
LINE
  5
6567
  8
2
 10
37.253515042581341
 20
90.193848258181845
 30
0.0
 11
37.803441173984417
 21
90.51134825818184
 31
0.0
  0
LINE
  5
6568
  8
2
 10
34.196558826015583
 20
90.51134825818184
 30
0.0
 11
34.746484957418659
 21
90.193848258181845
 31
0.0
  0
LINE
  5
6569
  8
2
 10
39.056956216565759
 20
92.682499999984543
 30
0.0
 11
39.056956216565759
 21
93.317499999984534
 31
0.0
  0
LINE
  5
656A
  8
2
 10
34.746484957418659
 20
95.806151741787289
 30
0.0
 11
34.196558826015519
 21
95.488651741787294
 31
0.0
  0
CIRCLE
  5
65AB
  8
0
 10
36.0
 20
92.999999999984524
 30
0.0
 40
6.0
  0
LINE
  5
65CE
  8
0
 10
40.0
 20
29.99999999999995
 30
0.0
 11
32.0
 21
30.00000000000006
 31
0.0
  0
LINE
  5
65CF
  8
0
 10
29.999999999999929
 20
41.000000000002437
 30
0.0
 11
30.0
 21
32.000000000000057
 31
0.0
  0
LINE
  5
65D0
  8
3
 10
30.9469999999999
 20
39.359747885234697
 30
0.0
 11
30.946999999999989
 21
31.05300000000009
 31
0.0
  0
LINE
  5
65D1
  8
3
 10
41.052999999999983
 20
39.359747885234697
 30
0.0
 11
41.05300000000004
 21
31.053000000000001
 31
0.0
  0
LINE
  5
65D2
  8
0
 10
41.999999999999943
 20
41.000000000002352
 30
0.0
 11
42.0
 21
31.99999999999994
 31
0.0
  0
LINE
  5
65D3
  8
0
 10
40.0
 20
29.99999999999995
 30
0.0
 11
42.0
 21
31.99999999999994
 31
0.0
  0
LINE
  5
65D4
  8
0
 10
32.0
 20
30.00000000000006
 30
0.0
 11
30.0
 21
32.000000000000057
 31
0.0
  0
LINE
  5
65D5
  8
0
 10
42.000000000000007
 20
31.999999999999972
 30
0.0
 11
29.999999999999979
 21
32.000000000000057
 31
0.0
  0
LINE
  5
65D6
  8
0
 10
29.999999999999929
 20
39.359747885234697
 30
0.0
 11
41.999999999999979
 21
39.359747885234697
 31
0.0
  0
LINE
  5
65D7
  8
3
 10
41.052999999999983
 20
39.359747885234697
 30
0.0
 11
41.999999999999972
 21
41.000000000002423
 31
0.0
  0
LINE
  5
65D8
  8
3
 10
30.946999999999932
 20
39.359747885234697
 30
0.0
 11
29.99999999999994
 21
41.000000000002423
 31
0.0
  0
LINE
  5
67C2
  8
2
 10
38.000000000000028
 20
31.978956335878109
 30
0.0
 11
34.000000000000028
 21
31.978956335878109
 31
0.0
  0
LINE
  5
67C3
  8
2
 10
33.000000000000057
 20
61.978956335845218
 30
0.0
 11
33.000000000000028
 21
32.978956335878109
 31
0.0
  0
LINE
  5
67C4
  8
2
 10
33.541499999999957
 20
61.041050823546747
 30
0.0
 11
33.541499999999957
 21
32.43745633587821
 31
0.0
  0
LINE
  5
67C5
  8
2
 10
38.458500000000129
 20
61.041050823546719
 30
0.0
 11
38.458500000000129
 21
32.437456335878181
 31
0.0
  0
LINE
  5
67C6
  8
2
 10
39.000000000000043
 20
61.978956335845112
 30
0.0
 11
39.000000000000028
 21
32.978956335878109
 31
0.0
  0
LINE
  5
67C7
  8
2
 10
39.000000000000028
 20
32.978956335878109
 30
0.0
 11
38.000000000000028
 21
31.978956335878109
 31
0.0
  0
LINE
  5
67C8
  8
2
 10
34.000000000000028
 20
31.978956335878109
 30
0.0
 11
33.000000000000028
 21
32.978956335878109
 31
0.0
  0
LINE
  5
67C9
  8
2
 10
33.000000000000028
 20
32.978956335878109
 30
0.0
 11
39.000000000000028
 21
32.978956335878081
 31
0.0
  0
LINE
  5
67CA
  8
2
 10
33.000000000000028
 20
61.041050823546747
 30
0.0
 11
39.000000000000021
 21
61.041050823546698
 31
0.0
  0
LINE
  5
67CB
  8
2
 10
38.458500000000129
 20
61.041050823546698
 30
0.0
 11
39.000000000000043
 21
61.978956335845083
 31
0.0
  0
LINE
  5
67CC
  8
2
 10
33.541500000000013
 20
61.041050823546719
 30
0.0
 11
33.000000000000057
 21
61.978956335845218
 31
0.0
  0
LINE
  5
6812
  8
2
 10
31.948699999999999
 20
67.978956335819333
 30
0.0
 11
40.051300000000019
 21
67.978956335819333
 31
0.0
  0
LINE
  5
6858
  8
0
 10
35.68249999999999
 20
61.041050823546719
 30
0.0
 11
36.317499999999981
 21
61.041050823546719
 31
0.0
  0
LINE
  5
6859
  8
2
 10
32.999999999980048
 20
91.267949192404274
 30
0.0
 11
32.999999999977611
 21
92.332326756543864
 31
0.0
  0
LINE
  5
685B
  8
2
 10
32.999999999981021
 20
93.667673243424517
 30
0.0
 11
32.999999999980218
 21
94.73205080756486
 31
0.0
  0
LINE
  5
685C
  8
2
 10
32.999999999980218
 20
94.73205080756486
 30
0.0
 11
33.921778009744322
 21
95.264239589634286
 31
0.0
  0
LINE
  5
685D
  8
2
 10
35.078221990236671
 20
95.931912833074307
 30
0.0
 11
36.0
 21
96.464101615145125
 31
0.0
  0
LINE
  5
685E
  8
2
 10
36.0
 20
96.464101615145125
 30
0.0
 11
36.921778009763273
 21
95.931912833074307
 31
0.0
  0
LINE
  5
685F
  8
2
 10
38.078221990255628
 20
95.264239589634343
 30
0.0
 11
39.000000000019782
 21
94.73205080756486
 31
0.0
  0
LINE
  5
68A5
  8
2
 10
39.000000000019782
 20
94.73205080756486
 30
0.0
 11
39.000000000018993
 21
93.667673243424517
 31
0.0
  0
LINE
  5
68A6
  8
2
 10
39.000000000018993
 20
92.33232675654466
 30
0.0
 11
39.000000000019782
 21
91.267949192404217
 31
0.0
  0
LINE
  5
68A7
  8
2
 10
38.078221990255692
 20
90.735760410334805
 30
0.0
 11
39.000000000019782
 21
91.267949192404217
 31
0.0
  0
LINE
  5
68A8
  8
2
 10
36.0
 20
89.535898384823952
 30
0.0
 11
36.921778009763358
 21
90.068087166894855
 31
0.0
  0
LINE
  5
68A9
  8
2
 10
36.0
 20
89.535898384823952
 30
0.0
 11
35.078221990236671
 21
90.068087166894827
 31
0.0
  0
LINE
  5
68AA
  8
2
 10
33.921778009744372
 20
90.735760410334763
 30
0.0
 11
32.999999999980048
 21
91.267949192404274
 31
0.0
  0
LINE
  5
68F0
  8
1
 10
36.0
 20
100.9999999999845
 30
0.0
 11
36.0
 21
84.999999999984539
 31
0.0
  0
LINE
  5
68F1
  8
1
 10
44.0
 20
92.999999999984524
 30
0.0
 11
28.0
 21
92.999999999984524
 31
0.0
  0
LINE
  5
693A
  8
1
 10
36.0
 20
69.978956335815553
 30
0.0
 11
36.0
 21
28.0
 31
0.0
  0
ENDSEC
  0
EOF
