  0
SECTION
  2
HEADER
  9
$ACADVER
  1
AC1009
  9
$INSBASE
 10
0.0
 20
0.0
 30
0.0
  9
$EXTMIN
 10
0.0
 20
-2.960436562073669
 30
0.0
  9
$EXTMAX
 10
242.23227522666531
 20
201.75922318926499
 30
0.0
  9
$LIMMIN
 10
0.0
 20
0.0
  9
$LIMMAX
 10
375.0
 20
270.0
  9
$ORTHOMODE
 70
     1
  9
$REGENMODE
 70
     1
  9
$FILLMODE
 70
     1
  9
$QTEXTMODE
 70
     0
  9
$MIRRTEXT
 70
     0
  9
$DRAGMODE
 70
     2
  9
$LTSCALE
 40
10.0
  9
$OSMODE
 70
   743
  9
$ATTMODE
 70
     1
  9
$TEXTSIZE
 40
0.2
  9
$TRACEWID
 40
0.05
  9
$TEXTSTYLE
  7
STANDARD
  9
$CLAYER
  8
0
  9
$CELTYPE
  6
BYLAYER
  9
$CECOLOR
 62
   256
  9
$DIMSCALE
 40
1.0
  9
$DIMASZ
 40
3.0
  9
$DIMEXO
 40
2.0
  9
$DIMDLI
 40
0.38
  9
$DIMRND
 40
0.0
  9
$DIMDLE
 40
0.0
  9
$DIMEXE
 40
2.0
  9
$DIMTP
 40
0.0
  9
$DIMTM
 40
0.0
  9
$DIMTXT
 40
3.2000000000000002
  9
$DIMCEN
 40
0.0
  9
$DIMTSZ
 40
0.0
  9
$DIMTOL
 70
     0
  9
$DIMLIM
 70
     0
  9
$DIMTIH
 70
     0
  9
$DIMTOH
 70
     0
  9
$DIMSE1
 70
     0
  9
$DIMSE2
 70
     0
  9
$DIMTAD
 70
     1
  9
$DIMZIN
 70
     0
  9
$DIMBLK
  1

  9
$DIMASO
 70
     1
  9
$DIMSHO
 70
     0
  9
$DIMPOST
  1

  9
$DIMAPOST
  1

  9
$DIMALT
 70
     0
  9
$DIMALTD
 70
     2
  9
$DIMALTF
 40
25.399999999999999
  9
$DIMLFAC
 40
1.0
  9
$DIMTOFL
 70
     1
  9
$DIMTVP
 40
1.6000000000000001
  9
$DIMTIX
 70
     1
  9
$DIMSOXD
 70
     0
  9
$DIMSAH
 70
     0
  9
$DIMBLK1
  1

  9
$DIMBLK2
  1

  9
$DIMSTYLE
  2
STANDARD
  9
$DIMCLRD
 70
     0
  9
$DIMCLRE
 70
     0
  9
$DIMCLRT
 70
     0
  9
$DIMTFAC
 40
1.0
  9
$DIMGAP
 40
0.09
  9
$LUNITS
 70
     2
  9
$LUPREC
 70
     4
  9
$SKETCHINC
 40
0.1
  9
$FILLETRAD
 40
0.0
  9
$AUNITS
 70
     0
  9
$AUPREC
 70
     4
  9
$MENU
  1
E:\r13\win\SUPPORT\ACAD
  9
$ELEVATION
 40
0.0
  9
$PELEVATION
 40
0.0
  9
$THICKNESS
 40
0.0
  9
$LIMCHECK
 70
     0
  9
$BLIPMODE
 70
     0
  9
$CHAMFERA
 40
0.0
  9
$CHAMFERB
 40
0.0
  9
$SKPOLY
 70
     0
  9
$TDCREATE
 40
2449839.7961226851
  9
$TDUPDATE
 40
2458131.7272855788
  9
$TDINDWG
 40
0.0429125694
  9
$TDUSRTIMER
 40
0.0429125694
  9
$USRTIMER
 70
     1
  9
$ANGBASE
 50
0.0
  9
$ANGDIR
 70
     0
  9
$PDMODE
 70
     0
  9
$PDSIZE
 40
0.0
  9
$PLINEWID
 40
0.0
  9
$COORDS
 70
     1
  9
$SPLFRAME
 70
     0
  9
$SPLINETYPE
 70
     6
  9
$SPLINESEGS
 70
     8
  9
$ATTDIA
 70
     0
  9
$ATTREQ
 70
     1
  9
$HANDLING
 70
     1
  9
$HANDSEED
  5
48B
  9
$SURFTAB1
 70
     6
  9
$SURFTAB2
 70
     6
  9
$SURFTYPE
 70
     6
  9
$SURFU
 70
     6
  9
$SURFV
 70
     6
  9
$UCSNAME
  2

  9
$UCSORG
 10
0.0
 20
0.0
 30
0.0
  9
$UCSXDIR
 10
1.0
 20
0.0
 30
0.0
  9
$UCSYDIR
 10
0.0
 20
1.0
 30
0.0
  9
$PUCSNAME
  2

  9
$PUCSORG
 10
0.0
 20
0.0
 30
0.0
  9
$PUCSXDIR
 10
1.0
 20
0.0
 30
0.0
  9
$PUCSYDIR
 10
0.0
 20
1.0
 30
0.0
  9
$USERI1
 70
     0
  9
$USERI2
 70
     1
  9
$USERI3
 70
     1
  9
$USERI4
 70
     0
  9
$USERI5
 70
     0
  9
$USERR1
 40
0.0
  9
$USERR2
 40
0.0
  9
$USERR3
 40
0.0
  9
$USERR4
 40
0.0
  9
$USERR5
 40
0.0
  9
$WORLDVIEW
 70
     1
  9
$SHADEDGE
 70
     3
  9
$SHADEDIF
 70
    70
  9
$TILEMODE
 70
     1
  9
$MAXACTVP
 70
    16
  9
$PLIMCHECK
 70
     0
  9
$PEXTMIN
 10
1.0000000000000000E+020
 20
1.0000000000000000E+020
 30
1.0000000000000000E+020
  9
$PEXTMAX
 10
-1.0000000000000000E+020
 20
-1.0000000000000000E+020
 30
-1.0000000000000000E+020
  9
$PLIMMIN
 10
0.0
 20
0.0
  9
$PLIMMAX
 10
12.0
 20
9.0
  9
$UNITMODE
 70
     0
  9
$VISRETAIN
 70
     0
  9
$PLINEGEN
 70
     0
  9
$PSLTSCALE
 70
     0
  0
ENDSEC
  0
SECTION
  2
TABLES
  0
TABLE
  2
VPORT
 70
     3
  0
VPORT
  2
*ACTIVE
 70
     0
 10
0.0
 20
0.0
 11
1.0
 21
1.0
 12
251.26009649116131
 22
133.51897435202409
 13
0.0
 23
0.0
 14
1.5
 24
1.5
 15
10.0
 25
10.0
 16
0.0
 26
0.0
 36
1.0
 17
0.0
 27
0.0
 37
0.0
 40
275.54528837446242
 41
2.5860979462875191
 42
50.0
 43
0.0
 44
0.0
 50
0.0
 51
0.0
 71
     0
 72
   500
 73
     1
 74
     0
 75
     0
 76
     0
 77
     0
 78
     2
  0
ENDTAB
  0
TABLE
  2
LTYPE
 70
     3
  0
LTYPE
  2
CONTINUOUS
 70
     0
  3
Solid Line
 72
    65
 73
     0
 40
0.0
  0
LTYPE
  2
CENTER
 70
     0
  3
____ _ ____ _ ____ _ ____ _ ____ _ ____ _ ____
 72
    65
 73
     4
 40
2.0
 49
1.25
 49
-0.25
 49
0.25
 49
-0.25
  0
LTYPE
  2
PHANTOM
 70
     0
  3
_____ _ _ _____ _ _ _____ _ _ _____ _ _ ____
 72
    65
 73
     6
 40
2.5
 49
1.25
 49
-0.25
 49
0.25
 49
-0.25
 49
0.25
 49
-0.25
  0
ENDTAB
  0
TABLE
  2
LAYER
 70
     4
  0
LAYER
  2
0
 70
     0
 62
     7
  6
CONTINUOUS
  0
LAYER
  2
1
 70
     0
 62
     1
  6
CENTER
  0
LAYER
  2
3
 70
     0
 62
     3
  6
CONTINUOUS
  0
LAYER
  2
5
 70
     0
 62
     3
  6
PHANTOM
  0
ENDTAB
  0
TABLE
  2
STYLE
 70
     2
  0
STYLE
  2
STANDARD
 70
     0
 40
0.0
 41
1.0
 50
0.0
 71
     0
 42
0.2
  3
TXT
  4
BIGFONT
  0
STYLE
  2
STANDARD1
 70
     0
 40
0.0
 41
1.0
 50
0.0
 71
     0
 42
3.0
  3
txt
  4

  0
ENDTAB
  0
TABLE
  2
VIEW
 70
     1
  0
VIEW
  2
ALL
 70
     0
 40
270.0
 10
220.99159663865549
 20
135.0
 41
0.0
 11
0.0
 21
0.0
 31
1.0
 12
0.0
 22
0.0
 32
0.0
 42
0.0
 43
0.0
 44
0.0
 50
0.0
 71
     0
  0
ENDTAB
  0
TABLE
  2
UCS
 70
     0
  0
ENDTAB
  0
TABLE
  2
APPID
 70
     2
  0
APPID
  2
ACAD
 70
     0
  0
APPID
  2
ACAD_MLEADERVER
 70
     0
  0
ENDTAB
  0
TABLE
  2
DIMSTYLE
 70
     2
  0
DIMSTYLE
  2
STANDARD
 70
     0
  3

  4

  5

  6

  7

 40
1.0
 41
0.18
 42
0.0625
 43
0.38
 44
0.18
 45
0.0
 46
0.0
 47
0.0
 48
0.0
140
0.18
141
0.09
142
0.0
143
25.399999999999999
144
1.0
145
0.0
146
1.0
147
0.09
 71
     0
 72
     0
 73
     1
 74
     1
 75
     0
 76
     0
 77
     0
 78
     0
170
     0
171
     2
172
     0
173
     0
174
     0
175
     0
176
     0
177
     0
178
     0
  0
DIMSTYLE
  2
ISO-25
 70
     0
  3

  4

  5

  6

  7

 40
1.0
 41
2.5
 42
0.625
 43
3.75
 44
1.25
 45
0.0
 46
0.0
 47
0.0
 48
0.0
140
2.5
141
2.5
142
0.0
143
0.03937007874016
144
1.0
145
0.0
146
1.0
147
0.625
 71
     0
 72
     0
 73
     0
 74
     0
 75
     0
 76
     0
 77
     1
 78
     8
170
     0
171
     3
172
     1
173
     0
174
     0
175
     0
176
     0
177
     0
178
     0
  0
ENDTAB
  0
ENDSEC
  0
SECTION
  2
BLOCKS
  0
BLOCK
  8
0
  2
$MODEL_SPACE
 70
     0
 10
0.0
 20
0.0
 30
0.0
  3
$MODEL_SPACE
  1

  0
ENDBLK
  5
18B
  8
0
  0
BLOCK
 67
     1
  8
0
  2
$PAPER_SPACE
 70
     0
 10
0.0
 20
0.0
 30
0.0
  3
$PAPER_SPACE
  1

  0
ENDBLK
  5
189
 67
     1
  8
0
  0
ENDSEC
  0
SECTION
  2
ENTITIES
  0
TEXT
  5
277
  8
0
 62
     3
 10
0.0
 20
0.0
 30
0.0
 40
10.0
  1
PFC17W5
  7
STANDARD1
  0
CIRCLE
  5
367
  8
0
 10
180.6745312190082
 20
171.95473621103119
 30
0.0
 40
8.5000001014742441
  0
ARC
  5
368
  8
0
 10
89.371928655341378
 20
123.5277502626116
 30
0.0
 40
0.65
 50
315.00000000000142
 51
45.0
  0
ARC
  5
369
  8
0
 10
90.658862997100812
 20
122.240815920852
 30
0.0
 40
0.65
 50
45.0
 51
135.00000000000111
  0
LINE
  5
36A
  8
0
 10
88.820385366022663
 20
122.05696815775021
 30
0.0
 11
89.831548063112734
 21
123.06813085484031
 31
0.0
  0
LINE
  5
36B
  8
0
 10
89.188080892239483
 20
121.6892726315331
 30
0.0
 11
90.199243589329626
 21
122.7004353286232
 31
0.0
  0
ARC
  5
36C
  8
0
 10
89.004233129131137
 20
121.8731203946417
 30
0.0
 40
0.2599999999999114
 50
135.0000000000241
 51
314.99999999996771
  0
LINE
  5
36D
  8
0
 10
92.497340628179188
 20
122.05696815775021
 30
0.0
 11
91.486177931089244
 21
123.06813085484011
 31
0.0
  0
LINE
  5
36E
  8
0
 10
92.129645101962183
 20
121.6892726315331
 30
0.0
 11
91.118482404872054
 21
122.7004353286233
 31
0.0
  0
ARC
  5
36F
  8
0
 10
91.945797338860345
 20
123.52775026261131
 30
0.0
 40
0.65
 50
135.00000000000111
 51
225.0
  0
ARC
  5
370
  8
0
 10
90.658862997101039
 20
124.814684604371
 30
0.0
 40
0.65
 50
225.0000000000035
 51
315.0000000000054
  0
LINE
  5
371
  8
0
 10
89.188080892239668
 20
125.3662278936897
 30
0.0
 11
90.199243589329797
 21
124.3550651965997
 31
0.0
  0
ARC
  5
372
  8
0
 10
92.313492865070543
 20
125.18238013058129
 30
0.0
 40
0.2599999999999114
 50
315.0000000000241
 51
134.99999999996771
  0
LINE
  5
373
  8
0
 10
92.129645101962183
 20
125.3662278936898
 30
0.0
 11
91.118482404872282
 21
124.3550651965997
 31
0.0
  0
LINE
  5
374
  8
0
 10
92.497340628179188
 20
124.99853236747281
 30
0.0
 11
91.48617793108906
 21
123.98736967038261
 31
0.0
  0
LINE
  5
375
  8
0
 10
88.820385366022506
 20
124.99853236747281
 30
0.0
 11
89.831548063112621
 21
123.9873696703829
 31
0.0
  0
ARC
  5
376
  8
0
 10
89.00423312913108
 20
125.18238013058109
 30
0.0
 40
0.2599999999999114
 50
45.000000000026198
 51
224.9999999999678
  0
ARC
  5
377
  8
0
 10
92.313492865070586
 20
121.8731203946417
 30
0.0
 40
0.2599999999999114
 50
225.00000000002649
 51
44.999999999967471
  0
LINE
  5
378
  8
0
  6
CONTINUOUS
 62
     7
 10
172.17453075707229
 20
117.9277583078551
 30
0.0
 11
173.629304116073
 21
117.9277583078551
 31
0.0
  0
LINE
  5
379
  8
0
  6
CONTINUOUS
 62
     7
 10
226.932274208916
 20
120.58837088356491
 30
0.0
 11
235.73227509255489
 21
120.58837088356491
 31
0.0
  0
LINE
  5
37A
  8
0
  6
CONTINUOUS
 62
     7
 10
235.73227509255489
 20
126.46714603128611
 30
0.0
 11
226.932274208916
 21
126.46714603128611
 31
0.0
  0
POLYLINE
  5
37C
  8
0
  6
CONTINUOUS
 62
     7
 66
     1
 10
0.0
 20
0.0
 30
0.0
 70
   128
  0
VERTEX
  5
443
  8
0
  6
CONTINUOUS
 62
     7
 10
242.22350030536731
 20
119.0375120432186
 30
0.0
  0
VERTEX
  5
444
  8
0
  6
CONTINUOUS
 62
     7
 10
242.2126261829861
 20
119.04960061023711
 30
0.0
  0
VERTEX
  5
445
  8
0
  6
CONTINUOUS
 62
     7
 10
242.13296271259861
 20
119.13836869011401
 30
0.0
  0
VERTEX
  5
446
  8
0
  6
CONTINUOUS
 62
     7
 10
241.9929923802145
 20
119.29521458755011
 30
0.0
  0
VERTEX
  5
447
  8
0
  6
CONTINUOUS
 62
     7
 10
241.79592266078069
 20
119.5181583107519
 30
0.0
  0
VERTEX
  5
448
  8
0
  6
CONTINUOUS
 62
     7
 10
241.55044651920869
 20
119.7999429942178
 30
0.0
  0
VERTEX
  5
449
  8
0
  6
CONTINUOUS
 62
     7
 10
241.1237256913908
 20
120.3038807080197
 30
0.0
  0
VERTEX
  5
44A
  8
0
  6
CONTINUOUS
 62
     7
 10
240.64063004548629
 20
120.9072836727905
 30
0.0
  0
VERTEX
  5
44B
  8
0
  6
CONTINUOUS
 62
     7
 10
240.15145286316951
 20
121.585697220366
 30
0.0
  0
VERTEX
  5
44C
  8
0
  6
CONTINUOUS
 62
     7
 10
239.91312741632541
 20
121.96620815033791
 30
0.0
  0
VERTEX
  5
44D
  8
0
  6
CONTINUOUS
 62
     7
 10
239.69912438983999
 20
122.3721860961127
 30
0.0
  0
VERTEX
  5
44E
  8
0
  6
CONTINUOUS
 62
     7
 10
239.54841777081569
 20
122.74384294236771
 30
0.0
  0
VERTEX
  5
44F
  8
0
  6
CONTINUOUS
 62
     7
 10
239.44499253625949
 20
123.1455000170576
 30
0.0
  0
VERTEX
  5
450
  8
0
  6
CONTINUOUS
 62
     7
 10
239.41172383124911
 20
123.5277581081795
 30
0.0
  0
SEQEND
  5
451
  8
0
  6
CONTINUOUS
 62
     7
  0
POLYLINE
  5
37D
  8
0
  6
CONTINUOUS
 62
     7
 66
     1
 10
0.0
 20
0.0
 30
0.0
 70
   128
  0
VERTEX
  5
452
  8
0
  6
CONTINUOUS
 62
     7
 10
239.41172383124911
 20
123.5277581081795
 30
0.0
  0
VERTEX
  5
453
  8
0
  6
CONTINUOUS
 62
     7
 10
239.4473357438572
 20
123.9233508759248
 30
0.0
  0
VERTEX
  5
454
  8
0
  6
CONTINUOUS
 62
     7
 10
239.55088950092869
 20
124.31894364367
 30
0.0
  0
VERTEX
  5
455
  8
0
  6
CONTINUOUS
 62
     7
 10
239.782228165818
 20
124.85148879299641
 30
0.0
  0
VERTEX
  5
456
  8
0
  6
CONTINUOUS
 62
     7
 10
240.07485716934281
 20
125.3526642040419
 30
0.0
  0
VERTEX
  5
457
  8
0
  6
CONTINUOUS
 62
     7
 10
240.6088142036923
 20
126.1067148816841
 30
0.0
  0
VERTEX
  5
458
  8
0
  6
CONTINUOUS
 62
     7
 10
241.15162439043601
 20
126.7852590472507
 30
0.0
  0
VERTEX
  5
459
  8
0
  6
CONTINUOUS
 62
     7
 10
241.51585533614241
 20
127.21544928448969
 30
0.0
  0
VERTEX
  5
45A
  8
0
  6
CONTINUOUS
 62
     7
 10
241.8341720789202
 20
127.58083961038611
 30
0.0
  0
VERTEX
  5
45B
  8
0
  6
CONTINUOUS
 62
     7
 10
242.02906064088421
 20
127.8008326708409
 30
0.0
  0
VERTEX
  5
45C
  8
0
  6
CONTINUOUS
 62
     7
 10
242.16620347793179
 20
127.9542304628598
 30
0.0
  0
VERTEX
  5
45D
  8
0
  6
CONTINUOUS
 62
     7
 10
242.228352495981
 20
128.0234010710451
 30
0.0
  0
VERTEX
  5
45E
  8
0
  6
CONTINUOUS
 62
     7
 10
242.22350030536731
 20
128.0180048716324
 30
0.0
  0
SEQEND
  5
45F
  8
0
  6
CONTINUOUS
 62
     7
  0
LINE
  5
37E
  8
0
  6
CONTINUOUS
 62
     7
 10
237.2322744071015
 20
139.4277581066894
 30
0.0
 11
242.23227522666531
 21
139.4277581066894
 31
0.0
  0
LINE
  5
37F
  8
0
  6
CONTINUOUS
 62
     7
 10
242.23227522666531
 20
129.42775833020681
 30
0.0
 11
237.2322744071015
 21
129.42775833020681
 31
0.0
  0
LINE
  5
380
  8
0
  6
CONTINUOUS
 62
     7
 10
241.7322723507412
 20
103.427757793765
 30
0.0
 11
237.2322744071015
 21
103.427757793765
 31
0.0
  0
LINE
  5
381
  8
0
  6
CONTINUOUS
 62
     7
 10
224.5519655137785
 20
129.42775833020681
 30
0.0
 11
224.3061382635959
 21
129.42775833020681
 31
0.0
  0
LINE
  5
383
  8
0
  6
CONTINUOUS
 62
     7
 10
235.73227509255489
 20
129.42775833020681
 30
0.0
 11
237.2322744071015
 21
129.42775833020681
 31
0.0
  0
LINE
  5
384
  8
0
  6
CONTINUOUS
 62
     7
 10
235.73227509255489
 20
129.42775833020681
 30
0.0
 11
235.73227509255489
 21
117.4741855875659
 31
0.0
  0
ARC
  5
385
  8
0
  6
CONTINUOUS
 62
     7
 10
236.4322745143898
 20
112.9277583302068
 30
0.0
 40
4.599999999999997
 50
98.752929076880406
 51
180.0
  0
LINE
  5
386
  8
0
  6
CONTINUOUS
 62
     7
 10
231.8322742670305
 20
112.9277584196138
 30
0.0
 11
231.8322742670305
 21
107.4277584494161
 31
0.0
  0
LINE
  5
387
  8
0
  6
CONTINUOUS
 62
     7
 10
231.8322742670305
 20
107.4277584494161
 30
0.0
 11
226.932274208916
 21
107.4277584494161
 31
0.0
  0
LINE
  5
388
  8
0
  6
CONTINUOUS
 62
     7
 10
226.932274208916
 20
107.4277584494161
 30
0.0
 11
226.932274208916
 21
139.4277581066894
 31
0.0
  0
LINE
  5
389
  8
0
  6
CONTINUOUS
 62
     7
 10
226.932274208916
 20
139.4277581066894
 30
0.0
 11
237.2322744071015
 21
139.4277581066894
 31
0.0
  0
LINE
  5
38A
  8
0
  6
CONTINUOUS
 62
     7
 10
242.23227522666531
 20
143.42775876234049
 30
0.0
 11
224.5519655137785
 21
143.42775876234049
 31
0.0
  0
LINE
  5
38B
  8
0
  6
CONTINUOUS
 62
     7
 10
224.5519655137785
 20
143.42775876234049
 30
0.0
 11
224.5519655137785
 21
129.42775833020681
 31
0.0
  0
LINE
  5
38E
  8
0
  6
CONTINUOUS
 62
     7
 10
224.3061382635959
 20
103.427757793765
 30
0.0
 11
224.3061382635959
 21
129.42775833020681
 31
0.0
  0
LINE
  5
38F
  8
0
  6
CONTINUOUS
 62
     7
 10
224.3061382635959
 20
129.42775833020681
 30
0.0
 11
208.93227405245381
 21
129.42775833020681
 31
0.0
  0
LINE
  5
390
  8
0
  6
CONTINUOUS
 62
     7
 10
208.93227405245381
 20
103.427757793765
 30
0.0
 11
242.23227522666531
 21
103.427757793765
 31
0.0
  0
LINE
  5
391
  8
0
  6
CONTINUOUS
 62
     7
 10
224.5519655137785
 20
141.9277585164713
 30
0.0
 11
209.43227413441019
 21
141.9277585164713
 31
0.0
  0
LINE
  5
392
  8
0
  6
CONTINUOUS
 62
     7
 10
242.23227522666531
 20
103.427757793765
 30
0.0
 11
242.23227522666531
 21
119.0375120432186
 31
0.0
  0
LINE
  5
393
  8
0
  6
CONTINUOUS
 62
     7
 10
242.23227522666531
 20
128.0180048716324
 30
0.0
 11
242.23227522666531
 21
143.42775876234049
 31
0.0
  0
LINE
  5
394
  8
0
  6
CONTINUOUS
 62
     7
 10
208.93227405245381
 20
129.42775833020681
 30
0.0
 11
208.93227405245381
 21
103.427757793765
 31
0.0
  0
ARC
  5
395
  8
0
  6
CONTINUOUS
 62
     7
 10
233.23227451439391
 20
123.52775833020679
 30
0.0
 40
8.0000000000000036
 50
339.89165529308542
 51
19.982006019078032
  0
LINE
  5
396
  8
0
  6
CONTINUOUS
 62
     7
 10
209.43227413441019
 20
141.9277585164713
 30
0.0
 11
209.43227413441019
 21
129.42775833020681
 31
0.0
  0
LINE
  5
397
  8
0
  6
CONTINUOUS
 62
     7
 10
99.159046014053672
 20
108.22775895307539
 30
0.0
 11
97.704272655052989
 21
108.22775895307539
 31
0.0
  0
LINE
  5
398
  8
0
  6
CONTINUOUS
 62
     7
 10
97.704272655052989
 20
117.9277583078551
 30
0.0
 11
99.159046014053672
 21
117.9277583078551
 31
0.0
  0
LINE
  5
399
  8
0
  6
CONTINUOUS
 62
     7
 10
99.159046014053672
 20
129.42775833020681
 30
0.0
 11
95.659045440358966
 21
129.42775833020681
 31
0.0
  0
LINE
  5
39A
  8
0
  6
CONTINUOUS
 62
     7
 10
85.659045663876384
 20
129.42775833020681
 30
0.0
 11
82.159045090181678
 21
129.42775833020681
 31
0.0
  0
CIRCLE
  5
39B
  8
0
  6
CONTINUOUS
 62
     7
 10
90.658862997100812
 20
123.52775026261141
 30
0.0
 40
4.4998172512748811
  0
LINE
  5
39C
  8
0
  6
CONTINUOUS
 62
     7
 10
95.659045440358966
 20
129.42775833020681
 30
0.0
 11
92.159045565156191
 21
129.42775833020681
 31
0.0
  0
LINE
  5
39D
  8
0
  6
CONTINUOUS
 62
     7
 10
92.159045565156191
 20
129.42775833020681
 30
0.0
 11
92.159045565156191
 21
139.4277581066894
 31
0.0
  0
LINE
  5
39E
  8
0
  6
CONTINUOUS
 62
     7
 10
92.159045565156191
 20
139.4277581066894
 30
0.0
 11
95.659045440358966
 21
139.4277581066894
 31
0.0
  0
LINE
  5
39F
  8
0
  6
CONTINUOUS
 62
     7
 10
95.659045440358966
 20
143.42775876234049
 30
0.0
 11
95.659045440358966
 21
103.427757793765
 31
0.0
  0
LINE
  5
3A0
  8
0
  6
CONTINUOUS
 62
     7
 10
95.659045440358966
 20
143.42775876234049
 30
0.0
 11
85.659045663876384
 21
143.42775876234049
 31
0.0
  0
LINE
  5
3A1
  8
0
  6
CONTINUOUS
 62
     7
 10
85.659045663876384
 20
103.427757793765
 30
0.0
 11
85.659045663876384
 21
143.42775876234049
 31
0.0
  0
LINE
  5
3A2
  8
0
  6
CONTINUOUS
 62
     7
 10
85.659045663876384
 20
139.4277581066894
 30
0.0
 11
89.159045539079159
 21
139.4277581066894
 31
0.0
  0
LINE
  5
3A3
  8
0
  6
CONTINUOUS
 62
     7
 10
89.159045539079159
 20
139.4277581066894
 30
0.0
 11
89.159045539079159
 21
129.42775833020681
 31
0.0
  0
LINE
  5
3A4
  8
0
  6
CONTINUOUS
 62
     7
 10
89.159045539079159
 20
129.42775833020681
 30
0.0
 11
85.659045663876384
 21
129.42775833020681
 31
0.0
  0
LINE
  5
3A5
  8
0
  6
CONTINUOUS
 62
     7
 10
99.159046014053672
 20
103.427757793765
 30
0.0
 11
82.159045090181678
 21
103.427757793765
 31
0.0
  0
POLYLINE
  5
3A6
  8
0
  6
CONTINUOUS
 62
     7
 66
     1
 10
0.0
 20
0.0
 30
0.0
 70
   128
  0
VERTEX
  5
460
  8
0
  6
CONTINUOUS
 62
     7
 10
103.3590453986357
 20
117.4277582258987
 30
0.0
  0
VERTEX
  5
461
  8
0
  6
CONTINUOUS
 62
     7
 10
103.35185465703709
 20
117.4283337832498
 30
0.0
  0
VERTEX
  5
462
  8
0
  6
CONTINUOUS
 62
     7
 10
103.2943939168285
 20
117.4329307914781
 30
0.0
  0
VERTEX
  5
463
  8
0
  6
CONTINUOUS
 62
     7
 10
103.1798403088282
 20
117.4420950056124
 30
0.0
  0
VERTEX
  5
464
  8
0
  6
CONTINUOUS
 62
     7
 10
103.00892585257991
 20
117.4557677523303
 30
0.0
  0
VERTEX
  5
465
  8
0
  6
CONTINUOUS
 62
     7
 10
102.78274112681849
 20
117.47386241863251
 30
0.0
  0
VERTEX
  5
466
  8
0
  6
CONTINUOUS
 62
     7
 10
102.5027334068249
 20
117.4962635205197
 30
0.0
  0
SEQEND
  5
467
  8
0
  6
CONTINUOUS
 62
     7
  0
LINE
  5
3A7
  8
0
  6
CONTINUOUS
 62
     7
 10
102.5027334068249
 20
117.4962635205197
 30
0.0
 11
98.359045510394424
 21
117.8277584777283
 31
0.0
  0
LINE
  5
3A8
  8
0
  6
CONTINUOUS
 62
     7
 10
97.704272655052989
 20
117.82775847772839
 30
0.0
 11
98.359045510394424
 21
117.8277584777283
 31
0.0
  0
LINE
  5
3A9
  8
0
  6
CONTINUOUS
 62
     7
 10
97.704272655052989
 20
108.3277587832021
 30
0.0
 11
100.1939342658932
 21
108.3277587832021
 31
0.0
  0
CIRCLE
  5
3AA
  8
0
  6
CONTINUOUS
 62
     7
 10
90.659045552117675
 20
123.52775833020689
 30
0.0
 40
4.0
  0
LINE
  5
3AB
  8
0
  6
CONTINUOUS
 62
     7
 10
85.659045663876384
 20
141.92775851647141
 30
0.0
 11
82.659045172138065
 21
141.92775851647141
 31
0.0
  0
LINE
  5
3AC
  8
0
  6
CONTINUOUS
 62
     7
 10
98.659045932097285
 20
141.92775851647141
 30
0.0
 11
95.659045440358966
 21
141.92775851647141
 31
0.0
  0
LINE
  5
3AD
  8
0
  6
CONTINUOUS
 62
     7
 10
97.704272655052989
 20
108.22775895307539
 30
0.0
 11
97.704272655052989
 21
117.9277583078551
 31
0.0
  0
LINE
  5
3AE
  8
0
  6
CONTINUOUS
 62
     7
 10
82.159045090181678
 20
129.42775833020681
 30
0.0
 11
82.159045090181678
 21
103.427757793765
 31
0.0
  0
LINE
  5
3AF
  8
0
  6
CONTINUOUS
 62
     7
 10
99.159046014053672
 20
103.427757793765
 30
0.0
 11
99.159046014053672
 21
108.22775895307539
 31
0.0
  0
LINE
  5
3B0
  8
0
  6
CONTINUOUS
 62
     7
 10
99.159046014053672
 20
117.9277583078551
 30
0.0
 11
99.159046014053672
 21
129.42775833020681
 31
0.0
  0
LINE
  5
3B1
  8
0
  6
CONTINUOUS
 62
     7
 10
103.3590453986357
 20
115.9128223599005
 30
0.0
 11
103.3590453986357
 21
117.4277582258987
 31
0.0
  0
ARC
  5
3B2
  8
0
  6
CONTINUOUS
 62
     7
 10
79.019045551979559
 20
121.6177583302638
 30
0.0
 40
25.000000000150489
 50
327.88637697157338
 51
346.80664070741091
  0
LINE
  5
3B3
  8
0
  6
CONTINUOUS
 62
     7
 10
98.659045932097285
 20
129.42775833020681
 30
0.0
 11
98.659045932097285
 21
141.92775851647141
 31
0.0
  0
LINE
  5
3B4
  8
0
  6
CONTINUOUS
 62
     7
 10
82.659045172138065
 20
141.92775851647141
 30
0.0
 11
82.659045172138065
 21
129.42775833020681
 31
0.0
  0
LINE
  5
3B5
  8
0
  6
CONTINUOUS
 62
     7
 10
125.6167873454618
 20
120.58837088356491
 30
0.0
 11
134.41678822910069
 21
120.58837088356491
 31
0.0
  0
LINE
  5
3B6
  8
0
  6
CONTINUOUS
 62
     7
 10
134.41678822910069
 20
126.46714603128611
 30
0.0
 11
125.6167873454618
 21
126.46714603128611
 31
0.0
  0
POLYLINE
  5
3B8
  8
0
  6
CONTINUOUS
 62
     7
 66
     1
 10
0.0
 20
0.0
 30
0.0
 70
   128
  0
VERTEX
  5
468
  8
0
  6
CONTINUOUS
 62
     7
 10
119.12556213264941
 20
128.0180048716324
 30
0.0
  0
VERTEX
  5
469
  8
0
  6
CONTINUOUS
 62
     7
 10
119.1364362550306
 20
128.00591595536801
 30
0.0
  0
VERTEX
  5
46A
  8
0
  6
CONTINUOUS
 62
     7
 10
119.216099725418
 20
127.9171477590757
 30
0.0
  0
VERTEX
  5
46B
  8
0
  6
CONTINUOUS
 62
     7
 10
119.3560700578021
 20
127.7603019780549
 30
0.0
  0
VERTEX
  5
46C
  8
0
  6
CONTINUOUS
 62
     7
 10
119.5531397772359
 20
127.5373580220225
 30
0.0
  0
VERTEX
  5
46D
  8
0
  6
CONTINUOUS
 62
     7
 10
119.7986159188079
 20
127.25557322214119
 30
0.0
  0
VERTEX
  5
46E
  8
0
  6
CONTINUOUS
 62
     7
 10
120.2253367466258
 20
126.75163597400071
 30
0.0
  0
VERTEX
  5
46F
  8
0
  6
CONTINUOUS
 62
     7
 10
120.7084323925304
 20
126.1482330092299
 30
0.0
  0
VERTEX
  5
470
  8
0
  6
CONTINUOUS
 62
     7
 10
121.19760957484721
 20
125.4698194616544
 30
0.0
  0
VERTEX
  5
471
  8
0
  6
CONTINUOUS
 62
     7
 10
121.43593502169129
 20
125.08930853168251
 30
0.0
  0
VERTEX
  5
472
  8
0
  6
CONTINUOUS
 62
     7
 10
121.64993804817669
 20
124.6833305859077
 30
0.0
  0
VERTEX
  5
473
  8
0
  6
CONTINUOUS
 62
     7
 10
121.800644667201
 20
124.3116737396526
 30
0.0
  0
VERTEX
  5
474
  8
0
  6
CONTINUOUS
 62
     7
 10
121.9040699017572
 20
123.9100161993015
 30
0.0
  0
VERTEX
  5
475
  8
0
  6
CONTINUOUS
 62
     7
 10
121.9373386067676
 20
123.5277581081795
 30
0.0
  0
VERTEX
  5
476
  8
0
  6
CONTINUOUS
 62
     7
 10
121.90172669415951
 20
123.1321658060956
 30
0.0
  0
VERTEX
  5
477
  8
0
  6
CONTINUOUS
 62
     7
 10
121.798172937088
 20
122.7365730383503
 30
0.0
  0
VERTEX
  5
478
  8
0
  6
CONTINUOUS
 62
     7
 10
121.56683427219861
 20
122.204027889024
 30
0.0
  0
VERTEX
  5
479
  8
0
  6
CONTINUOUS
 62
     7
 10
121.2742052686738
 20
121.7028524779784
 30
0.0
  0
VERTEX
  5
47A
  8
0
  6
CONTINUOUS
 62
     7
 10
120.7402482343244
 20
120.9488020331669
 30
0.0
  0
VERTEX
  5
47B
  8
0
  6
CONTINUOUS
 62
     7
 10
120.1974380475807
 20
120.27025810043089
 30
0.0
  0
VERTEX
  5
47C
  8
0
  6
CONTINUOUS
 62
     7
 10
119.83320710187429
 20
119.8400671647
 30
0.0
  0
VERTEX
  5
47D
  8
0
  6
CONTINUOUS
 62
     7
 10
119.5148903590965
 20
119.4746767223882
 30
0.0
  0
VERTEX
  5
47E
  8
0
  6
CONTINUOUS
 62
     7
 10
119.32000179713241
 20
119.2546843604255
 30
0.0
  0
VERTEX
  5
47F
  8
0
  6
CONTINUOUS
 62
     7
 10
119.1828589600849
 20
119.1012862191605
 30
0.0
  0
VERTEX
  5
480
  8
0
  6
CONTINUOUS
 62
     7
 10
119.1207099420356
 20
119.0321159602213
 30
0.0
  0
VERTEX
  5
481
  8
0
  6
CONTINUOUS
 62
     7
 10
119.12556213264941
 20
119.0375120432186
 30
0.0
  0
SEQEND
  5
482
  8
0
  6
CONTINUOUS
 62
     7
  0
LINE
  5
3B9
  8
0
  6
CONTINUOUS
 62
     7
 10
124.1167880309152
 20
129.42775833020681
 30
0.0
 11
119.34709210818291
 21
129.42775833020681
 31
0.0
  0
LINE
  5
3BA
  8
0
  6
CONTINUOUS
 62
     7
 10
119.34709210818291
 20
139.4277581066894
 30
0.0
 11
124.1167880309152
 21
139.4277581066894
 31
0.0
  0
LINE
  5
3BB
  8
0
  6
CONTINUOUS
 62
     7
 10
152.41678838556291
 20
103.427757793765
 30
0.0
 11
119.11678721135129
 21
103.427757793765
 31
0.0
  0
LINE
  5
3BC
  8
0
  6
CONTINUOUS
 62
     7
 10
137.04292417442079
 20
129.42775833020681
 30
0.0
 11
136.79709692423819
 21
129.42775833020681
 31
0.0
  0
LINE
  5
3BD
  8
0
  6
CONTINUOUS
 62
     7
 10
136.79709692423819
 20
129.42775833020681
 30
0.0
 11
136.79709692423819
 21
143.42775876234049
 31
0.0
  0
LINE
  5
3BE
  8
0
  6
CONTINUOUS
 62
     7
 10
136.79709692423819
 20
143.42775876234049
 30
0.0
 11
119.11678721135129
 21
143.42775876234049
 31
0.0
  0
LINE
  5
3BF
  8
0
  6
CONTINUOUS
 62
     7
 10
124.1167880309152
 20
139.4277581066894
 30
0.0
 11
134.41678822910069
 21
139.4277581066894
 31
0.0
  0
LINE
  5
3C0
  8
0
  6
CONTINUOUS
 62
     7
 10
134.41678822910069
 20
139.4277581066894
 30
0.0
 11
134.41678822910069
 21
107.4277584494161
 31
0.0
  0
LINE
  5
3C1
  8
0
  6
CONTINUOUS
 62
     7
 10
134.41678822910069
 20
107.4277584494161
 30
0.0
 11
129.5167881709861
 21
107.4277584494161
 31
0.0
  0
LINE
  5
3C2
  8
0
  6
CONTINUOUS
 62
     7
 10
129.5167881709861
 20
107.4277584494161
 30
0.0
 11
129.5167881709861
 21
112.9277584196138
 31
0.0
  0
ARC
  5
3C3
  8
0
  6
CONTINUOUS
 62
     7
 10
124.9167879236269
 20
112.9277583302068
 30
0.0
 40
4.6000000000011179
 50
0.0
 51
81.247070923119594
  0
LINE
  5
3C4
  8
0
  6
CONTINUOUS
 62
     7
 10
125.6167873454618
 20
117.4741855875659
 30
0.0
 11
125.6167873454618
 21
129.42775833020681
 31
0.0
  0
LINE
  5
3C5
  8
0
  6
CONTINUOUS
 62
     7
 10
125.6167873454618
 20
129.42775833020681
 30
0.0
 11
124.1167880309152
 21
129.42775833020681
 31
0.0
  0
LINE
  5
3C9
  8
0
  6
CONTINUOUS
 62
     7
 10
139.81678790351029
 20
108.22775895307539
 30
0.0
 11
139.81678790351029
 21
117.9277583078551
 31
0.0
  0
LINE
  5
3CA
  8
0
  6
CONTINUOUS
 62
     7
 10
148.0167879437434
 20
117.9277583078551
 30
0.0
 11
148.0167879437434
 21
108.22775895307539
 31
0.0
  0
LINE
  5
3CB
  8
0
  6
CONTINUOUS
 62
     7
 10
137.04292417442079
 20
129.42775833020681
 30
0.0
 11
137.04292417442079
 21
103.427757793765
 31
0.0
  0
LINE
  5
3CC
  8
0
  6
CONTINUOUS
 62
     7
 10
152.41678838556291
 20
129.42775833020681
 30
0.0
 11
137.04292417442079
 21
129.42775833020681
 31
0.0
  0
LINE
  5
3CD
  8
0
  6
CONTINUOUS
 62
     7
 10
148.0167879437434
 20
108.22775895307539
 30
0.0
 11
139.81678790351029
 21
108.22775895307539
 31
0.0
  0
LINE
  5
3CE
  8
0
  6
CONTINUOUS
 62
     7
 10
139.81678790351029
 20
117.9277583078551
 30
0.0
 11
148.0167879437434
 21
117.9277583078551
 31
0.0
  0
LINE
  5
3CF
  8
0
  6
CONTINUOUS
 62
     7
 10
151.91678830360649
 20
141.92775851647141
 30
0.0
 11
136.79709692423819
 21
141.92775851647141
 31
0.0
  0
LINE
  5
3D0
  8
0
  6
CONTINUOUS
 62
     7
 10
119.11678721135129
 20
143.42775876234049
 30
0.0
 11
119.11678721135129
 21
128.0180048716324
 31
0.0
  0
LINE
  5
3D1
  8
0
  6
CONTINUOUS
 62
     7
 10
119.11678721135129
 20
119.0375120432186
 30
0.0
 11
119.11678721135129
 21
103.427757793765
 31
0.0
  0
LINE
  5
3D2
  8
0
  6
CONTINUOUS
 62
     7
 10
152.41678838556291
 20
103.427757793765
 30
0.0
 11
152.41678838556291
 21
129.42775833020681
 31
0.0
  0
ARC
  5
3D3
  8
0
  6
CONTINUOUS
 62
     7
 10
128.11678792362289
 20
123.52775833020679
 30
0.0
 40
8.0
 50
159.99231249441149
 51
200.0997618003714
  0
LINE
  5
3D4
  8
0
  6
CONTINUOUS
 62
     7
 10
151.91678830360649
 20
129.42775833020681
 30
0.0
 11
151.91678830360649
 21
141.92775851647141
 31
0.0
  0
LINE
  5
3D5
  8
0
  6
CONTINUOUS
 62
     7
 10
185.67453110724949
 20
179.07442721041991
 30
0.0
 11
185.67453110724949
 21
178.8285999602372
 31
0.0
  0
LINE
  5
3D6
  8
0
  6
CONTINUOUS
 62
     7
 10
175.674531330767
 20
178.8285999602372
 30
0.0
 11
175.674531330767
 21
179.07442721041991
 31
0.0
  0
ARC
  5
3D7
  8
0
  6
CONTINUOUS
 62
     7
 10
180.6745312190082
 20
191.7547362110312
 30
0.0
 40
5.0
 50
0.0
 51
180.0
  0
LINE
  5
3D8
  8
0
  6
CONTINUOUS
 62
     7
 10
175.674531330767
 20
179.07442721041991
 30
0.0
 11
175.674531330767
 21
191.7547361037428
 31
0.0
  0
LINE
  5
3D9
  8
0
  6
CONTINUOUS
 62
     7
 10
185.67453110724949
 20
191.7547361037428
 30
0.0
 11
185.67453110724949
 21
179.07442721041991
 31
0.0
  0
LINE
  5
3DA
  8
0
  6
CONTINUOUS
 62
     7
 10
168.91227356497109
 20
175.95473640102099
 30
0.0
 11
173.17453138664629
 21
175.95473640102099
 31
0.0
  0
ARC
  5
3DB
  8
0
  6
CONTINUOUS
 62
     7
 10
176.9745312190083
 20
171.95473621103119
 30
0.0
 40
9.0000000000000373
 50
153.61219868856199
 51
206.38780131143761
  0
LINE
  5
3DC
  8
0
  6
CONTINUOUS
 62
     7
 10
168.91227356497109
 20
167.95473602104141
 30
0.0
 11
173.17453138664629
 21
167.95473602104141
 31
0.0
  0
CIRCLE
  5
3DD
  8
0
  6
CONTINUOUS
 62
     7
 10
180.6745312190082
 20
171.95473621103119
 30
0.0
 40
2.5
  0
ARC
  5
3DE
  8
0
  6
CONTINUOUS
 62
     7
 10
180.6745312190082
 20
171.95473621103119
 30
0.0
 40
5.0000000000001519
 50
17.457603123721089
 51
162.5423968762785
  0
LINE
  5
3DF
  8
0
  6
CONTINUOUS
 62
     7
 10
185.44422714174061
 20
173.45473622406971
 30
0.0
 11
187.924531010392
 21
173.45473622406971
 31
0.0
  0
LINE
  5
3E0
  8
0
  6
CONTINUOUS
 62
     7
 10
187.924531010392
 20
173.45473622406971
 30
0.0
 11
187.924531010392
 21
170.4547361979927
 31
0.0
  0
LINE
  5
3E1
  8
0
  6
CONTINUOUS
 62
     7
 10
187.924531010392
 20
170.4547361979927
 30
0.0
 11
185.44422714174061
 21
170.4547361979927
 31
0.0
  0
ARC
  5
3E2
  8
0
  6
CONTINUOUS
 62
     7
 10
180.6745312190082
 20
171.95473621103119
 30
0.0
 40
5.0000000000000986
 50
197.45760312372181
 51
342.54239687627961
  0
LINE
  5
3E3
  8
0
  6
CONTINUOUS
 62
     7
 10
175.90483529627591
 20
170.4547361979927
 30
0.0
 11
173.42453142762449
 21
170.4547361979927
 31
0.0
  0
LINE
  5
3E4
  8
0
  6
CONTINUOUS
 62
     7
 10
173.42453142762449
 20
170.4547361979927
 30
0.0
 11
173.42453142762449
 21
173.45473622406971
 31
0.0
  0
LINE
  5
3E5
  8
0
  6
CONTINUOUS
 62
     7
 10
173.42453142762449
 20
173.45473622406971
 30
0.0
 11
175.90483529627591
 21
173.45473622406971
 31
0.0
  0
CIRCLE
  5
3E6
  8
0
  6
CONTINUOUS
 62
     7
 10
180.6745312190082
 20
171.95473621103119
 30
0.0
 40
7.9999999999999707
  0
ARC
  5
3E7
  8
0
  6
CONTINUOUS
 62
     7
 10
180.6745312190082
 20
51.471282973621172
 30
0.0
 40
5.0
 50
179.99999999977081
 51
0.0
  0
ARC
  5
3E8
  8
0
  6
CONTINUOUS
 62
     7
 10
180.6745312190082
 20
71.271282973621169
 30
0.0
 40
8.5000000000000142
 50
306.03187907246928
 51
233.96812092753109
  0
LINE
  5
3E9
  8
0
  6
CONTINUOUS
 62
     7
 10
185.67453110724949
 20
64.397419224415103
 30
0.0
 11
185.67453110724949
 21
51.471283080909529
 31
0.0
  0
LINE
  5
3EA
  8
0
  6
CONTINUOUS
 62
     7
 10
175.674531330767
 20
51.471283080909529
 30
0.0
 11
175.674531330767
 21
64.397419224415103
 31
0.0
  0
LINE
  5
3EB
  8
0
  6
CONTINUOUS
 62
     7
 10
168.91227355361249
 20
67.271282783631364
 30
0.0
 11
173.17453132033609
 21
67.271282783631364
 31
0.0
  0
LINE
  5
3EC
  8
0
  6
CONTINUOUS
 62
     7
 10
173.17453132033609
 20
75.271283163610974
 30
0.0
 11
168.91227355361249
 21
75.271283163610974
 31
0.0
  0
ARC
  5
3ED
  8
0
  6
CONTINUOUS
 62
     7
 10
176.97471435974481
 20
71.271282973621169
 30
0.0
 40
9.0001640691881821
 50
153.61271689356229
 51
206.38728310643799
  0
LINE
  5
3F2
  8
0
  6
CONTINUOUS
 62
     7
 10
175.674531330767
 20
141.9277585164713
 30
0.0
 11
175.674531330767
 21
143.42775876234049
 31
0.0
  0
LINE
  5
3F3
  8
0
  6
CONTINUOUS
 62
     7
 10
185.67453110724961
 20
143.42775876234049
 30
0.0
 11
185.67453110724961
 21
141.9277585164713
 31
0.0
  0
LINE
  5
3F4
  8
0
  6
CONTINUOUS
 62
     7
 10
185.67453110724961
 20
143.42775876234049
 30
0.0
 11
175.674531330767
 21
143.42775876234049
 31
0.0
  0
LINE
  5
3F5
  8
0
  6
CONTINUOUS
 62
     7
 10
173.629304116073
 20
108.22775895307539
 30
0.0
 11
172.17453075707229
 21
108.22775895307539
 31
0.0
  0
LINE
  5
3F6
  8
0
  6
CONTINUOUS
 62
     7
 10
189.17453168094431
 20
129.42775833020681
 30
0.0
 11
172.17453075707229
 21
129.42775833020681
 31
0.0
  0
LINE
  5
3F7
  8
0
  6
CONTINUOUS
 62
     7
 10
172.17453075707229
 20
103.427757793765
 30
0.0
 11
189.17453168094431
 21
103.427757793765
 31
0.0
  0
LINE
  5
3F8
  8
0
  6
CONTINUOUS
 62
     7
 10
172.97453126073151
 20
117.8277584777283
 30
0.0
 11
173.61923977867039
 21
117.8277584777283
 31
0.0
  0
LINE
  5
3F9
  8
0
  6
CONTINUOUS
 62
     7
 10
168.83084336430099
 20
117.4962635205197
 30
0.0
 11
172.97453126073151
 21
117.8277584777283
 31
0.0
  0
POLYLINE
  5
3FA
  8
0
  6
CONTINUOUS
 62
     7
 66
     1
 10
0.0
 20
0.0
 30
0.0
 70
   128
  0
VERTEX
  5
483
  8
0
  6
CONTINUOUS
 62
     7
 10
168.83084336430099
 20
117.4962635205197
 30
0.0
  0
VERTEX
  5
484
  8
0
  6
CONTINUOUS
 62
     7
 10
168.55083564430751
 20
117.47386241863251
 30
0.0
  0
VERTEX
  5
485
  8
0
  6
CONTINUOUS
 62
     7
 10
168.32465091854601
 20
117.4557677523303
 30
0.0
  0
VERTEX
  5
486
  8
0
  6
CONTINUOUS
 62
     7
 10
168.15373646229779
 20
117.4420950056123
 30
0.0
  0
VERTEX
  5
487
  8
0
  6
CONTINUOUS
 62
     7
 10
168.03918285429751
 20
117.4329307914781
 30
0.0
  0
VERTEX
  5
488
  8
0
  6
CONTINUOUS
 62
     7
 10
167.98172211408891
 20
117.4283337832498
 30
0.0
  0
VERTEX
  5
489
  8
0
  6
CONTINUOUS
 62
     7
 10
167.97453137249019
 20
117.4277582258987
 30
0.0
  0
SEQEND
  5
48A
  8
0
  6
CONTINUOUS
 62
     7
  0
LINE
  5
3FB
  8
0
  6
CONTINUOUS
 62
     7
 10
171.1396425052329
 20
108.3277587832021
 30
0.0
 11
173.61911684409051
 21
108.3277587832021
 31
0.0
  0
LINE
  5
3FC
  8
0
  6
CONTINUOUS
 62
     7
 10
188.6745315989879
 20
141.9277585164713
 30
0.0
 11
172.67453083902871
 21
141.9277585164713
 31
0.0
  0
LINE
  5
3FD
  8
0
  6
CONTINUOUS
 62
     7
 10
173.629304116073
 20
117.9277583078551
 30
0.0
 11
173.629304116073
 21
108.22775895307539
 31
0.0
  0
LINE
  5
3FE
  8
0
  6
CONTINUOUS
 62
     7
 10
172.17453075707229
 20
129.42775833020681
 30
0.0
 11
172.17453075707229
 21
117.9277583078551
 31
0.0
  0
LINE
  5
3FF
  8
0
  6
CONTINUOUS
 62
     7
 10
172.17453075707229
 20
108.22775895307539
 30
0.0
 11
172.17453075707229
 21
103.427757793765
 31
0.0
  0
LINE
  5
400
  8
0
  6
CONTINUOUS
 62
     7
 10
189.17453168094431
 20
103.427757793765
 30
0.0
 11
189.17453168094431
 21
129.42775833020681
 31
0.0
  0
ARC
  5
401
  8
0
  6
CONTINUOUS
 62
     7
 10
192.31453121914649
 20
121.6177583302637
 30
0.0
 40
25.000000000150511
 50
193.1935816390565
 51
212.1136230284267
  0
LINE
  5
402
  8
0
  6
CONTINUOUS
 62
     7
 10
167.97453137249019
 20
117.4277582258987
 30
0.0
 11
167.97453137249019
 21
115.9128223599004
 31
0.0
  0
LINE
  5
403
  8
0
  6
CONTINUOUS
 62
     7
 10
188.6745315989879
 20
129.42775833020681
 30
0.0
 11
188.6745315989879
 21
141.9277585164713
 31
0.0
  0
LINE
  5
404
  8
0
  6
CONTINUOUS
 62
     7
 10
172.67453083902871
 20
141.9277585164713
 30
0.0
 11
172.67453083902871
 21
129.42775833020681
 31
0.0
  0
LINE
  5
40A
  8
1
 10
90.659045552117675
 20
98.427757793765096
 30
0.0
 11
90.659045552117675
 21
148.4277577937651
 31
0.0
  0
LINE
  5
40B
  8
1
 10
180.67453121900829
 20
98.427757793765053
 30
0.0
 11
180.67453121900829
 21
148.42775779376501
 31
0.0
  0
LINE
  5
40C
  8
1
 10
217.43227405245381
 20
98.427757793765068
 30
0.0
 11
217.43227405245381
 21
145.42775779376501
 31
0.0
  0
LINE
  5
40D
  8
1
 10
143.9167883855628
 20
98.427757793765068
 30
0.0
 11
143.9167883855628
 21
145.42775779376501
 31
0.0
  0
LINE
  5
40E
  8
1
 10
194.17453121900829
 20
71.271282973621169
 30
0.0
 11
167.17453121900829
 21
71.271282973621169
 31
0.0
  0
LINE
  5
40F
  8
1
 10
188.67453121900829
 20
52.271282973621481
 30
0.0
 11
172.67453121900829
 21
52.271282973621481
 31
0.0
  0
LINE
  5
410
  8
1
 10
188.67453121900829
 20
190.95473621103091
 30
0.0
 11
172.67453121900829
 21
190.95473621103091
 31
0.0
  0
LINE
  5
411
  8
1
 10
194.17453121900829
 20
171.95473621103119
 30
0.0
 11
167.17453121900829
 21
171.95473621103119
 31
0.0
  0
LINE
  5
416
  8
1
 10
236.23227522666539
 20
118.4277577937651
 30
0.0
 11
236.23227522666539
 21
107.427757793765
 31
0.0
  0
LINE
  5
417
  8
1
 10
241.73227522666539
 20
112.9277577937651
 30
0.0
 11
230.73227522666531
 21
112.9277577937651
 31
0.0
  0
CIRCLE
  5
418
  8
3
 10
236.23227522666539
 20
112.9277577937651
 30
0.0
 40
2.5
  0
CIRCLE
  5
419
  8
0
 10
236.23227522666539
 20
112.9277577937651
 30
0.0
 40
2.0669999999999988
  0
LINE
  5
41A
  8
1
 10
125.11678721135129
 20
118.427757793765
 30
0.0
 11
125.11678721135129
 21
107.427757793765
 31
0.0
  0
LINE
  5
41B
  8
1
 10
130.61678721135141
 20
112.927757793765
 30
0.0
 11
119.61678721135139
 21
112.927757793765
 31
0.0
  0
CIRCLE
  5
41C
  8
0
 10
125.11678721135129
 20
112.927757793765
 30
0.0
 40
2.0669999999999988
  0
CIRCLE
  5
41D
  8
3
 10
125.11678721135129
 20
112.927757793765
 30
0.0
 40
2.5
  0
LINE
  5
41E
  8
1
 10
180.6745312189982
 20
41.47128297362115
 30
0.0
 11
180.67453121899831
 21
84.771282973621183
 31
0.0
  0
LINE
  5
420
  8
1
 10
180.39838180835139
 20
158.459223189265
 30
0.0
 11
180.39838180835139
 21
201.75922318926499
 31
0.0
  0
ARC
  5
422
  8
0
 10
180.67453121899831
 20
71.271282973621169
 30
0.0
 40
9.5348887137654401
 50
155.19621844517519
 51
204.8037815548247
  0
ENDSEC
  0
EOF
