  0
SECTION
  2
HEADER
  9
$ACADVER
  1
AC1009
  9
$INSBASE
 10
0.0
 20
0.0
 30
0.0
  9
$EXTMIN
 10
0.0
 20
-1.4802182810368341
 30
0.0
  9
$EXTMAX
 10
142.73140599999999
 20
107.472126
 30
0.0
  9
$LIMMIN
 10
0.0
 20
0.0
  9
$LIMMAX
 10
187.5
 20
135.0
  9
$ORTHOMODE
 70
     1
  9
$REGENMODE
 70
     1
  9
$FILLMODE
 70
     1
  9
$QTEXTMODE
 70
     0
  9
$MIRRTEXT
 70
     0
  9
$DRAGMODE
 70
     2
  9
$LTSCALE
 40
5.0
  9
$OSMODE
 70
  3071
  9
$ATTMODE
 70
     1
  9
$TEXTSIZE
 40
0.2
  9
$TRACEWID
 40
0.05
  9
$TEXTSTYLE
  7
STANDARD
  9
$CLAYER
  8
0
  9
$CELTYPE
  6
BYLAYER
  9
$CECOLOR
 62
   256
  9
$DIMSCALE
 40
0.5
  9
$DIMASZ
 40
3.0
  9
$DIMEXO
 40
2.0
  9
$DIMDLI
 40
0.38
  9
$DIMRND
 40
0.0
  9
$DIMDLE
 40
0.0
  9
$DIMEXE
 40
2.0
  9
$DIMTP
 40
0.0
  9
$DIMTM
 40
0.0
  9
$DIMTXT
 40
3.2000000000000002
  9
$DIMCEN
 40
0.0
  9
$DIMTSZ
 40
0.0
  9
$DIMTOL
 70
     0
  9
$DIMLIM
 70
     0
  9
$DIMTIH
 70
     0
  9
$DIMTOH
 70
     0
  9
$DIMSE1
 70
     0
  9
$DIMSE2
 70
     0
  9
$DIMTAD
 70
     1
  9
$DIMZIN
 70
     0
  9
$DIMBLK
  1

  9
$DIMASO
 70
     0
  9
$DIMSHO
 70
     0
  9
$DIMPOST
  1

  9
$DIMAPOST
  1

  9
$DIMALT
 70
     0
  9
$DIMALTD
 70
     2
  9
$DIMALTF
 40
25.399999999999999
  9
$DIMLFAC
 40
1.0
  9
$DIMTOFL
 70
     1
  9
$DIMTVP
 40
1.6000000000000001
  9
$DIMTIX
 70
     1
  9
$DIMSOXD
 70
     0
  9
$DIMSAH
 70
     0
  9
$DIMBLK1
  1

  9
$DIMBLK2
  1

  9
$DIMSTYLE
  2
STANDARD
  9
$DIMCLRD
 70
     0
  9
$DIMCLRE
 70
     0
  9
$DIMCLRT
 70
     0
  9
$DIMTFAC
 40
1.0
  9
$DIMGAP
 40
0.09
  9
$LUNITS
 70
     2
  9
$LUPREC
 70
     4
  9
$SKETCHINC
 40
0.1
  9
$FILLETRAD
 40
0.0
  9
$AUNITS
 70
     0
  9
$AUPREC
 70
     4
  9
$MENU
  1
E:\r13\win\SUPPORT\ACAD
  9
$ELEVATION
 40
0.0
  9
$PELEVATION
 40
0.0
  9
$THICKNESS
 40
0.0
  9
$LIMCHECK
 70
     0
  9
$BLIPMODE
 70
     0
  9
$CHAMFERA
 40
0.0
  9
$CHAMFERB
 40
0.0
  9
$SKPOLY
 70
     0
  9
$TDCREATE
 40
2449840.5951736108
  9
$TDUPDATE
 40
2456597.7185106832
  9
$TDINDWG
 40
0.0003906481
  9
$TDUSRTIMER
 40
0.0003906481
  9
$USRTIMER
 70
     1
  9
$ANGBASE
 50
0.0
  9
$ANGDIR
 70
     0
  9
$PDMODE
 70
     0
  9
$PDSIZE
 40
0.0
  9
$PLINEWID
 40
0.0
  9
$COORDS
 70
     1
  9
$SPLFRAME
 70
     0
  9
$SPLINETYPE
 70
     6
  9
$SPLINESEGS
 70
     8
  9
$ATTDIA
 70
     0
  9
$ATTREQ
 70
     1
  9
$HANDLING
 70
     1
  9
$HANDSEED
  5
269
  9
$SURFTAB1
 70
     6
  9
$SURFTAB2
 70
     6
  9
$SURFTYPE
 70
     6
  9
$SURFU
 70
     6
  9
$SURFV
 70
     6
  9
$UCSNAME
  2

  9
$UCSORG
 10
0.0
 20
0.0
 30
0.0
  9
$UCSXDIR
 10
1.0
 20
0.0
 30
0.0
  9
$UCSYDIR
 10
0.0
 20
1.0
 30
0.0
  9
$PUCSNAME
  2

  9
$PUCSORG
 10
0.0
 20
0.0
 30
0.0
  9
$PUCSXDIR
 10
1.0
 20
0.0
 30
0.0
  9
$PUCSYDIR
 10
0.0
 20
1.0
 30
0.0
  9
$USERI1
 70
     0
  9
$USERI2
 70
     1
  9
$USERI3
 70
     0
  9
$USERI4
 70
     0
  9
$USERI5
 70
     0
  9
$USERR1
 40
0.0
  9
$USERR2
 40
0.0
  9
$USERR3
 40
0.0
  9
$USERR4
 40
0.0
  9
$USERR5
 40
0.0
  9
$WORLDVIEW
 70
     1
  9
$SHADEDGE
 70
     3
  9
$SHADEDIF
 70
    70
  9
$TILEMODE
 70
     1
  9
$MAXACTVP
 70
    16
  9
$PLIMCHECK
 70
     0
  9
$PEXTMIN
 10
1.0000000000000000E+020
 20
1.0000000000000000E+020
 30
1.0000000000000000E+020
  9
$PEXTMAX
 10
-1.0000000000000000E+020
 20
-1.0000000000000000E+020
 30
-1.0000000000000000E+020
  9
$PLIMMIN
 10
0.0
 20
0.0
  9
$PLIMMAX
 10
12.0
 20
9.0
  9
$UNITMODE
 70
     0
  9
$VISRETAIN
 70
     0
  9
$PLINEGEN
 70
     0
  9
$PSLTSCALE
 70
     0
  0
ENDSEC
  0
SECTION
  2
TABLES
  0
TABLE
  2
VPORT
 70
     1
  0
VPORT
  2
*ACTIVE
 70
     0
 10
0.0
 20
0.0
 11
1.0
 21
1.0
 12
93.747139195326156
 22
67.05183146954721
 13
0.0
 23
0.0
 14
5.0
 24
5.0
 15
5.0
 25
5.0
 16
0.0
 26
0.0
 36
1.0
 17
0.0
 27
0.0
 37
0.0
 40
138.6470298934976
 41
2.304913294797688
 42
50.0
 43
0.0
 44
0.0
 50
0.0
 51
0.0
 71
     0
 72
   100
 73
     1
 74
     0
 75
     0
 76
     0
 77
     0
 78
     2
  0
ENDTAB
  0
TABLE
  2
LTYPE
 70
     4
  0
LTYPE
  2
CONTINUOUS
 70
     0
  3
Solid Line
 72
    65
 73
     0
 40
0.0
  0
LTYPE
  2
CENTER
 70
     0
  3
____ _ ____ _ ____ _ ____ _ ____ _ ____ _ ____
 72
    65
 73
     4
 40
2.0
 49
1.25
 49
-0.25
 49
0.25
 49
-0.25
  0
LTYPE
  2
HIDDEN
 70
     0
  3
_ _ _ _ _ _ _ _ _ _ _ _ _ _ _ _ _ _ _ _ _ _ _
 72
    65
 73
     2
 40
0.375
 49
0.25
 49
-0.125
  0
LTYPE
  2
PHANTOM2
 70
     0
  3
___ _ _ ___ _ _ ___ _ _ ___ _ _
 72
    65
 73
     6
 40
1.25
 49
0.625
 49
-0.125
 49
0.125
 49
-0.125
 49
0.125
 49
-0.125
  0
ENDTAB
  0
TABLE
  2
LAYER
 70
     4
  0
LAYER
  2
0
 70
     0
 62
     7
  6
CONTINUOUS
  0
LAYER
  2
1
 70
     0
 62
     1
  6
CENTER
  0
LAYER
  2
2
 70
     0
 62
     2
  6
HIDDEN
  0
LAYER
  2
3
 70
     0
 62
     3
  6
CONTINUOUS
  0
ENDTAB
  0
TABLE
  2
STYLE
 70
     2
  0
STYLE
  2
STANDARD
 70
     0
 40
0.0
 41
1.0
 50
0.0
 71
     0
 42
0.2
  3
TXT
  4
BIGFONT
  0
STYLE
  2
STANDARD1
 70
     0
 40
0.0
 41
1.0
 50
0.0
 71
     0
 42
3.0
  3
txt
  4

  0
ENDTAB
  0
TABLE
  2
VIEW
 70
     1
  0
VIEW
  2
ALL
 70
     0
 40
135.0
 10
110.49579799999999
 20
67.5
 41
0.0
 11
0.0
 21
0.0
 31
1.0
 12
0.0
 22
0.0
 32
0.0
 42
0.0
 43
0.0
 44
0.0
 50
0.0
 71
     0
  0
ENDTAB
  0
TABLE
  2
UCS
 70
     0
  0
ENDTAB
  0
TABLE
  2
APPID
 70
     3
  0
APPID
  2
ACAD
 70
     0
  0
APPID
  2
ACAD_MLEADERVER
 70
     0
  0
APPID
  2
ACAD_NAV_VCDISPLAY
 70
     0
  0
ENDTAB
  0
TABLE
  2
DIMSTYLE
 70
     1
  0
DIMSTYLE
  2
STANDARD
 70
     0
  3

  4

  5

  6

  7

 40
1.0
 41
0.18
 42
0.0625
 43
0.38
 44
0.18
 45
0.0
 46
0.0
 47
0.0
 48
0.0
140
0.18
141
0.09
142
0.0
143
25.399999999999999
144
1.0
145
0.0
146
1.0
147
0.09
 71
     0
 72
     0
 73
     1
 74
     1
 75
     0
 76
     0
 77
     0
 78
     0
170
     0
171
     2
172
     0
173
     0
174
     0
175
     0
176
     0
177
     0
178
     0
  0
ENDTAB
  0
ENDSEC
  0
SECTION
  2
BLOCKS
  0
BLOCK
  8
0
  2
$MODEL_SPACE
 70
     0
 10
0.0
 20
0.0
 30
0.0
  3
$MODEL_SPACE
  1

  0
ENDBLK
  5
11B
  8
0
  0
BLOCK
 67
     1
  8
0
  2
$PAPER_SPACE
 70
     0
 10
0.0
 20
0.0
 30
0.0
  3
$PAPER_SPACE
  1

  0
ENDBLK
  5
119
 67
     1
  8
0
  0
ENDSEC
  0
SECTION
  2
ENTITIES
  0
LINE
  5
36
  8
3
 10
49.915022999999998
 20
67.064431999999996
 30
0.0
 11
44.788994999999993
 21
61.938403999999998
 31
0.0
  0
LINE
  5
37
  8
3
 10
50.122796999999998
 20
64.986204999999998
 30
0.0
 11
46.867220999999986
 21
61.730629999999998
 31
0.0
  0
LINE
  5
38
  8
3
 10
45.550796999999989
 20
69.558205000000001
 30
0.0
 11
42.295220999999998
 21
66.302630000000008
 31
0.0
  0
LINE
  5
39
  8
3
 10
46.867220999999986
 20
69.558205000000001
 30
0.0
 11
50.122796999999998
 21
66.302630000000008
 31
0.0
  0
LINE
  5
3A
  8
3
 10
42.295220999999998
 20
64.986204999999998
 30
0.0
 11
45.550796999999989
 21
61.730629999999998
 31
0.0
  0
LINE
  5
3B
  8
3
 10
44.788994999999993
 20
69.350431999999984
 30
0.0
 11
49.915022999999998
 21
64.224404000000007
 31
0.0
  0
LINE
  5
3C
  8
3
 10
42.780009
 20
67.642651000000001
 30
0.0
 11
42.780009
 21
63.646184999999988
 31
0.0
  0
LINE
  5
3D
  8
3
 10
49.638008999999997
 20
67.642651000000001
 30
0.0
 11
49.638008999999997
 21
63.646184999999988
 31
0.0
  0
LINE
  5
3E
  8
3
 10
48.207242000000001
 20
62.215418
 30
0.0
 11
44.210776000000003
 21
62.215418
 31
0.0
  0
LINE
  5
3F
  8
3
 10
48.207242000000001
 20
69.073418000000004
 30
0.0
 11
44.210776000000003
 21
69.073418000000004
 31
0.0
  0
LINE
  5
40
  8
3
 10
42.502994999999991
 20
67.064431999999996
 30
0.0
 11
47.629022999999989
 21
61.938403999999998
 31
0.0
  0
LINE
  5
41
  8
3
 10
43.402678999999992
 20
68.450748000000004
 30
0.0
 11
49.015338999999997
 21
62.838087999999999
 31
0.0
  0
LINE
  5
42
  8
3
 10
47.629022999999989
 20
69.350431999999984
 30
0.0
 11
42.502994999999991
 21
64.224404000000007
 31
0.0
  0
LINE
  5
43
  8
3
 10
49.015338999999997
 20
68.450748000000004
 30
0.0
 11
43.402678999999992
 21
62.838087999999999
 31
0.0
  0
LINE
  5
44
  8
3
 10
47.352009000000002
 20
69.445014
 30
0.0
 11
47.352009000000002
 21
61.843821999999989
 31
0.0
  0
LINE
  5
45
  8
3
 10
45.066009000000001
 20
69.445014
 30
0.0
 11
45.066009000000001
 21
61.843821999999989
 31
0.0
  0
LINE
  5
46
  8
3
 10
50.009605000000001
 20
64.501418000000001
 30
0.0
 11
42.408413000000003
 21
64.501418000000001
 31
0.0
  0
LINE
  5
47
  8
3
 10
50.009605000000001
 20
66.787418000000002
 30
0.0
 11
42.408413000000003
 21
66.787418000000002
 31
0.0
  0
CIRCLE
  5
48
  8
0
 10
46.209009000000002
 20
65.644418000000002
 30
0.0
 40
3.96875
  0
CIRCLE
  5
49
  8
0
 10
46.209009000000002
 20
65.644418000000002
 30
0.0
 40
6.0
  0
CIRCLE
  5
4A
  8
3
 10
46.209009000000002
 20
65.644418000000002
 30
0.0
 40
5.052999999999999
  0
LINE
  5
4B
  8
1
 10
37.709009000000002
 20
65.644418000000002
 30
0.0
 11
54.709009000000002
 21
65.644418000000002
 31
0.0
  0
LINE
  5
4C
  8
1
 10
46.209009000000002
 20
74.144418000000002
 30
0.0
 11
46.209009000000002
 21
57.144418000000002
 31
0.0
  0
LINE
  5
4D
  8
0
 10
131.23140599999999
 20
63.912367000000003
 30
0.0
 11
134.23140599999999
 21
62.180315999999998
 31
0.0
  0
LINE
  5
4E
  8
0
 10
134.23140599999999
 20
62.180315999999998
 30
0.0
 11
137.23140599999999
 21
63.912367000000003
 31
0.0
  0
LINE
  5
4F
  8
0
 10
137.23140599999999
 20
63.912367000000003
 30
0.0
 11
137.23140599999999
 21
67.376469
 31
0.0
  0
LINE
  5
50
  8
0
 10
137.23140599999999
 20
67.376469
 30
0.0
 11
134.23140599999999
 21
69.108519000000001
 31
0.0
  0
LINE
  5
51
  8
0
 10
134.23140599999999
 20
69.108519000000001
 30
0.0
 11
131.23140599999999
 21
67.376469
 31
0.0
  0
LINE
  5
52
  8
0
 10
131.23140599999999
 20
67.376469
 30
0.0
 11
131.23140599999999
 21
63.912367000000003
 31
0.0
  0
CIRCLE
  5
53
  8
3
 10
134.23140599999999
 20
65.644418000000002
 30
0.0
 40
5.052999999999999
  0
CIRCLE
  5
54
  8
0
 10
134.23140599999999
 20
65.644418000000002
 30
0.0
 40
6.0
  0
LINE
  5
55
  8
1
 10
134.23140599999999
 20
74.144418000000002
 30
0.0
 11
134.23140599999999
 21
57.144418000000002
 31
0.0
  0
LINE
  5
56
  8
1
 10
125.73140600000001
 20
65.644418000000002
 30
0.0
 11
142.73140599999999
 21
65.644418000000002
 31
0.0
  0
LINE
  5
57
  8
1
 10
75.050560000000004
 20
65.644418000000002
 30
0.0
 11
105.05056
 21
65.644418000000002
 31
0.0
  0
LINE
  5
58
  8
2
 10
95.550560000000004
 20
29.81670900000001
 30
0.0
 11
97.550560000000004
 21
26.816708999999999
 31
0.0
  0
LINE
  5
59
  8
2
 10
95.550560000000004
 20
29.81670900000001
 30
0.0
 11
97.550560000000004
 21
32.816709000000003
 31
0.0
  0
LINE
  5
5A
  8
2
 10
102.55056
 20
32.816709000000003
 30
0.0
 11
97.550560000000004
 21
32.816709000000003
 31
0.0
  0
LINE
  5
5B
  8
2
 10
102.55056
 20
29.81670900000001
 30
0.0
 11
97.550560000000004
 21
29.81670900000001
 31
0.0
  0
LINE
  5
5C
  8
2
 10
102.55056
 20
26.816708999999999
 30
0.0
 11
97.550560000000004
 21
26.816708999999999
 31
0.0
  0
LINE
  5
5D
  8
2
 10
97.550560000000004
 20
26.816708999999999
 30
0.0
 11
97.550560000000004
 21
32.816709000000003
 31
0.0
  0
LINE
  5
5E
  8
1
 10
75.050560000000004
 20
29.81670900000001
 30
0.0
 11
105.05056
 21
29.81670900000001
 31
0.0
  0
LINE
  5
5F
  8
0
 10
78.693559999999991
 20
69.073418000000004
 30
0.0
 11
78.82056
 21
69.073418000000004
 31
0.0
  0
LINE
  5
60
  8
0
 10
78.693559999999991
 20
62.215418
 30
0.0
 11
78.82056
 21
62.215418
 31
0.0
  0
LINE
  5
61
  8
0
 10
78.693559999999991
 20
62.215418
 30
0.0
 11
77.550560000000004
 21
63.358418
 31
0.0
  0
LINE
  5
62
  8
0
 10
78.693559999999991
 20
69.073418000000004
 30
0.0
 11
77.550560000000004
 21
67.930418000000003
 31
0.0
  0
LINE
  5
63
  8
0
 10
77.550560000000004
 20
65.644418000000002
 30
0.0
 11
78.693559999999991
 21
64.501418000000001
 31
0.0
  0
LINE
  5
64
  8
0
 10
78.693559999999991
 20
64.501418000000001
 30
0.0
 11
77.550560000000004
 21
63.358418
 31
0.0
  0
LINE
  5
65
  8
0
 10
78.693559999999991
 20
66.787418000000002
 30
0.0
 11
77.550560000000004
 21
67.930418000000003
 31
0.0
  0
LINE
  5
66
  8
0
 10
77.550560000000004
 20
65.644418000000002
 30
0.0
 11
78.693559999999991
 21
66.787418000000002
 31
0.0
  0
LINE
  5
67
  8
2
 10
102.55056
 20
62.180315999999998
 30
0.0
 11
97.550560000000004
 21
62.180315999999998
 31
0.0
  0
LINE
  5
68
  8
2
 10
97.550560000000004
 20
62.180315999999998
 30
0.0
 11
95.550560000000004
 21
65.644418000000002
 31
0.0
  0
LINE
  5
69
  8
2
 10
102.55056
 20
63.912367000000003
 30
0.0
 11
97.550560000000004
 21
63.912367000000003
 31
0.0
  0
LINE
  5
6A
  8
2
 10
97.550560000000004
 20
69.108519000000001
 30
0.0
 11
97.550560000000004
 21
62.180315999999998
 31
0.0
  0
LINE
  5
6B
  8
2
 10
102.55056
 20
67.376469
 30
0.0
 11
97.550560000000004
 21
67.376469
 31
0.0
  0
LINE
  5
6C
  8
2
 10
97.550560000000004
 20
69.108519000000001
 30
0.0
 11
95.550560000000004
 21
65.644418000000002
 31
0.0
  0
LINE
  5
6D
  8
2
 10
102.55056
 20
69.108519000000001
 30
0.0
 11
97.550560000000004
 21
69.108519000000001
 31
0.0
  0
LINE
  5
6E
  8
0
 10
101.55056
 20
59.644418000000002
 30
0.0
 11
79.82056
 21
59.644418000000002
 31
0.0
  0
LINE
  5
6F
  8
0
 10
79.82056
 20
59.644418000000002
 30
0.0
 11
78.82056
 21
61.376469
 31
0.0
  0
LINE
  5
70
  8
0
 10
101.55056
 20
59.644418000000002
 30
0.0
 11
102.55056
 21
61.376469
 31
0.0
  0
LINE
  5
71
  8
3
 10
102.097311
 20
60.591417999999997
 30
0.0
 11
79.273809
 21
60.591417999999997
 31
0.0
  0
LINE
  5
72
  8
2
 10
78.82056
 20
61.675668000000002
 30
0.0
 11
80.725560000000002
 21
61.675668000000002
 31
0.0
  0
LINE
  5
73
  8
2
 10
80.725560000000002
 20
69.613168000000002
 30
0.0
 11
80.725560000000002
 21
61.675668000000002
 31
0.0
  0
LINE
  5
74
  8
2
 10
78.82056
 20
69.613168000000002
 30
0.0
 11
80.725560000000002
 21
69.613168000000002
 31
0.0
  0
LINE
  5
75
  8
3
 10
102.097311
 20
70.697417999999999
 30
0.0
 11
79.273809
 21
70.697417999999999
 31
0.0
  0
LINE
  5
76
  8
0
 10
101.55056
 20
71.644418000000002
 30
0.0
 11
102.55056
 21
69.912367000000003
 31
0.0
  0
LINE
  5
77
  8
0
 10
79.82056
 20
71.644418000000002
 30
0.0
 11
78.82056
 21
69.912367000000003
 31
0.0
  0
LINE
  5
78
  8
0
 10
79.82056
 20
71.644418000000002
 30
0.0
 11
79.82056
 21
59.644418000000002
 31
0.0
  0
LINE
  5
79
  8
0
 10
78.82056
 20
69.912367000000003
 30
0.0
 11
78.82056
 21
61.376469
 31
0.0
  0
LINE
  5
7A
  8
0
 10
101.55056
 20
71.644418000000002
 30
0.0
 11
101.55056
 21
59.644418000000002
 31
0.0
  0
LINE
  5
7B
  8
0
 10
101.55056
 20
71.644418000000002
 30
0.0
 11
79.82056
 21
71.644418000000002
 31
0.0
  0
LINE
  5
7C
  8
0
 10
102.55056
 20
69.912367000000003
 30
0.0
 11
102.55056
 21
61.376469
 31
0.0
  0
LINE
  5
7D
  8
0
 10
102.55056
 20
34.084657999999997
 30
0.0
 11
102.55056
 21
25.548760000000001
 31
0.0
  0
LINE
  5
7E
  8
0
 10
101.55056
 20
35.81670900000001
 30
0.0
 11
79.82056
 21
35.81670900000001
 31
0.0
  0
LINE
  5
7F
  8
0
 10
101.55056
 20
35.81670900000001
 30
0.0
 11
101.55056
 21
23.816708999999999
 31
0.0
  0
LINE
  5
80
  8
0
 10
78.82056
 20
34.084657999999997
 30
0.0
 11
78.82056
 21
25.548760000000001
 31
0.0
  0
LINE
  5
81
  8
0
 10
79.82056
 20
35.81670900000001
 30
0.0
 11
79.82056
 21
23.816708999999999
 31
0.0
  0
LINE
  5
82
  8
0
 10
79.82056
 20
35.81670900000001
 30
0.0
 11
78.82056
 21
34.084657999999997
 31
0.0
  0
LINE
  5
83
  8
0
 10
101.55056
 20
35.81670900000001
 30
0.0
 11
102.55056
 21
34.084657999999997
 31
0.0
  0
LINE
  5
84
  8
3
 10
102.097311
 20
34.869709
 30
0.0
 11
79.273809
 21
34.869709
 31
0.0
  0
LINE
  5
85
  8
2
 10
78.82056
 20
33.78545900000001
 30
0.0
 11
80.725560000000002
 21
33.78545900000001
 31
0.0
  0
LINE
  5
86
  8
2
 10
80.725560000000002
 20
33.78545900000001
 30
0.0
 11
80.725560000000002
 21
25.847958999999999
 31
0.0
  0
LINE
  5
87
  8
2
 10
78.82056
 20
25.847958999999999
 30
0.0
 11
80.725560000000002
 21
25.847958999999999
 31
0.0
  0
LINE
  5
88
  8
3
 10
102.097311
 20
24.763708999999999
 30
0.0
 11
79.273809
 21
24.763708999999999
 31
0.0
  0
LINE
  5
89
  8
0
 10
101.55056
 20
23.816708999999999
 30
0.0
 11
102.55056
 21
25.548760000000001
 31
0.0
  0
LINE
  5
8A
  8
0
 10
79.82056
 20
23.816708999999999
 30
0.0
 11
78.82056
 21
25.548760000000001
 31
0.0
  0
LINE
  5
8B
  8
0
 10
101.55056
 20
23.816708999999999
 30
0.0
 11
79.82056
 21
23.816708999999999
 31
0.0
  0
LINE
  5
8C
  8
0
 10
77.550560000000004
 20
29.81670900000001
 30
0.0
 11
78.693559999999991
 21
30.959709000000011
 31
0.0
  0
LINE
  5
8D
  8
0
 10
78.693559999999991
 20
30.959709000000011
 30
0.0
 11
77.550560000000004
 21
32.102709000000011
 31
0.0
  0
LINE
  5
8E
  8
0
 10
78.693559999999991
 20
28.673708999999999
 30
0.0
 11
77.550560000000004
 21
27.530709000000002
 31
0.0
  0
LINE
  5
8F
  8
0
 10
77.550560000000004
 20
29.81670900000001
 30
0.0
 11
78.693559999999991
 21
28.673708999999999
 31
0.0
  0
LINE
  5
90
  8
0
 10
78.693559999999991
 20
33.245709000000012
 30
0.0
 11
77.550560000000004
 21
32.102709000000011
 31
0.0
  0
LINE
  5
91
  8
0
 10
78.693559999999991
 20
26.387709000000001
 30
0.0
 11
77.550560000000004
 21
27.530709000000002
 31
0.0
  0
LINE
  5
92
  8
0
 10
78.693559999999991
 20
26.387709000000001
 30
0.0
 11
78.82056
 21
26.387709000000001
 31
0.0
  0
LINE
  5
93
  8
0
 10
78.693559999999991
 20
33.245709000000012
 30
0.0
 11
78.82056
 21
33.245709000000012
 31
0.0
  0
LINE
  5
94
  8
0
 10
78.693559999999991
 20
98.043126000000015
 30
0.0
 11
78.82056
 21
98.043126000000015
 31
0.0
  0
LINE
  5
95
  8
0
 10
78.693559999999991
 20
104.901126
 30
0.0
 11
78.82056
 21
104.901126
 31
0.0
  0
LINE
  5
96
  8
0
 10
78.693559999999991
 20
104.901126
 30
0.0
 11
77.550560000000004
 21
103.758126
 31
0.0
  0
LINE
  5
97
  8
0
 10
78.693559999999991
 20
98.043126000000015
 30
0.0
 11
77.550560000000004
 21
99.186126000000016
 31
0.0
  0
LINE
  5
98
  8
0
 10
77.550560000000004
 20
101.472126
 30
0.0
 11
78.693559999999991
 21
102.615126
 31
0.0
  0
LINE
  5
99
  8
0
 10
78.693559999999991
 20
102.615126
 30
0.0
 11
77.550560000000004
 21
103.758126
 31
0.0
  0
LINE
  5
9A
  8
0
 10
78.693559999999991
 20
100.329126
 30
0.0
 11
77.550560000000004
 21
99.186126000000016
 31
0.0
  0
LINE
  5
9B
  8
0
 10
77.550560000000004
 20
101.472126
 30
0.0
 11
78.693559999999991
 21
100.329126
 31
0.0
  0
LINE
  5
9C
  8
0
 10
101.55056
 20
107.472126
 30
0.0
 11
79.82056
 21
107.472126
 31
0.0
  0
LINE
  5
9D
  8
0
 10
79.82056
 20
107.472126
 30
0.0
 11
78.82056
 21
105.740076
 31
0.0
  0
LINE
  5
9E
  8
0
 10
101.55056
 20
107.472126
 30
0.0
 11
102.55056
 21
105.740076
 31
0.0
  0
LINE
  5
9F
  8
3
 10
102.097311
 20
106.525126
 30
0.0
 11
79.273809
 21
106.525126
 31
0.0
  0
LINE
  5
A0
  8
2
 10
78.82056
 20
105.440876
 30
0.0
 11
80.725560000000002
 21
105.440876
 31
0.0
  0
LINE
  5
A1
  8
2
 10
80.725560000000002
 20
97.503376000000003
 30
0.0
 11
80.725560000000002
 21
105.440876
 31
0.0
  0
LINE
  5
A2
  8
2
 10
78.82056
 20
97.503376000000003
 30
0.0
 11
80.725560000000002
 21
97.503376000000003
 31
0.0
  0
LINE
  5
A3
  8
3
 10
102.097311
 20
96.419126000000006
 30
0.0
 11
79.273809
 21
96.419126000000006
 31
0.0
  0
LINE
  5
A4
  8
0
 10
101.55056
 20
95.472125999999989
 30
0.0
 11
102.55056
 21
97.204177000000001
 31
0.0
  0
LINE
  5
A5
  8
0
 10
79.82056
 20
95.472125999999989
 30
0.0
 11
78.82056
 21
97.204177000000001
 31
0.0
  0
LINE
  5
A6
  8
0
 10
79.82056
 20
95.472125999999989
 30
0.0
 11
79.82056
 21
107.472126
 31
0.0
  0
LINE
  5
A7
  8
0
 10
78.82056
 20
97.204177000000001
 30
0.0
 11
78.82056
 21
105.740076
 31
0.0
  0
LINE
  5
A8
  8
0
 10
101.55056
 20
95.472125999999989
 30
0.0
 11
101.55056
 21
107.472126
 31
0.0
  0
LINE
  5
A9
  8
0
 10
101.55056
 20
95.472125999999989
 30
0.0
 11
79.82056
 21
95.472125999999989
 31
0.0
  0
LINE
  5
AA
  8
0
 10
102.55056
 20
97.204177000000001
 30
0.0
 11
102.55056
 21
105.740076
 31
0.0
  0
LINE
  5
AB
  8
1
 10
75.050560000000004
 20
101.472126
 30
0.0
 11
105.05056
 21
101.472126
 31
0.0
  0
LINE
  5
AC
  8
2
 10
97.550560000000004
 20
104.472126
 30
0.0
 11
97.550560000000004
 21
98.472126000000003
 31
0.0
  0
LINE
  5
AD
  8
2
 10
102.55056
 20
104.472126
 30
0.0
 11
97.550560000000004
 21
104.472126
 31
0.0
  0
LINE
  5
AE
  8
2
 10
102.55056
 20
101.472126
 30
0.0
 11
97.550560000000004
 21
101.472126
 31
0.0
  0
LINE
  5
AF
  8
2
 10
102.55056
 20
98.472126000000003
 30
0.0
 11
97.550560000000004
 21
98.472126000000003
 31
0.0
  0
LINE
  5
B0
  8
2
 10
95.550560000000004
 20
101.472126
 30
0.0
 11
97.550560000000004
 21
98.472126000000003
 31
0.0
  0
LINE
  5
B1
  8
2
 10
95.550560000000004
 20
101.472126
 30
0.0
 11
97.550560000000004
 21
104.472126
 31
0.0
  0
TEXT
  5
1D0
  8
0
 62
     3
 10
0.0
 20
0.0
 30
0.0
 40
5.0
  1
PG-12175
  7
STANDARD1
  0
ENDSEC
  0
EOF
