  0
SECTION
  2
HEADER
  9
$ACADVER
  1
AC1009
  9
$INSBASE
 10
0.0
 20
0.0
 30
0.0
  9
$EXTMIN
 10
0.0
 20
-2.960436562073669
 30
0.0
  9
$EXTMAX
 10
306.5
 20
211.5
 30
0.0
  9
$LIMMIN
 10
0.0
 20
0.0
  9
$LIMMAX
 10
375.0
 20
270.0
  9
$ORTHOMODE
 70
     1
  9
$REGENMODE
 70
     1
  9
$FILLMODE
 70
     1
  9
$QTEXTMODE
 70
     0
  9
$MIRRTEXT
 70
     0
  9
$DRAGMODE
 70
     2
  9
$LTSCALE
 40
10.0
  9
$OSMODE
 70
  3071
  9
$ATTMODE
 70
     1
  9
$TEXTSIZE
 40
0.2
  9
$TRACEWID
 40
0.05
  9
$TEXTSTYLE
  7
STANDARD
  9
$CLAYER
  8
0
  9
$CELTYPE
  6
BYLAYER
  9
$CECOLOR
 62
   256
  9
$DIMSCALE
 40
1.0
  9
$DIMASZ
 40
3.0
  9
$DIMEXO
 40
2.0
  9
$DIMDLI
 40
10.0
  9
$DIMRND
 40
0.0
  9
$DIMDLE
 40
0.0
  9
$DIMEXE
 40
2.0
  9
$DIMTP
 40
0.0
  9
$DIMTM
 40
0.0
  9
$DIMTXT
 40
3.2000000000000002
  9
$DIMCEN
 40
0.09
  9
$DIMTSZ
 40
0.0
  9
$DIMTOL
 70
     0
  9
$DIMLIM
 70
     0
  9
$DIMTIH
 70
     0
  9
$DIMTOH
 70
     0
  9
$DIMSE1
 70
     0
  9
$DIMSE2
 70
     0
  9
$DIMTAD
 70
     0
  9
$DIMZIN
 70
     0
  9
$DIMBLK
  1

  9
$DIMASO
 70
     1
  9
$DIMSHO
 70
     0
  9
$DIMPOST
  1

  9
$DIMAPOST
  1

  9
$DIMALT
 70
     0
  9
$DIMALTD
 70
     2
  9
$DIMALTF
 40
25.399999999999999
  9
$DIMLFAC
 40
1.0
  9
$DIMTOFL
 70
     1
  9
$DIMTVP
 40
1.0
  9
$DIMTIX
 70
     0
  9
$DIMSOXD
 70
     0
  9
$DIMSAH
 70
     0
  9
$DIMBLK1
  1

  9
$DIMBLK2
  1

  9
$DIMSTYLE
  2
STANDARD
  9
$DIMCLRD
 70
     0
  9
$DIMCLRE
 70
     0
  9
$DIMCLRT
 70
     0
  9
$DIMTFAC
 40
1.0
  9
$DIMGAP
 40
0.09
  9
$LUNITS
 70
     2
  9
$LUPREC
 70
     4
  9
$SKETCHINC
 40
0.1
  9
$FILLETRAD
 40
2.0
  9
$AUNITS
 70
     0
  9
$AUPREC
 70
     0
  9
$MENU
  1
E:\r13\win\SUPPORT\ACAD
  9
$ELEVATION
 40
0.0
  9
$PELEVATION
 40
0.0
  9
$THICKNESS
 40
0.0
  9
$LIMCHECK
 70
     0
  9
$BLIPMODE
 70
     0
  9
$CHAMFERA
 40
0.0
  9
$CHAMFERB
 40
0.0
  9
$SKPOLY
 70
     0
  9
$TDCREATE
 40
2449839.7818865739
  9
$TDUPDATE
 40
2456597.7186741089
  9
$TDINDWG
 40
0.000167581
  9
$TDUSRTIMER
 40
0.000167581
  9
$USRTIMER
 70
     1
  9
$ANGBASE
 50
0.0
  9
$ANGDIR
 70
     0
  9
$PDMODE
 70
     0
  9
$PDSIZE
 40
0.0
  9
$PLINEWID
 40
0.0
  9
$COORDS
 70
     1
  9
$SPLFRAME
 70
     0
  9
$SPLINETYPE
 70
     6
  9
$SPLINESEGS
 70
     8
  9
$ATTDIA
 70
     0
  9
$ATTREQ
 70
     1
  9
$HANDLING
 70
     1
  9
$HANDSEED
  5
277
  9
$SURFTAB1
 70
     6
  9
$SURFTAB2
 70
     6
  9
$SURFTYPE
 70
     6
  9
$SURFU
 70
     6
  9
$SURFV
 70
     6
  9
$UCSNAME
  2

  9
$UCSORG
 10
0.0
 20
0.0
 30
0.0
  9
$UCSXDIR
 10
1.0
 20
0.0
 30
0.0
  9
$UCSYDIR
 10
0.0
 20
1.0
 30
0.0
  9
$PUCSNAME
  2

  9
$PUCSORG
 10
0.0
 20
0.0
 30
0.0
  9
$PUCSXDIR
 10
1.0
 20
0.0
 30
0.0
  9
$PUCSYDIR
 10
0.0
 20
1.0
 30
0.0
  9
$USERI1
 70
     0
  9
$USERI2
 70
     1
  9
$USERI3
 70
     1
  9
$USERI4
 70
     0
  9
$USERI5
 70
     0
  9
$USERR1
 40
0.0
  9
$USERR2
 40
0.0
  9
$USERR3
 40
0.0
  9
$USERR4
 40
0.0
  9
$USERR5
 40
0.0
  9
$WORLDVIEW
 70
     1
  9
$SHADEDGE
 70
     3
  9
$SHADEDIF
 70
    70
  9
$TILEMODE
 70
     1
  9
$MAXACTVP
 70
    16
  9
$PLIMCHECK
 70
     0
  9
$PEXTMIN
 10
1.0000000000000000E+020
 20
1.0000000000000000E+020
 30
1.0000000000000000E+020
  9
$PEXTMAX
 10
-1.0000000000000000E+020
 20
-1.0000000000000000E+020
 30
-1.0000000000000000E+020
  9
$PLIMMIN
 10
0.0
 20
0.0
  9
$PLIMMAX
 10
12.0
 20
9.0
  9
$UNITMODE
 70
     0
  9
$VISRETAIN
 70
     0
  9
$PLINEGEN
 70
     0
  9
$PSLTSCALE
 70
     0
  0
ENDSEC
  0
SECTION
  2
TABLES
  0
TABLE
  2
VPORT
 70
     1
  0
VPORT
  2
*ACTIVE
 70
     0
 10
0.0
 20
0.0
 11
1.0
 21
1.0
 12
187.49427839065231
 22
134.10366293909439
 13
0.0
 23
0.0
 14
10.0
 24
10.0
 15
10.0
 25
10.0
 16
0.0
 26
0.0
 36
1.0
 17
0.0
 27
0.0
 37
0.0
 40
277.29405978699532
 41
2.304913294797688
 42
50.0
 43
0.0
 44
0.0
 50
0.0
 51
0.0
 71
     0
 72
   500
 73
     1
 74
     0
 75
     0
 76
     0
 77
     0
 78
     2
  0
ENDTAB
  0
TABLE
  2
LTYPE
 70
     4
  0
LTYPE
  2
CONTINUOUS
 70
     0
  3
Solid Line
 72
    65
 73
     0
 40
0.0
  0
LTYPE
  2
CENTER
 70
     0
  3
____ _ ____ _ ____ _ ____ _ ____ _ ____ _ ____
 72
    65
 73
     4
 40
2.0
 49
1.25
 49
-0.25
 49
0.25
 49
-0.25
  0
LTYPE
  2
HIDDEN
 70
     0
  3
_ _ _ _ _ _ _ _ _ _ _ _ _ _ _ _ _ _ _ _ _ _ _
 72
    65
 73
     2
 40
0.375
 49
0.25
 49
-0.125
  0
LTYPE
  2
PHANTOM2
 70
     0
  3
___ _ _ ___ _ _ ___ _ _ ___ _ _
 72
    65
 73
     6
 40
1.25
 49
0.625
 49
-0.125
 49
0.125
 49
-0.125
 49
0.125
 49
-0.125
  0
ENDTAB
  0
TABLE
  2
LAYER
 70
     4
  0
LAYER
  2
0
 70
     0
 62
     7
  6
CONTINUOUS
  0
LAYER
  2
1
 70
     0
 62
     1
  6
CENTER
  0
LAYER
  2
3
 70
     0
 62
     3
  6
CONTINUOUS
  0
LAYER
  2
2
 70
     0
 62
     2
  6
HIDDEN
  0
ENDTAB
  0
TABLE
  2
STYLE
 70
     2
  0
STYLE
  2
STANDARD
 70
     0
 40
0.0
 41
1.0
 50
0.0
 71
     0
 42
0.2
  3
TXT
  4
BIGFONT
  0
STYLE
  2
STANDARD1
 70
     0
 40
0.0
 41
1.0
 50
0.0
 71
     0
 42
3.0
  3
txt
  4

  0
ENDTAB
  0
TABLE
  2
VIEW
 70
     1
  0
VIEW
  2
ALL
 70
     0
 40
270.0
 10
220.99159663865549
 20
135.0
 41
0.0
 11
0.0
 21
0.0
 31
1.0
 12
0.0
 22
0.0
 32
0.0
 42
0.0
 43
0.0
 44
0.0
 50
0.0
 71
     0
  0
ENDTAB
  0
TABLE
  2
UCS
 70
     0
  0
ENDTAB
  0
TABLE
  2
APPID
 70
     3
  0
APPID
  2
ACAD
 70
     0
  0
APPID
  2
ACAD_MLEADERVER
 70
     0
  0
APPID
  2
ACAD_NAV_VCDISPLAY
 70
     0
  0
ENDTAB
  0
TABLE
  2
DIMSTYLE
 70
     1
  0
DIMSTYLE
  2
STANDARD
 70
     0
  3

  4

  5

  6

  7

 40
1.0
 41
0.18
 42
0.0625
 43
0.38
 44
0.18
 45
0.0
 46
0.0
 47
0.0
 48
0.0
140
0.18
141
0.09
142
0.0
143
25.399999999999999
144
1.0
145
0.0
146
1.0
147
0.09
 71
     0
 72
     0
 73
     1
 74
     1
 75
     0
 76
     0
 77
     0
 78
     0
170
     0
171
     2
172
     0
173
     0
174
     0
175
     0
176
     0
177
     0
178
     0
  0
ENDTAB
  0
ENDSEC
  0
SECTION
  2
BLOCKS
  0
BLOCK
  8
0
  2
$MODEL_SPACE
 70
     0
 10
0.0
 20
0.0
 30
0.0
  3
$MODEL_SPACE
  1

  0
ENDBLK
  5
F4
  8
0
  0
BLOCK
 67
     1
  8
0
  2
$PAPER_SPACE
 70
     0
 10
0.0
 20
0.0
 30
0.0
  3
$PAPER_SPACE
  1

  0
ENDBLK
  5
F2
 67
     1
  8
0
  0
ENDSEC
  0
SECTION
  2
ENTITIES
  0
LINE
  5
36
  8
1
 10
146.88288228677291
 20
130.0
 30
0.0
 11
221.882882286773
 21
130.0
 31
0.0
  0
CIRCLE
  5
37
  8
0
 10
80.0
 20
130.0
 30
0.0
 40
11.5
  0
CIRCLE
  5
38
  8
0
 10
80.0
 20
130.0
 30
0.0
 40
9.5
  0
CIRCLE
  5
39
  8
0
 10
80.0
 20
130.0
 30
0.0
 40
5.25
  0
LINE
  5
3A
  8
0
 10
213.93338706621191
 20
141.5
 30
0.0
 11
178.882882286773
 21
141.5
 31
0.0
  0
LINE
  5
3B
  8
0
 10
178.882882286773
 20
141.5
 30
0.0
 11
152.8090106012576
 21
139.56860209736919
 31
0.0
  0
ARC
  5
3C
  8
0
 10
152.882882286773
 20
138.57133434291251
 30
0.0
 40
1.0
 50
94.236394799058857
 51
179.99999999999989
  0
ARC
  5
3D
  8
0
 10
152.882882286773
 20
121.42866565708739
 30
0.0
 40
1.0
 50
180.0
 51
265.76360520094119
  0
LINE
  5
3E
  8
0
 10
178.882882286773
 20
118.5
 30
0.0
 11
152.8090106012576
 21
120.43139790263071
 31
0.0
  0
LINE
  5
3F
  8
0
 10
213.93338706621191
 20
118.5
 30
0.0
 11
178.882882286773
 21
118.5
 31
0.0
  0
LINE
  5
40
  8
0
 10
151.882882286773
 20
138.57133434291251
 30
0.0
 11
151.882882286773
 21
121.42866565708739
 31
0.0
  0
LINE
  5
41
  8
2
 10
152.88288228677291
 20
135.25
 30
0.0
 11
159.382882286773
 21
135.25
 31
0.0
  0
LINE
  5
42
  8
2
 10
196.882882286773
 20
134.1880000000001
 30
0.0
 11
196.88288228677311
 21
125.8119999999999
 31
0.0
  0
LINE
  5
43
  8
2
 10
191.882882286773
 20
135.0
 30
0.0
 11
191.882882286773
 21
125.0
 31
0.0
  0
LINE
  5
44
  8
2
 10
159.382882286773
 20
135.25
 30
0.0
 11
159.382882286773
 21
124.75
 31
0.0
  0
LINE
  5
45
  8
0
 10
178.88288228677291
 20
118.5
 30
0.0
 11
178.88288228677291
 21
141.5
 31
0.0
  0
LINE
  5
46
  8
0
 10
215.1999440790095
 20
120.06650338249889
 30
0.0
 11
215.19994407900941
 21
139.93349661750099
 31
0.0
  0
ARC
  5
47
  8
2
 10
152.88288228677291
 20
136.25
 30
0.0
 40
1.0
 50
179.99999999999949
 51
269.99999999999989
  0
LINE
  5
48
  8
2
 10
152.1757755055863
 20
135.14464897105941
 30
0.0
 11
152.17577550558639
 21
124.8553510289405
 31
0.0
  0
LINE
  5
49
  8
1
 10
96.5
 20
130.0
 30
0.0
 11
63.5
 21
130.0
 31
0.0
  0
LINE
  5
4A
  8
1
 10
80.0
 20
146.5
 30
0.0
 11
80.0
 21
113.5
 31
0.0
  0
ARC
  5
4B
  8
0
 10
166.882882286773
 20
130.0
 30
0.0
 40
50.0
 50
348.58484272111832
 51
11.415158206579269
  0
ARC
  5
4C
  8
0
 10
213.93338706621191
 20
139.5
 30
0.0
 40
2.0
 50
11.41515774273053
 51
90.0
  0
ARC
  5
4D
  8
0
 10
213.93338706621191
 20
120.5
 30
0.0
 40
2.0
 50
270.0
 51
348.58484225727011
  0
LINE
  5
4E
  8
2
 10
159.382882286773
 20
134.1880000000001
 30
0.0
 11
196.882882286773
 21
134.1880000000001
 31
0.0
  0
LINE
  5
4F
  8
2
 10
159.382882286773
 20
135.0
 30
0.0
 11
191.882882286773
 21
135.0
 31
0.0
  0
LINE
  5
50
  8
2
 10
159.382882286773
 20
125.0
 30
0.0
 11
191.882882286773
 21
125.0
 31
0.0
  0
LINE
  5
51
  8
2
 10
159.382882286773
 20
125.8119999999999
 30
0.0
 11
196.882882286773
 21
125.8119999999999
 31
0.0
  0
ARC
  5
52
  8
2
 10
152.88288228677291
 20
123.75
 30
0.0
 40
1.0
 50
90.000000000000057
 51
180.00000000000051
  0
LINE
  5
53
  8
2
 10
152.88288228677291
 20
124.75
 30
0.0
 11
159.382882286773
 21
124.75
 31
0.0
  0
CIRCLE
  5
54
  8
3
 10
80.0
 20
130.0
 30
0.0
 40
5.0
  0
CIRCLE
  5
55
  8
0
 10
80.0
 20
130.0
 30
0.0
 40
4.1879999999999988
  0
LINE
  5
56
  8
1
 10
290.0
 20
146.5
 30
0.0
 11
290.0
 21
113.5
 31
0.0
  0
LINE
  5
57
  8
1
 10
306.5
 20
130.0
 30
0.0
 11
273.5
 21
130.0
 31
0.0
  0
CIRCLE
  5
58
  8
0
 10
290.0
 20
130.0
 30
0.0
 40
11.5
  0
LINE
  5
59
  8
2
 10
152.88288228677291
 20
194.75
 30
0.0
 11
159.382882286773
 21
194.75
 31
0.0
  0
ARC
  5
5A
  8
2
 10
152.88288228677291
 20
193.75
 30
0.0
 40
1.0
 50
90.000000000000057
 51
180.00000000000051
  0
LINE
  5
5B
  8
2
 10
159.382882286773
 20
195.8119999999999
 30
0.0
 11
196.882882286773
 21
195.8119999999999
 31
0.0
  0
LINE
  5
5C
  8
2
 10
159.382882286773
 20
195.0
 30
0.0
 11
191.882882286773
 21
195.0
 31
0.0
  0
LINE
  5
5D
  8
2
 10
159.382882286773
 20
205.0
 30
0.0
 11
191.882882286773
 21
205.0
 31
0.0
  0
LINE
  5
5E
  8
2
 10
159.382882286773
 20
204.1880000000001
 30
0.0
 11
196.882882286773
 21
204.1880000000001
 31
0.0
  0
ARC
  5
5F
  8
0
 10
213.93338706621191
 20
190.5
 30
0.0
 40
2.0
 50
270.0
 51
348.58484225727011
  0
ARC
  5
60
  8
0
 10
213.93338706621191
 20
209.5
 30
0.0
 40
2.0
 50
11.41515774273053
 51
90.0
  0
ARC
  5
61
  8
0
 10
166.882882286773
 20
200.0
 30
0.0
 40
50.0
 50
348.58484272111832
 51
11.415158206579269
  0
LINE
  5
62
  8
2
 10
152.1757755055863
 20
205.1446489710595
 30
0.0
 11
152.17577550558639
 21
194.8553510289405
 31
0.0
  0
ARC
  5
63
  8
2
 10
152.88288228677291
 20
206.25
 30
0.0
 40
1.0
 50
179.99999999999949
 51
269.99999999999989
  0
LINE
  5
64
  8
0
 10
215.1999440790095
 20
190.06650338249889
 30
0.0
 11
215.19994407900941
 21
209.93349661750099
 31
0.0
  0
LINE
  5
65
  8
0
 10
178.88288228677291
 20
188.5
 30
0.0
 11
178.88288228677291
 21
211.5
 31
0.0
  0
LINE
  5
66
  8
2
 10
159.382882286773
 20
205.25
 30
0.0
 11
159.382882286773
 21
194.75
 31
0.0
  0
LINE
  5
67
  8
2
 10
191.882882286773
 20
205.0
 30
0.0
 11
191.882882286773
 21
195.0
 31
0.0
  0
LINE
  5
68
  8
2
 10
196.882882286773
 20
204.1880000000001
 30
0.0
 11
196.88288228677311
 21
195.8119999999999
 31
0.0
  0
LINE
  5
69
  8
2
 10
152.88288228677291
 20
205.25
 30
0.0
 11
159.382882286773
 21
205.25
 31
0.0
  0
LINE
  5
6A
  8
0
 10
151.882882286773
 20
208.57133434291251
 30
0.0
 11
151.882882286773
 21
191.42866565708749
 31
0.0
  0
LINE
  5
6B
  8
0
 10
213.93338706621191
 20
188.5
 30
0.0
 11
178.882882286773
 21
188.5
 31
0.0
  0
LINE
  5
6C
  8
0
 10
178.882882286773
 20
188.5
 30
0.0
 11
152.8090106012576
 21
190.43139790263069
 31
0.0
  0
ARC
  5
6D
  8
0
 10
152.882882286773
 20
191.42866565708749
 30
0.0
 40
1.0
 50
180.0
 51
265.76360520094119
  0
ARC
  5
6E
  8
0
 10
152.882882286773
 20
208.57133434291251
 30
0.0
 40
1.0
 50
94.236394799058857
 51
179.99999999999989
  0
LINE
  5
6F
  8
0
 10
178.882882286773
 20
211.5
 30
0.0
 11
152.8090106012576
 21
209.56860209736931
 31
0.0
  0
LINE
  5
70
  8
0
 10
213.93338706621191
 20
211.5
 30
0.0
 11
178.882882286773
 21
211.5
 31
0.0
  0
LINE
  5
71
  8
1
 10
146.88288228677291
 20
200.0
 30
0.0
 11
221.882882286773
 21
200.0
 31
0.0
  0
LINE
  5
72
  8
2
 10
152.88288228677291
 20
54.749999999999979
 30
0.0
 11
159.382882286773
 21
54.749999999999979
 31
0.0
  0
ARC
  5
73
  8
2
 10
152.88288228677291
 20
53.749999999999993
 30
0.0
 40
1.0
 50
90.000000000000057
 51
180.00000000000051
  0
LINE
  5
74
  8
2
 10
159.382882286773
 20
55.811999999999919
 30
0.0
 11
196.882882286773
 21
55.811999999999919
 31
0.0
  0
LINE
  5
75
  8
2
 10
159.382882286773
 20
55.000000000000007
 30
0.0
 11
191.882882286773
 21
55.000000000000007
 31
0.0
  0
LINE
  5
76
  8
2
 10
159.382882286773
 20
64.999999999999986
 30
0.0
 11
191.882882286773
 21
64.999999999999986
 31
0.0
  0
LINE
  5
77
  8
2
 10
159.382882286773
 20
64.188000000000073
 30
0.0
 11
196.882882286773
 21
64.188000000000073
 31
0.0
  0
ARC
  5
78
  8
0
 10
213.93338706621191
 20
50.499999999999979
 30
0.0
 40
2.0
 50
270.0
 51
348.58484225727011
  0
ARC
  5
79
  8
0
 10
213.93338706621191
 20
69.500000000000014
 30
0.0
 40
2.0
 50
11.41515774273053
 51
90.0
  0
ARC
  5
7A
  8
0
 10
166.882882286773
 20
60.0
 30
0.0
 40
50.0
 50
348.58484272111832
 51
11.415158206579269
  0
LINE
  5
7B
  8
2
 10
152.1757755055863
 20
65.144648971059453
 30
0.0
 11
152.17577550558639
 21
54.855351028940561
 31
0.0
  0
ARC
  5
7C
  8
2
 10
152.88288228677291
 20
66.250000000000014
 30
0.0
 40
1.0
 50
179.99999999999949
 51
269.99999999999989
  0
LINE
  5
7D
  8
0
 10
215.1999440790095
 20
50.066503382498951
 30
0.0
 11
215.19994407900941
 21
69.933496617501049
 31
0.0
  0
LINE
  5
7E
  8
0
 10
178.88288228677291
 20
48.5
 30
0.0
 11
178.88288228677291
 21
71.500000000000014
 31
0.0
  0
LINE
  5
7F
  8
2
 10
159.382882286773
 20
65.250000000000014
 30
0.0
 11
159.382882286773
 21
54.749999999999979
 31
0.0
  0
LINE
  5
80
  8
2
 10
191.882882286773
 20
64.999999999999986
 30
0.0
 11
191.882882286773
 21
55.000000000000028
 31
0.0
  0
LINE
  5
81
  8
2
 10
196.882882286773
 20
64.188000000000073
 30
0.0
 11
196.88288228677311
 21
55.811999999999919
 31
0.0
  0
LINE
  5
82
  8
2
 10
152.88288228677291
 20
65.250000000000014
 30
0.0
 11
159.382882286773
 21
65.250000000000014
 31
0.0
  0
LINE
  5
83
  8
0
 10
151.882882286773
 20
68.571334342912522
 30
0.0
 11
151.882882286773
 21
51.428665657087478
 31
0.0
  0
LINE
  5
84
  8
0
 10
213.93338706621191
 20
48.499999999999979
 30
0.0
 11
178.882882286773
 21
48.5
 31
0.0
  0
LINE
  5
85
  8
0
 10
178.882882286773
 20
48.5
 30
0.0
 11
152.8090106012576
 21
50.431397902630763
 31
0.0
  0
ARC
  5
86
  8
0
 10
152.882882286773
 20
51.428665657087478
 30
0.0
 40
1.0
 50
180.0
 51
265.76360520094119
  0
ARC
  5
87
  8
0
 10
152.882882286773
 20
68.571334342912522
 30
0.0
 40
1.0
 50
94.236394799058857
 51
179.99999999999989
  0
LINE
  5
88
  8
0
 10
178.882882286773
 20
71.5
 30
0.0
 11
152.8090106012576
 21
69.568602097369237
 31
0.0
  0
LINE
  5
89
  8
0
 10
213.93338706621191
 20
71.500000000000014
 30
0.0
 11
178.882882286773
 21
71.5
 31
0.0
  0
LINE
  5
8A
  8
1
 10
146.88288228677291
 20
59.999999999999993
 30
0.0
 11
221.882882286773
 21
60.0
 31
0.0
  0
TEXT
  5
1E0
  8
0
 62
     3
 10
0.0
 20
0.0
 30
0.0
 40
10.0
  1
PG65
  7
STANDARD1
  0
ENDSEC
  0
EOF
