  0
SECTION
  2
HEADER
  9
$ACADVER
  1
AC1009
  9
$INSBASE
 10
0.0
 20
0.0
 30
0.0
  9
$EXTMIN
 10
0.0
 20
-2.960436562073669
 30
0.0
  9
$EXTMAX
 10
309.0
 20
214.0
 30
0.0
  9
$LIMMIN
 10
0.0
 20
0.0
  9
$LIMMAX
 10
375.0
 20
270.0
  9
$ORTHOMODE
 70
     1
  9
$REGENMODE
 70
     1
  9
$FILLMODE
 70
     1
  9
$QTEXTMODE
 70
     0
  9
$MIRRTEXT
 70
     0
  9
$DRAGMODE
 70
     2
  9
$LTSCALE
 40
10.0
  9
$OSMODE
 70
  3071
  9
$ATTMODE
 70
     1
  9
$TEXTSIZE
 40
0.2
  9
$TRACEWID
 40
0.05
  9
$TEXTSTYLE
  7
STANDARD
  9
$CLAYER
  8
0
  9
$CELTYPE
  6
BYLAYER
  9
$CECOLOR
 62
   256
  9
$DIMSCALE
 40
1.0
  9
$DIMASZ
 40
3.0
  9
$DIMEXO
 40
2.0
  9
$DIMDLI
 40
10.0
  9
$DIMRND
 40
0.0
  9
$DIMDLE
 40
0.0
  9
$DIMEXE
 40
2.0
  9
$DIMTP
 40
0.0
  9
$DIMTM
 40
0.0
  9
$DIMTXT
 40
3.2000000000000002
  9
$DIMCEN
 40
0.09
  9
$DIMTSZ
 40
0.0
  9
$DIMTOL
 70
     0
  9
$DIMLIM
 70
     0
  9
$DIMTIH
 70
     0
  9
$DIMTOH
 70
     0
  9
$DIMSE1
 70
     0
  9
$DIMSE2
 70
     0
  9
$DIMTAD
 70
     0
  9
$DIMZIN
 70
     0
  9
$DIMBLK
  1

  9
$DIMASO
 70
     1
  9
$DIMSHO
 70
     0
  9
$DIMPOST
  1

  9
$DIMAPOST
  1

  9
$DIMALT
 70
     0
  9
$DIMALTD
 70
     2
  9
$DIMALTF
 40
25.399999999999999
  9
$DIMLFAC
 40
1.0
  9
$DIMTOFL
 70
     1
  9
$DIMTVP
 40
1.0
  9
$DIMTIX
 70
     0
  9
$DIMSOXD
 70
     0
  9
$DIMSAH
 70
     0
  9
$DIMBLK1
  1

  9
$DIMBLK2
  1

  9
$DIMSTYLE
  2
STANDARD
  9
$DIMCLRD
 70
     0
  9
$DIMCLRE
 70
     0
  9
$DIMCLRT
 70
     0
  9
$DIMTFAC
 40
1.0
  9
$DIMGAP
 40
0.09
  9
$LUNITS
 70
     2
  9
$LUPREC
 70
     4
  9
$SKETCHINC
 40
0.1
  9
$FILLETRAD
 40
0.0
  9
$AUNITS
 70
     0
  9
$AUPREC
 70
     0
  9
$MENU
  1
E:\r13\win\SUPPORT\ACAD
  9
$ELEVATION
 40
0.0
  9
$PELEVATION
 40
0.0
  9
$THICKNESS
 40
0.0
  9
$LIMCHECK
 70
     0
  9
$BLIPMODE
 70
     0
  9
$CHAMFERA
 40
0.0
  9
$CHAMFERB
 40
0.0
  9
$SKPOLY
 70
     0
  9
$TDCREATE
 40
2449839.7819444449
  9
$TDUPDATE
 40
2456597.7187556368
  9
$TDINDWG
 40
0.0001555787
  9
$TDUSRTIMER
 40
0.0001555787
  9
$USRTIMER
 70
     1
  9
$ANGBASE
 50
0.0
  9
$ANGDIR
 70
     0
  9
$PDMODE
 70
     0
  9
$PDSIZE
 40
0.0
  9
$PLINEWID
 40
0.0
  9
$COORDS
 70
     1
  9
$SPLFRAME
 70
     0
  9
$SPLINETYPE
 70
     6
  9
$SPLINESEGS
 70
     8
  9
$ATTDIA
 70
     0
  9
$ATTREQ
 70
     1
  9
$HANDLING
 70
     1
  9
$HANDSEED
  5
277
  9
$SURFTAB1
 70
     6
  9
$SURFTAB2
 70
     6
  9
$SURFTYPE
 70
     6
  9
$SURFU
 70
     6
  9
$SURFV
 70
     6
  9
$UCSNAME
  2

  9
$UCSORG
 10
0.0
 20
0.0
 30
0.0
  9
$UCSXDIR
 10
1.0
 20
0.0
 30
0.0
  9
$UCSYDIR
 10
0.0
 20
1.0
 30
0.0
  9
$PUCSNAME
  2

  9
$PUCSORG
 10
0.0
 20
0.0
 30
0.0
  9
$PUCSXDIR
 10
1.0
 20
0.0
 30
0.0
  9
$PUCSYDIR
 10
0.0
 20
1.0
 30
0.0
  9
$USERI1
 70
     0
  9
$USERI2
 70
     1
  9
$USERI3
 70
     1
  9
$USERI4
 70
     0
  9
$USERI5
 70
     0
  9
$USERR1
 40
0.0
  9
$USERR2
 40
0.0
  9
$USERR3
 40
0.0
  9
$USERR4
 40
0.0
  9
$USERR5
 40
0.0
  9
$WORLDVIEW
 70
     1
  9
$SHADEDGE
 70
     3
  9
$SHADEDIF
 70
    70
  9
$TILEMODE
 70
     1
  9
$MAXACTVP
 70
    16
  9
$PLIMCHECK
 70
     0
  9
$PEXTMIN
 10
1.0000000000000000E+020
 20
1.0000000000000000E+020
 30
1.0000000000000000E+020
  9
$PEXTMAX
 10
-1.0000000000000000E+020
 20
-1.0000000000000000E+020
 30
-1.0000000000000000E+020
  9
$PLIMMIN
 10
0.0
 20
0.0
  9
$PLIMMAX
 10
12.0
 20
9.0
  9
$UNITMODE
 70
     0
  9
$VISRETAIN
 70
     0
  9
$PLINEGEN
 70
     0
  9
$PSLTSCALE
 70
     0
  0
ENDSEC
  0
SECTION
  2
TABLES
  0
TABLE
  2
VPORT
 70
     1
  0
VPORT
  2
*ACTIVE
 70
     0
 10
0.0
 20
0.0
 11
1.0
 21
1.0
 12
187.49427839065231
 22
134.10366293909439
 13
0.0
 23
0.0
 14
10.0
 24
10.0
 15
10.0
 25
10.0
 16
0.0
 26
0.0
 36
1.0
 17
0.0
 27
0.0
 37
0.0
 40
277.29405978699532
 41
2.304913294797688
 42
50.0
 43
0.0
 44
0.0
 50
0.0
 51
0.0
 71
     0
 72
   500
 73
     1
 74
     0
 75
     0
 76
     0
 77
     0
 78
     2
  0
ENDTAB
  0
TABLE
  2
LTYPE
 70
     4
  0
LTYPE
  2
CONTINUOUS
 70
     0
  3
Solid Line
 72
    65
 73
     0
 40
0.0
  0
LTYPE
  2
CENTER
 70
     0
  3
____ _ ____ _ ____ _ ____ _ ____ _ ____ _ ____
 72
    65
 73
     4
 40
2.0
 49
1.25
 49
-0.25
 49
0.25
 49
-0.25
  0
LTYPE
  2
HIDDEN
 70
     0
  3
_ _ _ _ _ _ _ _ _ _ _ _ _ _ _ _ _ _ _ _ _ _ _
 72
    65
 73
     2
 40
0.375
 49
0.25
 49
-0.125
  0
LTYPE
  2
PHANTOM2
 70
     0
  3
___ _ _ ___ _ _ ___ _ _ ___ _ _
 72
    65
 73
     6
 40
1.25
 49
0.625
 49
-0.125
 49
0.125
 49
-0.125
 49
0.125
 49
-0.125
  0
ENDTAB
  0
TABLE
  2
LAYER
 70
     4
  0
LAYER
  2
0
 70
     0
 62
     7
  6
CONTINUOUS
  0
LAYER
  2
1
 70
     0
 62
     1
  6
CENTER
  0
LAYER
  2
3
 70
     0
 62
     3
  6
CONTINUOUS
  0
LAYER
  2
2
 70
     0
 62
     2
  6
HIDDEN
  0
ENDTAB
  0
TABLE
  2
STYLE
 70
     2
  0
STYLE
  2
STANDARD
 70
     0
 40
0.0
 41
1.0
 50
0.0
 71
     0
 42
0.2
  3
TXT
  4
BIGFONT
  0
STYLE
  2
STANDARD1
 70
     0
 40
0.0
 41
1.0
 50
0.0
 71
     0
 42
3.0
  3
txt
  4

  0
ENDTAB
  0
TABLE
  2
VIEW
 70
     1
  0
VIEW
  2
ALL
 70
     0
 40
270.0
 10
220.99159663865549
 20
135.0
 41
0.0
 11
0.0
 21
0.0
 31
1.0
 12
0.0
 22
0.0
 32
0.0
 42
0.0
 43
0.0
 44
0.0
 50
0.0
 71
     0
  0
ENDTAB
  0
TABLE
  2
UCS
 70
     0
  0
ENDTAB
  0
TABLE
  2
APPID
 70
     3
  0
APPID
  2
ACAD
 70
     0
  0
APPID
  2
ACAD_MLEADERVER
 70
     0
  0
APPID
  2
ACAD_NAV_VCDISPLAY
 70
     0
  0
ENDTAB
  0
TABLE
  2
DIMSTYLE
 70
     1
  0
DIMSTYLE
  2
STANDARD
 70
     0
  3

  4

  5

  6

  7

 40
1.0
 41
0.18
 42
0.0625
 43
0.38
 44
0.18
 45
0.0
 46
0.0
 47
0.0
 48
0.0
140
0.18
141
0.09
142
0.0
143
25.399999999999999
144
1.0
145
0.0
146
1.0
147
0.09
 71
     0
 72
     0
 73
     1
 74
     1
 75
     0
 76
     0
 77
     0
 78
     0
170
     0
171
     2
172
     0
173
     0
174
     0
175
     0
176
     0
177
     0
178
     0
  0
ENDTAB
  0
ENDSEC
  0
SECTION
  2
BLOCKS
  0
BLOCK
  8
0
  2
$MODEL_SPACE
 70
     0
 10
0.0
 20
0.0
 30
0.0
  3
$MODEL_SPACE
  1

  0
ENDBLK
  5
F4
  8
0
  0
BLOCK
 67
     1
  8
0
  2
$PAPER_SPACE
 70
     0
 10
0.0
 20
0.0
 30
0.0
  3
$PAPER_SPACE
  1

  0
ENDBLK
  5
F2
 67
     1
  8
0
  0
ENDSEC
  0
SECTION
  2
ENTITIES
  0
LINE
  5
36
  8
1
 10
133.9720785585796
 20
130.0
 30
0.0
 11
233.97207855857971
 21
130.0
 31
0.0
  0
CIRCLE
  5
37
  8
0
 10
80.0
 20
130.0
 30
0.0
 40
14.0
  0
CIRCLE
  5
38
  8
0
 10
80.0
 20
130.0
 30
0.0
 40
11.0
  0
CIRCLE
  5
39
  8
0
 10
80.0
 20
130.0
 30
0.0
 40
6.25
  0
LINE
  5
3A
  8
0
 10
225.0589530457913
 20
144.0
 30
0.0
 11
170.97207855857971
 21
144.0
 31
0.0
  0
LINE
  5
3B
  8
0
 10
170.97207855857971
 20
144.0
 30
0.0
 11
140.1054026727133
 21
141.10624913570001
 31
0.0
  0
ARC
  5
3C
  8
0
 10
225.0589530457913
 20
141.5
 30
0.0
 40
2.5
 50
14.010828074877089
 51
90.0
  0
ARC
  5
3D
  8
0
 10
140.2220785585796
 20
139.8617063531259
 30
0.0
 40
1.25
 50
95.355825042855173
 51
179.99999999999989
  0
ARC
  5
3E
  8
0
 10
140.2220785585796
 20
120.1382936468741
 30
0.0
 40
1.25
 50
180.0
 51
264.6441749571448
  0
ARC
  5
3F
  8
0
 10
225.0589530457913
 20
118.5
 30
0.0
 40
2.5
 50
270.0
 51
345.98917192512289
  0
ARC
  5
40
  8
0
 10
178.97207855857971
 20
130.0
 30
0.0
 40
50.0
 50
345.98917192512289
 51
14.010828074877031
  0
LINE
  5
41
  8
0
 10
170.97207855857971
 20
116.0
 30
0.0
 11
140.1054026727133
 21
118.8937508643
 31
0.0
  0
LINE
  5
42
  8
0
 10
225.0589530457913
 20
116.0
 30
0.0
 11
170.97207855857971
 21
116.0
 31
0.0
  0
LINE
  5
43
  8
0
 10
138.9720785585796
 20
139.861707701825
 30
0.0
 11
138.9720785585796
 21
120.1382936468741
 31
0.0
  0
LINE
  5
44
  8
0
 10
170.97207855857971
 20
116.0
 30
0.0
 11
170.97207855857971
 21
144.0
 31
0.0
  0
LINE
  5
45
  8
0
 10
226.59792057391911
 20
117.7510400314617
 30
0.0
 11
226.59792057391911
 21
142.2489599685382
 31
0.0
  0
LINE
  5
46
  8
2
 10
140.2220785585796
 20
136.25
 30
0.0
 11
146.9720785585796
 21
136.25
 31
0.0
  0
LINE
  5
47
  8
2
 10
206.9720785585796
 20
135.053
 30
0.0
 11
206.97207855857971
 21
124.947
 31
0.0
  0
LINE
  5
48
  8
2
 10
196.9720785585796
 20
136.0
 30
0.0
 11
196.9720785585796
 21
124.0
 31
0.0
  0
LINE
  5
49
  8
2
 10
146.9720785585796
 20
136.25
 30
0.0
 11
146.9720785585796
 21
123.75
 31
0.0
  0
ARC
  5
4A
  8
2
 10
140.2220785585796
 20
137.5
 30
0.0
 40
1.25
 50
180.0
 51
269.99999999999989
  0
LINE
  5
4B
  8
2
 10
139.33819508209641
 20
136.12108296148659
 30
0.0
 11
139.33819508209641
 21
123.87891703851329
 31
0.0
  0
LINE
  5
4C
  8
1
 10
99.0
 20
130.0
 30
0.0
 11
61.0
 21
130.0
 31
0.0
  0
LINE
  5
4D
  8
1
 10
80.0
 20
149.0
 30
0.0
 11
80.0
 21
111.0
 31
0.0
  0
CIRCLE
  5
4E
  8
3
 10
80.0
 20
130.0
 30
0.0
 40
6.0
  0
CIRCLE
  5
4F
  8
0
 10
80.0
 20
130.0
 30
0.0
 40
5.052999999999999
  0
LINE
  5
50
  8
2
 10
146.9720785585796
 20
135.053
 30
0.0
 11
206.9720785585796
 21
135.053
 31
0.0
  0
LINE
  5
51
  8
2
 10
146.9720785585796
 20
136.0
 30
0.0
 11
196.9720785585796
 21
136.0
 31
0.0
  0
LINE
  5
52
  8
2
 10
146.9720785585796
 20
124.0
 30
0.0
 11
196.9720785585796
 21
124.0
 31
0.0
  0
LINE
  5
53
  8
2
 10
146.9720785585796
 20
124.9469999999999
 30
0.0
 11
206.9720785585796
 21
124.9469999999999
 31
0.0
  0
LINE
  5
54
  8
2
 10
140.2220785585796
 20
123.75
 30
0.0
 11
146.9720785585796
 21
123.75
 31
0.0
  0
ARC
  5
55
  8
2
 10
140.2220785585796
 20
122.4999999999999
 30
0.0
 40
1.25
 50
90.000000000000057
 51
180.0
  0
LINE
  5
56
  8
1
 10
309.0
 20
130.0
 30
0.0
 11
271.0
 21
130.0
 31
0.0
  0
CIRCLE
  5
57
  8
0
 10
290.0
 20
130.0
 30
0.0
 40
14.0
  0
LINE
  5
58
  8
1
 10
290.0
 20
149.0
 30
0.0
 11
290.0
 21
111.0
 31
0.0
  0
ARC
  5
5A
  8
2
 10
140.2220785585796
 20
192.5
 30
0.0
 40
1.25
 50
90.000000000000057
 51
180.0
  0
LINE
  5
5B
  8
2
 10
140.2220785585796
 20
193.75
 30
0.0
 11
146.9720785585796
 21
193.75
 31
0.0
  0
LINE
  5
5C
  8
2
 10
146.9720785585796
 20
194.94699999999989
 30
0.0
 11
206.9720785585796
 21
194.94699999999989
 31
0.0
  0
LINE
  5
5D
  8
2
 10
146.9720785585796
 20
194.0
 30
0.0
 11
196.9720785585796
 21
194.0
 31
0.0
  0
LINE
  5
5E
  8
2
 10
146.9720785585796
 20
206.0
 30
0.0
 11
196.9720785585796
 21
206.0
 31
0.0
  0
LINE
  5
5F
  8
2
 10
146.9720785585796
 20
205.053
 30
0.0
 11
206.9720785585796
 21
205.053
 31
0.0
  0
LINE
  5
60
  8
2
 10
139.33819508209641
 20
206.12108296148671
 30
0.0
 11
139.33819508209641
 21
193.87891703851329
 31
0.0
  0
ARC
  5
61
  8
2
 10
140.2220785585796
 20
207.5
 30
0.0
 40
1.25
 50
180.0
 51
269.99999999999989
  0
LINE
  5
62
  8
2
 10
146.9720785585796
 20
206.25
 30
0.0
 11
146.9720785585796
 21
193.75
 31
0.0
  0
LINE
  5
63
  8
2
 10
196.9720785585796
 20
206.0
 30
0.0
 11
196.9720785585796
 21
194.0
 31
0.0
  0
LINE
  5
64
  8
2
 10
206.9720785585796
 20
205.053
 30
0.0
 11
206.97207855857971
 21
194.94699999999989
 31
0.0
  0
LINE
  5
65
  8
2
 10
140.2220785585796
 20
206.25
 30
0.0
 11
146.9720785585796
 21
206.25
 31
0.0
  0
LINE
  5
66
  8
0
 10
226.59792057391911
 20
187.75104003146171
 30
0.0
 11
226.59792057391911
 21
212.2489599685382
 31
0.0
  0
LINE
  5
67
  8
0
 10
170.97207855857971
 20
186.0
 30
0.0
 11
170.97207855857971
 21
214.0
 31
0.0
  0
LINE
  5
68
  8
0
 10
138.9720785585796
 20
209.861707701825
 30
0.0
 11
138.9720785585796
 21
190.1382936468741
 31
0.0
  0
LINE
  5
69
  8
0
 10
225.0589530457913
 20
186.0
 30
0.0
 11
170.97207855857971
 21
186.0
 31
0.0
  0
LINE
  5
6A
  8
0
 10
170.97207855857971
 20
186.0
 30
0.0
 11
140.1054026727133
 21
188.89375086429999
 31
0.0
  0
ARC
  5
6B
  8
0
 10
178.97207855857971
 20
200.0
 30
0.0
 40
50.0
 50
345.98917192512289
 51
14.010828074877031
  0
ARC
  5
6C
  8
0
 10
225.0589530457913
 20
188.5
 30
0.0
 40
2.5
 50
270.0
 51
345.98917192512289
  0
ARC
  5
6D
  8
0
 10
140.2220785585796
 20
190.1382936468741
 30
0.0
 40
1.25
 50
180.0
 51
264.6441749571448
  0
ARC
  5
6E
  8
0
 10
140.2220785585796
 20
209.8617063531259
 30
0.0
 40
1.25
 50
95.355825042855173
 51
179.99999999999989
  0
ARC
  5
6F
  8
0
 10
225.0589530457913
 20
211.5
 30
0.0
 40
2.5
 50
14.010828074877089
 51
90.0
  0
LINE
  5
70
  8
0
 10
170.97207855857971
 20
214.0
 30
0.0
 11
140.1054026727133
 21
211.10624913570001
 31
0.0
  0
LINE
  5
71
  8
0
 10
225.0589530457913
 20
214.0
 30
0.0
 11
170.97207855857971
 21
214.0
 31
0.0
  0
LINE
  5
72
  8
1
 10
133.9720785585796
 20
200.0
 30
0.0
 11
233.97207855857971
 21
200.0
 31
0.0
  0
ARC
  5
73
  8
2
 10
140.2220785585796
 20
52.499999999999972
 30
0.0
 40
1.25
 50
90.000000000000057
 51
180.0
  0
LINE
  5
74
  8
2
 10
140.2220785585796
 20
53.749999999999972
 30
0.0
 11
146.9720785585796
 21
53.749999999999972
 31
0.0
  0
LINE
  5
75
  8
2
 10
146.9720785585796
 20
54.94699999999996
 30
0.0
 11
206.9720785585796
 21
54.94699999999996
 31
0.0
  0
LINE
  5
76
  8
2
 10
146.9720785585796
 20
53.999999999999979
 30
0.0
 11
196.9720785585796
 21
53.999999999999979
 31
0.0
  0
LINE
  5
77
  8
2
 10
146.9720785585796
 20
65.999999999999986
 30
0.0
 11
196.9720785585796
 21
65.999999999999986
 31
0.0
  0
LINE
  5
78
  8
2
 10
146.9720785585796
 20
65.053000000000011
 30
0.0
 11
206.9720785585796
 21
65.053000000000011
 31
0.0
  0
LINE
  5
79
  8
2
 10
139.33819508209641
 20
66.121082961486664
 30
0.0
 11
139.33819508209641
 21
53.8789170385133
 31
0.0
  0
ARC
  5
7A
  8
2
 10
140.2220785585796
 20
67.5
 30
0.0
 40
1.25
 50
180.0
 51
269.99999999999989
  0
LINE
  5
7B
  8
2
 10
146.9720785585796
 20
66.25
 30
0.0
 11
146.9720785585796
 21
53.749999999999993
 31
0.0
  0
LINE
  5
7C
  8
2
 10
196.9720785585796
 20
65.999999999999986
 30
0.0
 11
196.9720785585796
 21
53.999999999999979
 31
0.0
  0
LINE
  5
7D
  8
2
 10
206.9720785585796
 20
65.053000000000011
 30
0.0
 11
206.97207855857971
 21
54.946999999999981
 31
0.0
  0
LINE
  5
7E
  8
2
 10
140.2220785585796
 20
66.25
 30
0.0
 11
146.9720785585796
 21
66.25
 31
0.0
  0
LINE
  5
7F
  8
0
 10
226.59792057391911
 20
47.751040031461748
 30
0.0
 11
226.59792057391911
 21
72.248959968538202
 31
0.0
  0
LINE
  5
80
  8
0
 10
170.97207855857971
 20
46.0
 30
0.0
 11
170.97207855857971
 21
74.000000000000014
 31
0.0
  0
LINE
  5
81
  8
0
 10
138.9720785585796
 20
69.861707701825054
 30
0.0
 11
138.9720785585796
 21
50.138293646874097
 31
0.0
  0
LINE
  5
82
  8
0
 10
225.0589530457913
 20
46.0
 30
0.0
 11
170.97207855857971
 21
46.0
 31
0.0
  0
LINE
  5
83
  8
0
 10
170.97207855857971
 20
46.0
 30
0.0
 11
140.1054026727133
 21
48.893750864299989
 31
0.0
  0
ARC
  5
84
  8
0
 10
178.97207855857971
 20
60.0
 30
0.0
 40
50.0
 50
345.98917192512289
 51
14.010828074877031
  0
ARC
  5
85
  8
0
 10
225.0589530457913
 20
48.5
 30
0.0
 40
2.5
 50
270.0
 51
345.98917192512289
  0
ARC
  5
86
  8
0
 10
140.2220785585796
 20
50.138293646874097
 30
0.0
 40
1.25
 50
180.0
 51
264.6441749571448
  0
ARC
  5
87
  8
0
 10
140.2220785585796
 20
69.861706353125896
 30
0.0
 40
1.25
 50
95.355825042855173
 51
179.99999999999989
  0
ARC
  5
88
  8
0
 10
225.0589530457913
 20
71.5
 30
0.0
 40
2.5
 50
14.010828074877089
 51
90.0
  0
LINE
  5
89
  8
0
 10
170.97207855857971
 20
74.0
 30
0.0
 11
140.1054026727133
 21
71.106249135700011
 31
0.0
  0
LINE
  5
8A
  8
0
 10
225.0589530457913
 20
74.0
 30
0.0
 11
170.97207855857971
 21
74.0
 31
0.0
  0
LINE
  5
8B
  8
1
 10
133.9720785585796
 20
60.0
 30
0.0
 11
233.97207855857971
 21
60.0
 31
0.0
  0
TEXT
  5
1E0
  8
0
 62
     3
 10
0.0
 20
0.0
 30
0.0
 40
10.0
  1
PG90
  7
STANDARD1
  0
ENDSEC
  0
EOF
