  0
SECTION
  2
HEADER
  9
$ACADVER
  1
AC1009
  9
$INSBASE
 10
0.0
 20
0.0
 30
0.0
  9
$EXTMIN
 10
0.0
 20
-2.960436562073669
 30
0.0
  9
$EXTMAX
 10
268.74629963487718
 20
172.81839483598671
 30
0.0
  9
$LIMMIN
 10
0.0
 20
0.0
  9
$LIMMAX
 10
187.5
 20
135.0
  9
$ORTHOMODE
 70
     1
  9
$REGENMODE
 70
     1
  9
$FILLMODE
 70
     1
  9
$QTEXTMODE
 70
     0
  9
$MIRRTEXT
 70
     0
  9
$DRAGMODE
 70
     2
  9
$LTSCALE
 40
5.0
  9
$OSMODE
 70
  3071
  9
$ATTMODE
 70
     1
  9
$TEXTSIZE
 40
0.2
  9
$TRACEWID
 40
0.05
  9
$TEXTSTYLE
  7
STANDARD
  9
$CLAYER
  8
0
  9
$CELTYPE
  6
BYLAYER
  9
$CECOLOR
 62
   256
  9
$DIMSCALE
 40
0.5
  9
$DIMASZ
 40
3.0
  9
$DIMEXO
 40
2.0
  9
$DIMDLI
 40
0.3799999999999999
  9
$DIMRND
 40
0.0
  9
$DIMDLE
 40
0.0
  9
$DIMEXE
 40
2.0
  9
$DIMTP
 40
0.0
  9
$DIMTM
 40
0.0
  9
$DIMTXT
 40
3.2000000000000002
  9
$DIMCEN
 40
0.09
  9
$DIMTSZ
 40
0.0
  9
$DIMTOL
 70
     0
  9
$DIMLIM
 70
     0
  9
$DIMTIH
 70
     0
  9
$DIMTOH
 70
     0
  9
$DIMSE1
 70
     0
  9
$DIMSE2
 70
     0
  9
$DIMTAD
 70
     1
  9
$DIMZIN
 70
     0
  9
$DIMBLK
  1

  9
$DIMASO
 70
     0
  9
$DIMSHO
 70
     0
  9
$DIMPOST
  1

  9
$DIMAPOST
  1

  9
$DIMALT
 70
     0
  9
$DIMALTD
 70
     2
  9
$DIMALTF
 40
25.399999999999999
  9
$DIMLFAC
 40
1.0
  9
$DIMTOFL
 70
     0
  9
$DIMTVP
 40
1.6000000000000001
  9
$DIMTIX
 70
     1
  9
$DIMSOXD
 70
     0
  9
$DIMSAH
 70
     0
  9
$DIMBLK1
  1

  9
$DIMBLK2
  1

  9
$DIMSTYLE
  2
STANDARD
  9
$DIMCLRD
 70
     0
  9
$DIMCLRE
 70
     0
  9
$DIMCLRT
 70
     0
  9
$DIMTFAC
 40
1.0
  9
$DIMGAP
 40
0.09
  9
$LUNITS
 70
     2
  9
$LUPREC
 70
     4
  9
$SKETCHINC
 40
0.1
  9
$FILLETRAD
 40
0.4
  9
$AUNITS
 70
     0
  9
$AUPREC
 70
     0
  9
$MENU
  1
E:\r13\win\SUPPORT\ACAD
  9
$ELEVATION
 40
0.0
  9
$PELEVATION
 40
0.0
  9
$THICKNESS
 40
0.0
  9
$LIMCHECK
 70
     0
  9
$BLIPMODE
 70
     0
  9
$CHAMFERA
 40
0.0
  9
$CHAMFERB
 40
0.0
  9
$SKPOLY
 70
     0
  9
$TDCREATE
 40
2451824.6766573382
  9
$TDUPDATE
 40
2456597.72278956
  9
$TDINDWG
 40
0.0576313426
  9
$TDUSRTIMER
 40
0.0576313426
  9
$USRTIMER
 70
     1
  9
$ANGBASE
 50
0.0
  9
$ANGDIR
 70
     0
  9
$PDMODE
 70
     0
  9
$PDSIZE
 40
0.0
  9
$PLINEWID
 40
0.0
  9
$COORDS
 70
     1
  9
$SPLFRAME
 70
     0
  9
$SPLINETYPE
 70
     6
  9
$SPLINESEGS
 70
     8
  9
$ATTDIA
 70
     0
  9
$ATTREQ
 70
     1
  9
$HANDLING
 70
     1
  9
$HANDSEED
  5
1D6C
  9
$SURFTAB1
 70
     6
  9
$SURFTAB2
 70
     6
  9
$SURFTYPE
 70
     6
  9
$SURFU
 70
     6
  9
$SURFV
 70
     6
  9
$UCSNAME
  2

  9
$UCSORG
 10
0.0
 20
0.0
 30
0.0
  9
$UCSXDIR
 10
1.0
 20
0.0
 30
0.0
  9
$UCSYDIR
 10
0.0
 20
1.0
 30
0.0
  9
$PUCSNAME
  2

  9
$PUCSORG
 10
0.0
 20
0.0
 30
0.0
  9
$PUCSXDIR
 10
1.0
 20
0.0
 30
0.0
  9
$PUCSYDIR
 10
0.0
 20
1.0
 30
0.0
  9
$USERI1
 70
     0
  9
$USERI2
 70
     1
  9
$USERI3
 70
     0
  9
$USERI4
 70
     0
  9
$USERI5
 70
     0
  9
$USERR1
 40
0.0
  9
$USERR2
 40
0.0
  9
$USERR3
 40
0.0
  9
$USERR4
 40
0.0
  9
$USERR5
 40
0.0
  9
$WORLDVIEW
 70
     1
  9
$SHADEDGE
 70
     3
  9
$SHADEDIF
 70
    70
  9
$TILEMODE
 70
     1
  9
$MAXACTVP
 70
    16
  9
$PLIMCHECK
 70
     0
  9
$PEXTMIN
 10
1.0000000000000000E+020
 20
1.0000000000000000E+020
 30
1.0000000000000000E+020
  9
$PEXTMAX
 10
-1.0000000000000000E+020
 20
-1.0000000000000000E+020
 30
-1.0000000000000000E+020
  9
$PLIMMIN
 10
0.0
 20
0.0
  9
$PLIMMAX
 10
12.0
 20
9.0
  9
$UNITMODE
 70
     0
  9
$VISRETAIN
 70
     0
  9
$PLINEGEN
 70
     0
  9
$PSLTSCALE
 70
     0
  0
ENDSEC
  0
SECTION
  2
TABLES
  0
TABLE
  2
VPORT
 70
     1
  0
VPORT
  2
*ACTIVE
 70
     0
 10
0.0
 20
0.0
 11
1.0
 21
1.0
 12
134.3731504431623
 22
85.306448844618345
 13
0.0
 23
0.0
 14
5.0
 24
5.0
 15
5.0
 25
5.0
 16
0.0
 26
0.0
 36
1.0
 17
0.0
 27
0.0
 37
0.0
 40
178.57733231665361
 41
2.304913294797688
 42
50.0
 43
0.0
 44
0.0
 50
0.0
 51
0.0
 71
     0
 72
   500
 73
     1
 74
     0
 75
     0
 76
     0
 77
     0
 78
     2
  0
ENDTAB
  0
TABLE
  2
LTYPE
 70
     4
  0
LTYPE
  2
CONTINUOUS
 70
     0
  3
Solid Line
 72
    65
 73
     0
 40
0.0
  0
LTYPE
  2
CENTER
 70
     0
  3
____ _ ____ _ ____ _ ____ _ ____ _ ____ _ ____
 72
    65
 73
     4
 40
2.0
 49
1.25
 49
-0.25
 49
0.25
 49
-0.25
  0
LTYPE
  2
HIDDEN
 70
     0
  3
_ _ _ _ _ _ _ _ _ _ _ _ _ _ _ _ _ _ _ _ _ _ _
 72
    65
 73
     2
 40
0.375
 49
0.25
 49
-0.125
  0
LTYPE
  2
PHANTOM2
 70
     0
  3
___ _ _ ___ _ _ ___ _ _ ___ _ _
 72
    65
 73
     6
 40
1.25
 49
0.625
 49
-0.125
 49
0.125
 49
-0.125
 49
0.125
 49
-0.125
  0
ENDTAB
  0
TABLE
  2
LAYER
 70
     4
  0
LAYER
  2
0
 70
     0
 62
     7
  6
CONTINUOUS
  0
LAYER
  2
1
 70
     0
 62
     1
  6
CENTER
  0
LAYER
  2
3
 70
     0
 62
     3
  6
CONTINUOUS
  0
LAYER
  2
2
 70
     0
 62
     2
  6
HIDDEN
  0
ENDTAB
  0
TABLE
  2
STYLE
 70
     2
  0
STYLE
  2
STANDARD
 70
     0
 40
0.0
 41
1.0
 50
0.0
 71
     0
 42
0.2
  3
TXT
  4
BIGFONT
  0
STYLE
  2
STANDARD1
 70
     0
 40
0.0
 41
1.0
 50
0.0
 71
     0
 42
3.0
  3
txt
  4

  0
ENDTAB
  0
TABLE
  2
VIEW
 70
     1
  0
VIEW
  2
ALL
 70
     0
 40
135.0
 10
110.4957983193277
 20
67.5
 41
0.0
 11
0.0
 21
0.0
 31
1.0
 12
0.0
 22
0.0
 32
0.0
 42
0.0
 43
0.0
 44
0.0
 50
0.0
 71
     0
  0
ENDTAB
  0
TABLE
  2
UCS
 70
     0
  0
ENDTAB
  0
TABLE
  2
APPID
 70
    18
  0
APPID
  2
ACAD
 70
     0
  0
APPID
  2
GENIUS_GENODEF_13
 70
     0
  0
APPID
  2
GENIUS_GENOBJ-N-FIL_13
 70
     0
  0
APPID
  2
ASM_BASE
 70
     0
  0
APPID
  2
ASM_EXPLO_VER_2_00
 70
     0
  0
APPID
  2
ASM_CADM_VER_12_00
 70
     0
  0
APPID
  2
ASM_BASEFORO
 70
     0
  0
APPID
  2
ASM_BASETRAVI
 70
     0
  0
APPID
  2
ASM_BASETRAVI1
 70
     0
  0
APPID
  2
ASM_GRUPPI
 70
     0
  0
APPID
  2
ASM_CADM_ALBERO
 70
     0
  0
APPID
  2
ASM_GOLE
 70
     0
  0
APPID
  2
_CALL_MAC$
 70
     0
  0
APPID
  2
AVE_RENDER
 70
     0
  0
APPID
  2
AVE_MATERIAL
 70
     0
  0
APPID
  2
ACAD_MLEADERVER
 70
     0
  0
APPID
  2
ACAD_NAV_VCDISPLAY
 70
     0
  0
APPID
  2
ACAD_EXEMPT_FROM_CAD_STANDARDS
 70
     0
  0
ENDTAB
  0
TABLE
  2
DIMSTYLE
 70
     1
  0
DIMSTYLE
  2
STANDARD
 70
     0
  3

  4

  5

  6

  7

 40
1.0
 41
0.18
 42
0.0625
 43
0.38
 44
0.18
 45
0.0
 46
0.0
 47
0.0
 48
0.0
140
0.18
141
0.09
142
0.0
143
25.399999999999999
144
1.0
145
0.0
146
1.0
147
0.09
 71
     0
 72
     0
 73
     1
 74
     1
 75
     0
 76
     0
 77
     0
 78
     0
170
     0
171
     2
172
     0
173
     0
174
     0
175
     0
176
     0
177
     0
178
     0
  0
ENDTAB
  0
ENDSEC
  0
SECTION
  2
BLOCKS
  0
BLOCK
  8
0
  2
$MODEL_SPACE
 70
     0
 10
0.0
 20
0.0
 30
0.0
  3
$MODEL_SPACE
  1

  0
ENDBLK
  5
9CE
  8
0
  0
BLOCK
 67
     1
  8
0
  2
$PAPER_SPACE
 70
     0
 10
0.0
 20
0.0
 30
0.0
  3
$PAPER_SPACE
  1

  0
ENDBLK
  5
9CC
 67
     1
  8
0
  0
ENDSEC
  0
SECTION
  2
ENTITIES
  0
LINE
  5
17C4
  8
3
 10
132.2462996348772
 20
69.006394835981382
 30
0.0
 11
131.91833534820489
 21
69.006394835981382
 31
0.0
  0
LINE
  5
17F2
  8
0
 10
142.8462996348762
 20
68.668394835987556
 30
0.0
 11
142.7462996348772
 21
68.668394835987783
 31
0.0
  0
ARC
  5
17F3
  8
0
 10
142.84629963487711
 20
69.068394835987192
 30
0.0
 40
0.4
 50
269.99999999988597
 51
0.0
  0
LINE
  5
17F4
  8
0
 10
140.2462996348772
 20
74.018394835986555
 30
0.0
 11
142.7462996348772
 21
74.018394835986555
 31
0.0
  0
ARC
  5
17F5
  8
0
 10
136.73553587449851
 20
72.179610768154589
 30
0.0
 40
4.3448986723233833
 50
154.3842474678915
 51
214.3842474680053
  0
LINE
  5
17F6
  8
0
 10
131.2462996348772
 20
68.618394835986919
 30
0.0
 11
132.2462996348772
 21
69.195745105176456
 31
0.0
  0
LINE
  5
17F7
  8
0
 10
133.1498265807295
 20
74.633349412210237
 30
0.0
 11
132.2462996348772
 21
73.068394835986737
 31
0.0
  0
LINE
  5
17F8
  8
0
 10
133.1498265807295
 20
69.725872124099851
 30
0.0
 11
140.2462996348772
 21
69.725872124098487
 31
0.0
  0
LINE
  5
17F9
  8
0
 10
133.1498265807295
 20
74.633349412210237
 30
0.0
 11
140.2462996348772
 21
74.633349412210237
 31
0.0
  0
LINE
  5
17FA
  8
0
 10
142.7462996348772
 20
55.618394835986457
 30
0.0
 11
140.2462996348772
 21
55.618394835986457
 31
0.0
  0
LINE
  5
17FB
  8
0
 10
142.8462996348762
 20
60.968394835986373
 30
0.0
 11
142.7462996348772
 21
60.968394835986139
 31
0.0
  0
ARC
  5
17FC
  8
0
 10
142.84629963487711
 20
60.568394835986282
 30
0.0
 40
0.4
 50
0.0
 51
90.000000000117254
  0
ARC
  5
17FD
  8
0
 10
136.73553587449851
 20
57.457178903818892
 30
0.0
 40
4.3448986723233833
 50
145.6157525319947
 51
205.6157525321085
  0
LINE
  5
17FE
  8
0
 10
133.1498265807295
 20
55.003440259763238
 30
0.0
 11
132.2462996348772
 21
56.56839483598673
 31
0.0
  0
LINE
  5
17FF
  8
0
 10
131.2462996348772
 20
61.018394835986562
 30
0.0
 11
132.2462996348772
 21
60.441044566797011
 31
0.0
  0
LINE
  5
1800
  8
0
 10
133.1498265807295
 20
55.003440259763238
 30
0.0
 11
140.2462996348772
 21
55.003440259763238
 31
0.0
  0
LINE
  5
1801
  8
3
 10
132.2462996348772
 20
60.630394835992092
 30
0.0
 11
131.91833534820489
 21
60.630394835992092
 31
0.0
  0
LINE
  5
1802
  8
0
 10
133.1498265807295
 20
59.910917547874078
 30
0.0
 11
140.2462996348772
 21
59.910917547874988
 31
0.0
  0
LINE
  5
1803
  8
0
 10
132.2462996348772
 20
56.56839483598673
 30
0.0
 11
132.2462996348772
 21
73.068394835987192
 31
0.0
  0
LINE
  5
1804
  8
0
 10
140.2462996348772
 20
55.003440259763238
 30
0.0
 11
140.2462996348772
 21
74.633349412210237
 31
0.0
  0
LINE
  5
1805
  8
0
 10
140.2462996348772
 20
55.618394835986457
 30
0.0
 11
140.2462996348772
 21
74.018394835986555
 31
0.0
  0
LINE
  5
1806
  8
0
 10
142.7462996348772
 20
74.018394835986555
 30
0.0
 11
142.7462996348772
 21
55.618394835986457
 31
0.0
  0
LINE
  5
1807
  8
0
 10
131.2462996348772
 20
61.018394835986562
 30
0.0
 11
131.2462996348772
 21
68.618394835986919
 31
0.0
  0
ARC
  5
1808
  8
0
 10
148.63144782364179
 20
64.818394835986282
 30
0.0
 40
16.24081062146659
 50
162.41204622602871
 51
197.58795377397121
  0
LINE
  5
1809
  8
0
 10
143.2462996348772
 20
70.818394835986737
 30
0.0
 11
143.2462996348772
 21
58.818394835986737
 31
0.0
  0
LINE
  5
180D
  8
0
 10
79.746299634877232
 20
69.725872124098487
 30
0.0
 11
71.246299634877232
 21
74.633349412210237
 31
0.0
  0
LINE
  5
180E
  8
0
 10
71.246299634877232
 20
74.633349412210237
 30
0.0
 11
62.746299634877232
 21
69.725872124098487
 31
0.0
  0
LINE
  5
180F
  8
0
 10
62.746299634877232
 20
59.910917547874988
 30
0.0
 11
71.246299634877232
 21
55.003440259763011
 31
0.0
  0
LINE
  5
1810
  8
0
 10
71.246299634877232
 20
55.003440259763011
 30
0.0
 11
79.746299634877232
 21
59.910917547874988
 31
0.0
  0
LINE
  5
1811
  8
0
 10
62.746299634877232
 20
69.725872124098487
 30
0.0
 11
62.746299634877232
 21
59.910917547874988
 31
0.0
  0
LINE
  5
1812
  8
0
 10
79.746299634877232
 20
59.910917547874988
 30
0.0
 11
79.746299634877232
 21
69.725872124098487
 31
0.0
  0
CIRCLE
  5
1813
  8
0
 10
71.246299634877232
 20
64.818394835986723
 30
0.0
 40
8.25
  0
ARC
  5
1814
  8
0
 10
71.246299634877232
 20
64.818394835986723
 30
0.0
 40
9.5
 50
213.47464798339061
 51
266.5253520166097
  0
CIRCLE
  5
1815
  8
0
 10
71.246299634877232
 20
64.818394835986723
 30
0.0
 40
5.0
  0
CIRCLE
  5
1816
  8
3
 10
71.246299634877232
 20
64.818394835986723
 30
0.0
 40
4.1879999999999988
  0
LINE
  5
1817
  8
1
 10
164.7462996348772
 20
46.818394835986282
 30
0.0
 11
182.74629963487769
 21
46.818394835986737
 31
0.0
  0
LINE
  5
1818
  8
1
 10
164.7462996348772
 20
82.818394835986723
 30
0.0
 11
182.74629963487669
 21
82.818394835986723
 31
0.0
  0
LINE
  5
1819
  8
1
 10
71.246299634877232
 20
93.818394835986723
 30
0.0
 11
71.246299634877232
 21
35.818394835986737
 31
0.0
  0
LINE
  5
181A
  8
1
 10
100.2462996348772
 20
64.818394835986723
 30
0.0
 11
42.246299634877232
 21
64.818394835986723
 31
0.0
  0
CIRCLE
  5
181B
  8
1
 10
71.246299634877232
 20
64.818394835986723
 30
0.0
 40
18.0
  0
LINE
  5
181C
  8
2
 10
173.2462996348772
 20
51.56839483598673
 30
0.0
 11
173.2462996348772
 21
42.06839483598673
 31
0.0
  0
LINE
  5
181D
  8
2
 10
167.7462996348772
 20
51.56839483598673
 30
0.0
 11
173.2462996348772
 21
51.568394835986282
 31
0.0
  0
LINE
  5
181E
  8
2
 10
167.7462996348772
 20
42.06839483598673
 30
0.0
 11
173.2462996348772
 21
42.06839483598673
 31
0.0
  0
LINE
  5
181F
  8
2
 10
173.2462996348772
 20
49.818394835985828
 30
0.0
 11
179.74629963487681
 21
49.818394835985828
 31
0.0
  0
LINE
  5
1820
  8
2
 10
173.2462996348772
 20
49.276894835986468
 30
0.0
 11
179.7462996348772
 21
49.276894835986468
 31
0.0
  0
LINE
  5
1821
  8
2
 10
173.2462996348772
 20
44.359894835985642
 30
0.0
 11
179.74629963487629
 21
44.359894835985642
 31
0.0
  0
LINE
  5
1822
  8
2
 10
173.2462996348772
 20
43.818394835985821
 30
0.0
 11
179.74629963487629
 21
43.818394835985821
 31
0.0
  0
LINE
  5
1823
  8
2
 10
173.2462996348772
 20
78.068394835986737
 30
0.0
 11
173.2462996348772
 21
87.568394835986723
 31
0.0
  0
LINE
  5
1824
  8
2
 10
173.2462996348772
 20
79.818394835987647
 30
0.0
 11
179.74629963487681
 21
79.818394835987647
 31
0.0
  0
LINE
  5
1825
  8
2
 10
173.2462996348772
 20
80.359894835987006
 30
0.0
 11
179.7462996348772
 21
80.359894835987006
 31
0.0
  0
LINE
  5
1826
  8
2
 10
173.2462996348772
 20
85.276894835987818
 30
0.0
 11
179.74629963487629
 21
85.276894835987818
 31
0.0
  0
LINE
  5
1827
  8
2
 10
173.2462996348772
 20
85.818394835987647
 30
0.0
 11
179.74629963487629
 21
85.818394835987647
 31
0.0
  0
LINE
  5
1828
  8
2
 10
167.7462996348772
 20
78.068394835986737
 30
0.0
 11
173.2462996348772
 21
78.068394835987192
 31
0.0
  0
LINE
  5
1829
  8
2
 10
167.7462996348772
 20
87.568394835986723
 30
0.0
 11
173.2462996348772
 21
87.568394835986723
 31
0.0
  0
LINE
  5
182A
  8
0
 10
167.74629963487629
 20
88.818394835986723
 30
0.0
 11
179.7462996348772
 21
88.818394835986723
 31
0.0
  0
LINE
  5
182B
  8
0
 10
167.74629963487769
 20
40.81839483598673
 30
0.0
 11
179.74629963487681
 21
40.81839483598673
 31
0.0
  0
LINE
  5
182C
  8
0
 10
143.2462996348772
 20
70.818394835986737
 30
0.0
 11
152.34629963487711
 21
70.818394835986737
 31
0.0
  0
LINE
  5
182D
  8
0
 10
143.2462996348772
 20
58.818394835986737
 30
0.0
 11
152.34629963487711
 21
58.818394835986737
 31
0.0
  0
ARC
  5
182E
  8
0
 10
152.34629963487711
 20
71.218394835986828
 30
0.0
 40
0.4
 50
270.0
 51
0.0
  0
ARC
  5
182F
  8
0
 10
152.34629963487711
 20
58.418394835986653
 30
0.0
 40
0.4
 50
0.0
 51
90.0
  0
LINE
  5
1830
  8
0
 10
152.74629963487669
 20
74.318394835986737
 30
0.0
 11
152.7462996348772
 21
55.31839483598673
 31
0.0
  0
LINE
  5
1831
  8
0
 10
152.7462996348772
 20
74.318394835986737
 30
0.0
 11
167.74629963487669
 21
74.318394835986282
 31
0.0
  0
LINE
  5
1832
  8
0
 10
152.7462996348772
 20
55.31839483598673
 30
0.0
 11
167.74629963487669
 21
55.31839483598673
 31
0.0
  0
LINE
  5
1833
  8
1
 10
126.2462996348772
 20
64.818394835986723
 30
0.0
 11
184.7462996348772
 21
64.818394835986723
 31
0.0
  0
LINE
  5
1834
  8
0
 10
179.74629963487769
 20
40.81839483598673
 30
0.0
 11
179.74629963487681
 21
88.818394835986723
 31
0.0
  0
LINE
  5
1835
  8
0
 10
167.74629963487769
 20
40.81839483598673
 30
0.0
 11
167.7462996348772
 21
88.818394835986723
 31
0.0
  0
CIRCLE
  5
1836
  8
3
 10
71.246299634877232
 20
82.818394835986723
 30
0.0
 40
3.0
  0
CIRCLE
  5
1837
  8
0
 10
71.246299634877232
 20
82.818394835986723
 30
0.0
 40
2.458499999999999
  0
CIRCLE
  5
1838
  8
0
 10
89.246299634877218
 20
64.818394835986723
 30
0.0
 40
4.75
  0
CIRCLE
  5
1839
  8
0
 10
89.246299634877218
 20
64.818394835986723
 30
0.0
 40
2.458499999999999
  0
CIRCLE
  5
183A
  8
3
 10
89.246299634877218
 20
64.818394835986723
 30
0.0
 40
3.0
  0
CIRCLE
  5
183B
  8
3
 10
71.246299634877232
 20
46.818394835986737
 30
0.0
 40
3.0
  0
CIRCLE
  5
183C
  8
0
 10
71.246299634877232
 20
46.818394835986737
 30
0.0
 40
2.458499999999999
  0
CIRCLE
  5
183D
  8
0
 10
53.246299634877232
 20
64.818394835986723
 30
0.0
 40
4.75
  0
CIRCLE
  5
183E
  8
0
 10
53.246299634877232
 20
64.818394835986723
 30
0.0
 40
2.458499999999999
  0
CIRCLE
  5
183F
  8
3
 10
53.246299634877232
 20
64.818394835986723
 30
0.0
 40
3.0
  0
CIRCLE
  5
1840
  8
0
 10
71.246299634877232
 20
46.818394835986737
 30
0.0
 40
4.75
  0
CIRCLE
  5
1841
  8
0
 10
71.246299634877232
 20
64.818394835986723
 30
0.0
 40
24.0
  0
CIRCLE
  5
1842
  8
0
 10
71.246299634877232
 20
82.818394835986723
 30
0.0
 40
4.75
  0
LINE
  5
18C5
  8
0
 10
167.74629963487769
 20
124.81839483598669
 30
0.0
 11
167.7462996348772
 21
172.81839483598671
 31
0.0
  0
LINE
  5
18C6
  8
0
 10
179.74629963487769
 20
124.81839483598669
 30
0.0
 11
179.74629963487681
 21
172.81839483598671
 31
0.0
  0
LINE
  5
18C7
  8
1
 10
126.2462996348772
 20
148.81839483598671
 30
0.0
 11
184.7462996348772
 21
148.81839483598671
 31
0.0
  0
LINE
  5
18C8
  8
0
 10
152.7462996348772
 20
139.31839483598671
 30
0.0
 11
167.74629963487669
 21
139.31839483598671
 31
0.0
  0
LINE
  5
18C9
  8
0
 10
152.7462996348772
 20
158.31839483598671
 30
0.0
 11
167.74629963487669
 21
158.31839483598631
 31
0.0
  0
LINE
  5
18CA
  8
0
 10
152.74629963487669
 20
158.31839483598671
 30
0.0
 11
152.7462996348772
 21
139.31839483598671
 31
0.0
  0
ARC
  5
18CB
  8
0
 10
152.34629963487711
 20
142.41839483598659
 30
0.0
 40
0.4
 50
0.0
 51
90.0
  0
ARC
  5
18CC
  8
0
 10
152.34629963487711
 20
155.2183948359868
 30
0.0
 40
0.4
 50
270.0
 51
0.0
  0
LINE
  5
18CD
  8
0
 10
143.2462996348772
 20
142.81839483598671
 30
0.0
 11
152.34629963487711
 21
142.81839483598671
 31
0.0
  0
LINE
  5
18CE
  8
0
 10
143.2462996348772
 20
154.81839483598671
 30
0.0
 11
152.34629963487711
 21
154.81839483598671
 31
0.0
  0
LINE
  5
18CF
  8
0
 10
167.74629963487769
 20
124.81839483598669
 30
0.0
 11
179.74629963487681
 21
124.81839483598669
 31
0.0
  0
LINE
  5
18D0
  8
0
 10
167.74629963487629
 20
172.81839483598671
 30
0.0
 11
179.7462996348772
 21
172.81839483598671
 31
0.0
  0
LINE
  5
18D1
  8
2
 10
167.7462996348772
 20
171.56839483598671
 30
0.0
 11
173.2462996348772
 21
171.56839483598671
 31
0.0
  0
LINE
  5
18D2
  8
2
 10
167.7462996348772
 20
162.06839483598671
 30
0.0
 11
173.2462996348772
 21
162.06839483598719
 31
0.0
  0
LINE
  5
18D3
  8
2
 10
173.2462996348772
 20
169.81839483598759
 30
0.0
 11
179.74629963487629
 21
169.81839483598759
 31
0.0
  0
LINE
  5
18D4
  8
2
 10
173.2462996348772
 20
169.2768948359878
 30
0.0
 11
179.74629963487629
 21
169.2768948359878
 31
0.0
  0
LINE
  5
18D5
  8
2
 10
173.2462996348772
 20
164.35989483598701
 30
0.0
 11
179.7462996348772
 21
164.35989483598701
 31
0.0
  0
LINE
  5
18D6
  8
2
 10
173.2462996348772
 20
163.81839483598759
 30
0.0
 11
179.74629963487681
 21
163.81839483598759
 31
0.0
  0
LINE
  5
18D7
  8
2
 10
173.2462996348772
 20
162.06839483598671
 30
0.0
 11
173.2462996348772
 21
171.56839483598671
 31
0.0
  0
LINE
  5
18D8
  8
2
 10
173.2462996348772
 20
127.8183948359858
 30
0.0
 11
179.74629963487629
 21
127.8183948359858
 31
0.0
  0
LINE
  5
18D9
  8
2
 10
173.2462996348772
 20
128.35989483598561
 30
0.0
 11
179.74629963487629
 21
128.35989483598561
 31
0.0
  0
LINE
  5
18DA
  8
2
 10
173.2462996348772
 20
133.2768948359865
 30
0.0
 11
179.7462996348772
 21
133.2768948359865
 31
0.0
  0
LINE
  5
18DB
  8
2
 10
173.2462996348772
 20
133.8183948359858
 30
0.0
 11
179.74629963487681
 21
133.8183948359858
 31
0.0
  0
LINE
  5
18DC
  8
2
 10
167.7462996348772
 20
126.06839483598669
 30
0.0
 11
173.2462996348772
 21
126.06839483598669
 31
0.0
  0
LINE
  5
18DD
  8
2
 10
167.7462996348772
 20
135.56839483598671
 30
0.0
 11
173.2462996348772
 21
135.56839483598631
 31
0.0
  0
LINE
  5
18DE
  8
2
 10
173.2462996348772
 20
135.56839483598671
 30
0.0
 11
173.2462996348772
 21
126.06839483598669
 31
0.0
  0
LINE
  5
18DF
  8
1
 10
164.7462996348772
 20
166.81839483598671
 30
0.0
 11
182.74629963487669
 21
166.81839483598671
 31
0.0
  0
LINE
  5
18E0
  8
1
 10
164.7462996348772
 20
130.81839483598631
 30
0.0
 11
182.74629963487769
 21
130.81839483598671
 31
0.0
  0
LINE
  5
18E1
  8
0
 10
143.2462996348772
 20
154.81839483598671
 30
0.0
 11
143.2462996348772
 21
142.81839483598671
 31
0.0
  0
LINE
  5
18E3
  8
0
 10
131.2462996348772
 20
145.0183948359865
 30
0.0
 11
131.2462996348772
 21
152.61839483598689
 31
0.0
  0
LINE
  5
18E4
  8
0
 10
142.7462996348772
 20
158.0183948359865
 30
0.0
 11
142.7462996348772
 21
139.61839483598641
 31
0.0
  0
LINE
  5
18E5
  8
0
 10
140.2462996348772
 20
139.61839483598641
 30
0.0
 11
140.2462996348772
 21
158.0183948359865
 31
0.0
  0
LINE
  5
18E6
  8
0
 10
140.2462996348772
 20
139.61839483598641
 30
0.0
 11
140.2462996348772
 21
157.31839483598671
 31
0.0
  0
LINE
  5
18E7
  8
0
 10
132.2462996348772
 20
140.56839483598671
 30
0.0
 11
132.2462996348772
 21
157.06839483598719
 31
0.0
  0
LINE
  5
18E9
  8
3
 10
132.2462996348772
 20
144.63039483599209
 30
0.0
 11
131.91833534820489
 21
144.63039483599209
 31
0.0
  0
LINE
  5
18EB
  8
0
 10
131.2462996348772
 20
145.0183948359865
 30
0.0
 11
132.2462996348772
 21
144.44104456679699
 31
0.0
  0
ARC
  5
18ED
  8
0
 10
144.66614384059301
 20
153.06839483598671
 30
0.0
 40
12.275506638417831
 50
159.74384199960841
 51
200.25615800039159
  0
ARC
  5
18EE
  8
0
 10
142.84629963487711
 20
144.56839483598631
 30
0.0
 40
0.4
 50
0.0
 51
90.000000000117254
  0
LINE
  5
18EF
  8
0
 10
142.8462996348762
 20
144.96839483598629
 30
0.0
 11
142.7462996348772
 21
144.96839483598609
 31
0.0
  0
LINE
  5
18F0
  8
0
 10
142.7462996348772
 20
139.61839483598641
 30
0.0
 11
140.2462996348772
 21
139.61839483598641
 31
0.0
  0
LINE
  5
18F1
  8
0
 10
132.39063720217521
 20
157.31839483598671
 30
0.0
 11
140.2462996348772
 21
157.31839483598671
 31
0.0
  0
LINE
  5
18F3
  8
0
 10
132.39063720217521
 20
157.31839483598671
 30
0.0
 11
132.2462996348772
 21
157.06839483598719
 31
0.0
  0
LINE
  5
18F4
  8
0
 10
131.2462996348772
 20
152.61839483598689
 30
0.0
 11
132.2462996348772
 21
153.1957451051764
 31
0.0
  0
LINE
  5
18F6
  8
0
 10
140.2462996348772
 20
158.0183948359865
 30
0.0
 11
142.7462996348772
 21
158.0183948359865
 31
0.0
  0
ARC
  5
18F7
  8
0
 10
142.84629963487711
 20
153.06839483598719
 30
0.0
 40
0.4
 50
269.99999999988597
 51
0.0
  0
LINE
  5
18F8
  8
0
 10
142.8462996348762
 20
152.6683948359875
 30
0.0
 11
142.7462996348772
 21
152.66839483598781
 31
0.0
  0
LINE
  5
18F9
  8
3
 10
132.2462996348772
 20
153.00639483598141
 30
0.0
 11
131.91833534820489
 21
153.00639483598141
 31
0.0
  0
ARC
  5
1915
  8
0
 10
71.246299634877232
 20
64.818394835986723
 30
0.0
 40
9.5
 50
273.4746479833903
 51
326.52535201660942
  0
ARC
  5
1916
  8
0
 10
71.246299634877232
 20
64.818394835986723
 30
0.0
 40
9.5
 50
333.47464798339001
 51
26.525352016609979
  0
ARC
  5
1917
  8
0
 10
71.246299634877232
 20
64.818394835986723
 30
0.0
 40
9.5
 50
33.474647983390241
 51
86.525352016609673
  0
ARC
  5
1918
  8
0
 10
71.246299634877232
 20
64.818394835986723
 30
0.0
 40
9.5
 50
93.474647983390327
 51
146.52535201660999
  0
LINE
  5
191B
  8
0
 10
133.14982658072901
 20
148.81839483598671
 30
0.0
 11
140.2462996348772
 21
148.81839483598651
 31
0.0
  0
ARC
  5
191F
  8
0
 10
144.66614384059301
 20
144.56839483598679
 30
0.0
 40
12.275506638417831
 50
159.74384199960841
 51
200.25615800039159
  0
LINE
  5
196C
  8
0
 10
132.3906372021768
 20
140.3183948359848
 30
0.0
 11
132.24629963487871
 21
140.56839483598429
 31
0.0
  0
LINE
  5
196D
  8
0
 10
132.3906372021768
 20
140.3183948359848
 30
0.0
 11
140.2462996348788
 21
140.31839483598631
 31
0.0
  0
CIRCLE
  5
1974
  8
0
 10
239.7462996348772
 20
64.818394835985714
 30
0.0
 40
24.0
  0
CIRCLE
  5
1976
  8
3
 10
257.74629963487718
 20
64.818394835985714
 30
0.0
 40
3.0
  0
CIRCLE
  5
1977
  8
0
 10
257.74629963487718
 20
64.818394835985714
 30
0.0
 40
2.458499999999999
  0
CIRCLE
  5
1979
  8
0
 10
239.7462996348772
 20
46.818394835985707
 30
0.0
 40
2.458499999999999
  0
CIRCLE
  5
197A
  8
3
 10
239.7462996348772
 20
46.818394835985707
 30
0.0
 40
3.0
  0
CIRCLE
  5
197B
  8
3
 10
221.7462996348772
 20
64.818394835985714
 30
0.0
 40
3.0
  0
CIRCLE
  5
197C
  8
0
 10
221.7462996348772
 20
64.818394835985714
 30
0.0
 40
2.458499999999999
  0
CIRCLE
  5
197E
  8
0
 10
239.7462996348772
 20
82.818394835985714
 30
0.0
 40
2.458499999999999
  0
CIRCLE
  5
197F
  8
3
 10
239.7462996348772
 20
82.818394835985714
 30
0.0
 40
3.0
  0
CIRCLE
  5
1980
  8
1
 10
239.7462996348772
 20
64.818394835985714
 30
0.0
 40
18.0
  0
LINE
  5
1981
  8
1
 10
210.7462996348772
 20
64.818394835985714
 30
0.0
 11
268.74629963487718
 21
64.818394835985714
 31
0.0
  0
LINE
  5
1982
  8
1
 10
239.7462996348772
 20
93.818394835985714
 30
0.0
 11
239.7462996348772
 21
35.818394835985707
 31
0.0
  0
ARC
  5
1B80
  8
0
 10
71.246299634877232
 20
64.818394835986723
 30
0.0
 40
9.5
 50
153.47464798339001
 51
206.52535201660999
  0
LINE
  5
1B8C
  8
2
 10
173.2462996348772
 20
60.068394835986737
 30
0.0
 11
173.2462996348772
 21
69.568394835986737
 31
0.0
  0
LINE
  5
1B8D
  8
2
 10
173.2462996348772
 20
61.81839483598764
 30
0.0
 11
179.74629963487681
 21
61.81839483598764
 31
0.0
  0
LINE
  5
1B8E
  8
2
 10
173.2462996348772
 20
62.359894835986999
 30
0.0
 11
179.7462996348772
 21
62.359894835986999
 31
0.0
  0
LINE
  5
1B8F
  8
2
 10
173.2462996348772
 20
67.276894835987832
 30
0.0
 11
179.74629963487629
 21
67.276894835987832
 31
0.0
  0
LINE
  5
1B90
  8
2
 10
173.2462996348772
 20
67.818394835987647
 30
0.0
 11
179.74629963487629
 21
67.818394835987647
 31
0.0
  0
LINE
  5
1B91
  8
2
 10
167.7462996348772
 20
60.068394835986737
 30
0.0
 11
173.2462996348772
 21
60.068394835987192
 31
0.0
  0
LINE
  5
1B92
  8
2
 10
167.7462996348772
 20
69.568394835986737
 30
0.0
 11
173.2462996348772
 21
69.568394835986737
 31
0.0
  0
LINE
  5
1B93
  8
2
 10
173.2462996348776
 20
144.06839483598671
 30
0.0
 11
173.2462996348776
 21
153.56839483598671
 31
0.0
  0
LINE
  5
1B94
  8
2
 10
173.2462996348776
 20
145.81839483598759
 30
0.0
 11
179.74629963487709
 21
145.81839483598759
 31
0.0
  0
LINE
  5
1B95
  8
2
 10
173.2462996348776
 20
146.35989483598701
 30
0.0
 11
179.7462996348776
 21
146.35989483598701
 31
0.0
  0
LINE
  5
1B96
  8
2
 10
173.2462996348776
 20
151.2768948359878
 30
0.0
 11
179.74629963487661
 21
151.2768948359878
 31
0.0
  0
LINE
  5
1B97
  8
2
 10
173.2462996348776
 20
151.81839483598759
 30
0.0
 11
179.74629963487661
 21
151.81839483598759
 31
0.0
  0
LINE
  5
1B98
  8
2
 10
167.74629963487749
 20
144.06839483598671
 30
0.0
 11
173.2462996348776
 21
144.06839483598719
 31
0.0
  0
LINE
  5
1B99
  8
2
 10
167.74629963487749
 20
153.56839483598671
 30
0.0
 11
173.2462996348776
 21
153.56839483598671
 31
0.0
  0
ARC
  5
1C11
  8
0
 10
71.246299634877232
 20
64.818394835986723
 30
0.0
 40
9.1999999999998181
 50
97.505017828874287
 51
142.49498217112449
  0
ARC
  5
1C14
  8
0
 10
71.246299634877232
 20
64.818394835986723
 30
0.0
 40
9.1999999999998181
 50
37.505017828875481
 51
82.494982171125713
  0
ARC
  5
1C15
  8
0
 10
71.246299634877232
 20
64.818394835986723
 30
0.0
 40
9.1999999999998181
 50
337.50501782887608
 51
22.49498217112389
  0
ARC
  5
1C16
  8
0
 10
71.246299634877232
 20
64.818394835986723
 30
0.0
 40
9.1999999999998181
 50
277.50501782887761
 51
322.49498217112432
  0
ARC
  5
1C17
  8
0
 10
71.246299634877232
 20
64.818394835986723
 30
0.0
 40
9.1999999999998181
 50
217.50501782887571
 51
262.49498217112239
  0
ARC
  5
1C18
  8
0
 10
71.246299634877232
 20
64.818394835986723
 30
0.0
 40
9.1999999999998181
 50
157.50501782887611
 51
202.49498217112381
  0
TEXT
  5
1D14
  8
0
 62
     3
 10
0.0
 20
0.0
 30
0.0
 40
10.0
  1
PID1210-F
  7
STANDARD1
  0
ENDSEC
  0
EOF
