  0
SECTION
  2
HEADER
  9
$ACADVER
  1
AC1009
  9
$INSBASE
 10
0.0
 20
0.0
 30
0.0
  9
$EXTMIN
 10
0.0
 20
-1.4802182810368341
 30
0.0
  9
$EXTMAX
 10
258.68011100000001
 20
125.059208
 30
0.0
  9
$LIMMIN
 10
0.0
 20
0.0
  9
$LIMMAX
 10
283.0
 20
175.0
  9
$ORTHOMODE
 70
     1
  9
$REGENMODE
 70
     1
  9
$FILLMODE
 70
     1
  9
$QTEXTMODE
 70
     0
  9
$MIRRTEXT
 70
     0
  9
$DRAGMODE
 70
     2
  9
$LTSCALE
 40
10.0
  9
$OSMODE
 70
  3071
  9
$ATTMODE
 70
     1
  9
$TEXTSIZE
 40
0.2
  9
$TRACEWID
 40
0.05
  9
$TEXTSTYLE
  7
STANDARD
  9
$CLAYER
  8
0
  9
$CELTYPE
  6
BYLAYER
  9
$CECOLOR
 62
   256
  9
$DIMSCALE
 40
1.0
  9
$DIMASZ
 40
3.0
  9
$DIMEXO
 40
1.0
  9
$DIMDLI
 40
6.0
  9
$DIMRND
 40
0.0
  9
$DIMDLE
 40
0.0
  9
$DIMEXE
 40
1.0
  9
$DIMTP
 40
495.0
  9
$DIMTM
 40
0.0
  9
$DIMTXT
 40
3.0
  9
$DIMCEN
 40
0.0
  9
$DIMTSZ
 40
0.0
  9
$DIMTOL
 70
     0
  9
$DIMLIM
 70
     0
  9
$DIMTIH
 70
     0
  9
$DIMTOH
 70
     0
  9
$DIMSE1
 70
     0
  9
$DIMSE2
 70
     0
  9
$DIMTAD
 70
     1
  9
$DIMZIN
 70
     0
  9
$DIMBLK
  1

  9
$DIMASO
 70
     0
  9
$DIMSHO
 70
     0
  9
$DIMPOST
  1

  9
$DIMAPOST
  1

  9
$DIMALT
 70
     0
  9
$DIMALTD
 70
     2
  9
$DIMALTF
 40
25.399999999999999
  9
$DIMLFAC
 40
1.0
  9
$DIMTOFL
 70
     1
  9
$DIMTVP
 40
0.0
  9
$DIMTIX
 70
     1
  9
$DIMSOXD
 70
     0
  9
$DIMSAH
 70
     0
  9
$DIMBLK1
  1

  9
$DIMBLK2
  1

  9
$DIMSTYLE
  2
STANDARD
  9
$DIMCLRD
 70
     0
  9
$DIMCLRE
 70
     0
  9
$DIMCLRT
 70
     0
  9
$DIMTFAC
 40
1.0
  9
$DIMGAP
 40
0.09
  9
$LUNITS
 70
     2
  9
$LUPREC
 70
     2
  9
$SKETCHINC
 40
0.1
  9
$FILLETRAD
 40
1.0
  9
$AUNITS
 70
     0
  9
$AUPREC
 70
     2
  9
$MENU
  1
E:\r13\win\SUPPORT\ACAD
  9
$ELEVATION
 40
0.0
  9
$PELEVATION
 40
0.0
  9
$THICKNESS
 40
0.0
  9
$LIMCHECK
 70
     0
  9
$BLIPMODE
 70
     0
  9
$CHAMFERA
 40
0.0
  9
$CHAMFERB
 40
0.0
  9
$SKPOLY
 70
     0
  9
$TDCREATE
 40
2449839.7754861112
  9
$TDUPDATE
 40
2456597.7229101621
  9
$TDINDWG
 40
0.0711009606
  9
$TDUSRTIMER
 40
0.0711009606
  9
$USRTIMER
 70
     1
  9
$ANGBASE
 50
0.0
  9
$ANGDIR
 70
     0
  9
$PDMODE
 70
     0
  9
$PDSIZE
 40
0.0
  9
$PLINEWID
 40
0.0
  9
$COORDS
 70
     1
  9
$SPLFRAME
 70
     0
  9
$SPLINETYPE
 70
     6
  9
$SPLINESEGS
 70
     8
  9
$ATTDIA
 70
     0
  9
$ATTREQ
 70
     1
  9
$HANDLING
 70
     1
  9
$HANDSEED
  5
30D
  9
$SURFTAB1
 70
     6
  9
$SURFTAB2
 70
     6
  9
$SURFTYPE
 70
     6
  9
$SURFU
 70
     6
  9
$SURFV
 70
     6
  9
$UCSNAME
  2

  9
$UCSORG
 10
0.0
 20
0.0
 30
0.0
  9
$UCSXDIR
 10
1.0
 20
0.0
 30
0.0
  9
$UCSYDIR
 10
0.0
 20
1.0
 30
0.0
  9
$PUCSNAME
  2

  9
$PUCSORG
 10
0.0
 20
0.0
 30
0.0
  9
$PUCSXDIR
 10
1.0
 20
0.0
 30
0.0
  9
$PUCSYDIR
 10
0.0
 20
1.0
 30
0.0
  9
$USERI1
 70
     4
  9
$USERI2
 70
     1
  9
$USERI3
 70
     0
  9
$USERI4
 70
     1
  9
$USERI5
 70
     0
  9
$USERR1
 40
1.0
  9
$USERR2
 40
3.0
  9
$USERR3
 40
3.0
  9
$USERR4
 40
3.0
  9
$USERR5
 40
10.0
  9
$WORLDVIEW
 70
     1
  9
$SHADEDGE
 70
     3
  9
$SHADEDIF
 70
    70
  9
$TILEMODE
 70
     1
  9
$MAXACTVP
 70
    16
  9
$PLIMCHECK
 70
     0
  9
$PEXTMIN
 10
1.0000000000000000E+020
 20
1.0000000000000000E+020
 30
1.0000000000000000E+020
  9
$PEXTMAX
 10
-1.0000000000000000E+020
 20
-1.0000000000000000E+020
 30
-1.0000000000000000E+020
  9
$PLIMMIN
 10
0.0
 20
0.0
  9
$PLIMMAX
 10
12.0
 20
9.0
  9
$UNITMODE
 70
     0
  9
$VISRETAIN
 70
     0
  9
$PLINEGEN
 70
     0
  9
$PSLTSCALE
 70
     0
  0
ENDSEC
  0
SECTION
  2
TABLES
  0
TABLE
  2
VPORT
 70
     1
  0
VPORT
  2
*ACTIVE
 70
     0
 10
0.0
 20
0.0
 11
1.0
 21
1.0
 12
141.49568209214561
 22
87.138385753246766
 13
0.0
 23
0.0
 14
1.0
 24
1.0
 15
10.0
 25
10.0
 16
0.0
 26
0.0
 36
1.0
 17
0.0
 27
0.0
 37
0.0
 40
179.28006185333709
 41
2.304913294797688
 42
50.0
 43
0.0
 44
0.0
 50
0.0
 51
0.0
 71
     0
 72
   100
 73
     1
 74
     0
 75
     0
 76
     0
 77
     0
 78
     0
  0
ENDTAB
  0
TABLE
  2
LTYPE
 70
     4
  0
LTYPE
  2
CONTINUOUS
 70
     0
  3
Solid Line
 72
    65
 73
     0
 40
0.0
  0
LTYPE
  2
CENTER
 70
     0
  3
____ _ ____ _ ____ _ ____ _ ____ _ ____ _ ____
 72
    65
 73
     4
 40
2.0
 49
1.25
 49
-0.25
 49
0.25
 49
-0.25
  0
LTYPE
  2
HIDDEN
 70
     0
  3
_ _ _ _ _ _ _ _ _ _ _ _ _ _ _ _ _ _ _ _ _ _ _
 72
    65
 73
     2
 40
0.375
 49
0.25
 49
-0.125
  0
LTYPE
  2
PHANTOM2
 70
     0
  3
___ _ _ ___ _ _ ___ _ _ ___ _ _
 72
    65
 73
     6
 40
1.25
 49
0.625
 49
-0.125
 49
0.125
 49
-0.125
 49
0.125
 49
-0.125
  0
ENDTAB
  0
TABLE
  2
LAYER
 70
     4
  0
LAYER
  2
0
 70
     0
 62
     7
  6
CONTINUOUS
  0
LAYER
  2
2
 70
     0
 62
     2
  6
HIDDEN
  0
LAYER
  2
1
 70
     0
 62
     1
  6
CENTER
  0
LAYER
  2
3
 70
     0
 62
     3
  6
CONTINUOUS
  0
ENDTAB
  0
TABLE
  2
STYLE
 70
     2
  0
STYLE
  2
STANDARD
 70
     0
 40
0.0
 41
1.0
 50
0.0
 71
     0
 42
0.2
  3
SIMPLEX
  4
BIGFONT
  0
STYLE
  2
STANDARD1
 70
     0
 40
0.0
 41
1.0
 50
0.0
 71
     0
 42
3.0
  3
txt
  4

  0
ENDTAB
  0
TABLE
  2
VIEW
 70
     0
  0
ENDTAB
  0
TABLE
  2
UCS
 70
     0
  0
ENDTAB
  0
TABLE
  2
APPID
 70
     3
  0
APPID
  2
ACAD
 70
     0
  0
APPID
  2
ACAD_MLEADERVER
 70
     0
  0
APPID
  2
ACAD_NAV_VCDISPLAY
 70
     0
  0
ENDTAB
  0
TABLE
  2
DIMSTYLE
 70
     1
  0
DIMSTYLE
  2
STANDARD
 70
     0
  3

  4

  5

  6

  7

 40
1.0
 41
0.18
 42
0.0625
 43
0.38
 44
0.18
 45
0.0
 46
0.0
 47
0.0
 48
0.0
140
0.18
141
0.09
142
0.0
143
25.399999999999999
144
1.0
145
0.0
146
1.0
147
0.09
 71
     0
 72
     0
 73
     1
 74
     1
 75
     0
 76
     0
 77
     0
 78
     0
170
     0
171
     2
172
     0
173
     0
174
     0
175
     0
176
     0
177
     0
178
     0
  0
ENDTAB
  0
ENDSEC
  0
SECTION
  2
BLOCKS
  0
BLOCK
  8
0
  2
$MODEL_SPACE
 70
     0
 10
0.0
 20
0.0
 30
0.0
  3
$MODEL_SPACE
  1

  0
ENDBLK
  5
15E
  8
0
  0
BLOCK
 67
     1
  8
0
  2
$PAPER_SPACE
 70
     0
 10
0.0
 20
0.0
 30
0.0
  3
$PAPER_SPACE
  1

  0
ENDBLK
  5
15C
 67
     1
  8
0
  0
ENDSEC
  0
SECTION
  2
ENTITIES
  0
LINE
  5
2D
  8
0
 10
69.238905000000003
 20
88.449841000000006
 30
0.0
 11
69.238905000000003
 21
97.949841000000006
 31
0.0
  0
LINE
  5
2E
  8
0
 10
71.238905000000003
 20
99.199841000000006
 30
0.0
 11
87.238905000000017
 21
99.199841000000006
 31
0.0
  0
LINE
  5
2F
  8
0
 10
88.238905000000003
 20
98.199841000000006
 30
0.0
 11
88.238905000000003
 21
93.699841000000006
 31
0.0
  0
LINE
  5
30
  8
0
 10
87.238905000000017
 20
87.199841000000006
 30
0.0
 11
71.238905000000003
 21
87.199841000000006
 31
0.0
  0
CIRCLE
  5
31
  8
0
 10
35.810528000000012
 20
93.199841000000006
 30
0.0
 40
6.0
  0
LINE
  5
32
  8
1
 10
35.810528000000012
 20
104.19984100000001
 30
0.0
 11
35.810528000000012
 21
82.199841000000006
 31
0.0
  0
LINE
  5
33
  8
1
 10
46.810527999999998
 20
93.199841000000006
 30
0.0
 11
24.810528000000001
 21
93.199841000000006
 31
0.0
  0
LINE
  5
34
  8
0
 10
32.144809000000002
 20
97.949841000000006
 30
0.0
 11
39.476247999999998
 21
97.949841000000006
 31
0.0
  0
LINE
  5
35
  8
0
 10
32.144809000000002
 20
88.449841000000006
 30
0.0
 11
39.476247999999998
 21
88.449841000000006
 31
0.0
  0
CIRCLE
  5
36
  8
3
 10
35.810528000000012
 20
93.199841000000006
 30
0.0
 40
3.0
  0
CIRCLE
  5
37
  8
0
 10
35.810528000000012
 20
93.199841000000006
 30
0.0
 40
2.5
  0
LINE
  5
38
  8
0
 10
34.078476999999999
 20
93.199841000000006
 30
0.0
 11
34.944502999999997
 21
91.699841000000006
 31
0.0
  0
LINE
  5
39
  8
0
 10
34.944502999999997
 20
94.699841000000006
 30
0.0
 11
34.078476999999999
 21
93.199841000000006
 31
0.0
  0
LINE
  5
3A
  8
0
 10
36.676554000000003
 20
94.699841000000006
 30
0.0
 11
34.944502999999997
 21
94.699841000000006
 31
0.0
  0
LINE
  5
3B
  8
0
 10
37.542579000000003
 20
93.199841000000006
 30
0.0
 11
36.676554000000003
 21
94.699841000000006
 31
0.0
  0
LINE
  5
3C
  8
0
 10
36.676554000000003
 20
91.699841000000006
 30
0.0
 11
37.542579000000003
 21
93.199841000000006
 31
0.0
  0
LINE
  5
3D
  8
0
 10
34.944502999999997
 20
91.699841000000006
 30
0.0
 11
36.676554000000003
 21
91.699841000000006
 31
0.0
  0
LINE
  5
3E
  8
0
 10
69.238905000000003
 20
97.949841000000006
 30
0.0
 11
71.238905000000003
 21
97.949841000000006
 31
0.0
  0
LINE
  5
3F
  8
0
 10
71.238905000000003
 20
97.949841000000006
 30
0.0
 11
71.238905000000003
 21
99.199841000000006
 31
0.0
  0
LINE
  5
40
  8
0
 10
69.238905000000003
 20
88.449841000000006
 30
0.0
 11
71.238905000000003
 21
88.449841000000006
 31
0.0
  0
LINE
  5
41
  8
0
 10
71.238905000000003
 20
88.449841000000006
 30
0.0
 11
71.238905000000003
 21
87.199841000000006
 31
0.0
  0
LINE
  5
42
  8
0
 10
88.238905000000003
 20
92.699841000000006
 30
0.0
 11
78.738905000000003
 21
92.699841000000006
 31
0.0
  0
LINE
  5
43
  8
0
 10
78.738905000000003
 20
92.699841000000006
 30
0.0
 11
78.738905000000003
 21
93.699841000000006
 31
0.0
  0
LINE
  5
44
  8
0
 10
78.738905000000003
 20
93.699841000000006
 30
0.0
 11
88.238905000000003
 21
93.699841000000006
 31
0.0
  0
LINE
  5
45
  8
0
 10
88.238905000000003
 20
92.699841000000006
 30
0.0
 11
88.238905000000003
 21
88.199841000000006
 31
0.0
  0
LINE
  5
46
  8
2
 10
78.738905000000003
 20
93.699841000000006
 30
0.0
 11
78.738905000000003
 21
99.199841000000006
 31
0.0
  0
LINE
  5
47
  8
2
 10
78.738905000000003
 20
92.699841000000006
 30
0.0
 11
78.738905000000003
 21
87.199841000000006
 31
0.0
  0
LINE
  5
48
  8
1
 10
64.238905000000003
 20
93.199841000000006
 30
0.0
 11
93.238905000000003
 21
93.199841000000006
 31
0.0
  0
LINE
  5
4A
  8
1
 10
111.272336
 20
93.199841000000006
 30
0.0
 11
133.272336
 21
93.199841000000006
 31
0.0
  0
LINE
  5
4B
  8
1
 10
122.272336
 20
104.19984100000001
 30
0.0
 11
122.272336
 21
82.199841000000006
 31
0.0
  0
CIRCLE
  5
4C
  8
0
 10
122.272336
 20
93.199841000000006
 30
0.0
 40
6.0
  0
LINE
  5
4D
  8
0
 10
116.293206
 20
93.699841000000006
 30
0.0
 11
120.85812300000001
 21
93.699841000000006
 31
0.0
  0
LINE
  5
4E
  8
0
 10
116.293206
 20
92.699841000000006
 30
0.0
 11
120.85812300000001
 21
92.699841000000006
 31
0.0
  0
LINE
  5
4F
  8
0
 10
121.772336
 20
87.220710999999994
 30
0.0
 11
121.772336
 21
91.785627999999988
 31
0.0
  0
LINE
  5
50
  8
0
 10
122.772336
 20
87.220710999999994
 30
0.0
 11
122.772336
 21
91.785627999999988
 31
0.0
  0
CIRCLE
  5
51
  8
0
 10
122.272336
 20
93.199841000000006
 30
0.0
 40
1.5
  0
ARC
  5
52
  8
0
 10
122.272336
 20
93.199841000000006
 30
0.0
 40
3.0
 50
9.594068
 51
80.405931999999993
  0
ARC
  5
53
  8
0
 10
122.272336
 20
93.199841000000006
 30
0.0
 40
3.0
 50
99.594068000000007
 51
170.40593200000001
  0
ARC
  5
54
  8
0
 10
122.272336
 20
93.199841000000006
 30
0.0
 40
3.0
 50
189.59406799999999
 51
260.40593200000001
  0
ARC
  5
55
  8
0
 10
122.272336
 20
93.199841000000006
 30
0.0
 40
3.0
 50
279.59406799999999
 51
350.40593200000001
  0
LINE
  5
56
  8
0
 10
121.772336
 20
94.614055000000008
 30
0.0
 11
121.772336
 21
99.178972000000002
 31
0.0
  0
LINE
  5
57
  8
0
 10
122.772336
 20
94.614055000000008
 30
0.0
 11
122.772336
 21
99.178972000000002
 31
0.0
  0
LINE
  5
58
  8
0
 10
123.68655
 20
93.699841000000006
 30
0.0
 11
128.25146599999999
 21
93.699841000000006
 31
0.0
  0
LINE
  5
59
  8
0
 10
123.68655
 20
92.699841000000006
 30
0.0
 11
128.25146599999999
 21
92.699841000000006
 31
0.0
  0
ARC
  5
5A
  8
0
 10
87.238905000000017
 20
98.199841000000006
 30
0.0
 40
1.0
 50
0.0
 51
90.0
  0
ARC
  5
5B
  8
0
 10
87.238905000000017
 20
88.199841000000006
 30
0.0
 40
1.0
 50
270.0
 51
0.0
  0
ARC
  5
5C
  8
0
 10
87.238905000000017
 20
62.340474999999991
 30
0.0
 40
1.0
 50
270.0
 51
0.0
  0
ARC
  5
5D
  8
0
 10
87.238905000000017
 20
72.340474999999984
 30
0.0
 40
1.0
 50
0.0
 51
90.0
  0
LINE
  5
5E
  8
1
 10
64.238905000000003
 20
67.340474999999984
 30
0.0
 11
93.238905000000003
 21
67.340474999999984
 31
0.0
  0
LINE
  5
5F
  8
2
 10
78.738905000000003
 20
66.840474999999998
 30
0.0
 11
78.738905000000003
 21
61.340474999999998
 31
0.0
  0
LINE
  5
60
  8
2
 10
78.738905000000003
 20
67.840474999999984
 30
0.0
 11
78.738905000000003
 21
73.340474999999998
 31
0.0
  0
LINE
  5
61
  8
0
 10
88.238905000000003
 20
66.840474999999998
 30
0.0
 11
88.238905000000003
 21
62.340474999999991
 31
0.0
  0
LINE
  5
62
  8
0
 10
78.738905000000003
 20
67.840474999999984
 30
0.0
 11
88.238905000000003
 21
67.840474999999984
 31
0.0
  0
LINE
  5
63
  8
0
 10
78.738905000000003
 20
66.840474999999998
 30
0.0
 11
78.738905000000003
 21
67.840474999999984
 31
0.0
  0
LINE
  5
64
  8
0
 10
88.238905000000003
 20
66.840474999999998
 30
0.0
 11
78.738905000000003
 21
66.840474999999998
 31
0.0
  0
LINE
  5
65
  8
0
 10
87.238905000000017
 20
61.340474999999998
 30
0.0
 11
69.738905000000003
 21
61.340474999999998
 31
0.0
  0
LINE
  5
66
  8
0
 10
88.238905000000003
 20
72.340474999999984
 30
0.0
 11
88.238905000000003
 21
67.840474999999984
 31
0.0
  0
LINE
  5
67
  8
0
 10
69.738905000000003
 20
73.340474999999998
 30
0.0
 11
87.238905000000017
 21
73.340474999999998
 31
0.0
  0
LINE
  5
68
  8
0
 10
69.238905000000003
 20
61.840474999999998
 30
0.0
 11
69.238905000000003
 21
72.840474999999984
 31
0.0
  0
LINE
  5
69
  8
0
 10
69.738905000000003
 20
63.674755000000012
 30
0.0
 11
71.238905000000003
 21
63.674755000000012
 31
0.0
  0
LINE
  5
6A
  8
0
 10
69.738905000000003
 20
71.006193999999994
 30
0.0
 11
71.238905000000003
 21
71.006193999999994
 31
0.0
  0
LINE
  5
6B
  8
0
 10
71.238905000000003
 20
71.006193999999994
 30
0.0
 11
71.238905000000003
 21
63.674755000000012
 31
0.0
  0
LINE
  5
6C
  8
0
 10
69.238905000000003
 20
124.559208
 30
0.0
 11
69.238905000000003
 21
113.559208
 31
0.0
  0
LINE
  5
6D
  8
0
 10
69.738905000000003
 20
113.059208
 30
0.0
 11
87.238905000000017
 21
113.059208
 31
0.0
  0
LINE
  5
6E
  8
0
 10
88.238905000000003
 20
114.059208
 30
0.0
 11
88.238905000000003
 21
118.559208
 31
0.0
  0
LINE
  5
6F
  8
0
 10
87.238905000000017
 20
125.059208
 30
0.0
 11
69.738905000000003
 21
125.059208
 31
0.0
  0
LINE
  5
70
  8
0
 10
88.238905000000003
 20
119.559208
 30
0.0
 11
78.738905000000003
 21
119.559208
 31
0.0
  0
LINE
  5
71
  8
0
 10
78.738905000000003
 20
119.559208
 30
0.0
 11
78.738905000000003
 21
118.559208
 31
0.0
  0
LINE
  5
72
  8
0
 10
78.738905000000003
 20
118.559208
 30
0.0
 11
88.238905000000003
 21
118.559208
 31
0.0
  0
LINE
  5
73
  8
0
 10
88.238905000000003
 20
119.559208
 30
0.0
 11
88.238905000000003
 21
124.059208
 31
0.0
  0
LINE
  5
74
  8
2
 10
78.738905000000003
 20
118.559208
 30
0.0
 11
78.738905000000003
 21
113.059208
 31
0.0
  0
LINE
  5
75
  8
2
 10
78.738905000000003
 20
119.559208
 30
0.0
 11
78.738905000000003
 21
125.059208
 31
0.0
  0
LINE
  5
76
  8
1
 10
64.238905000000003
 20
119.059208
 30
0.0
 11
93.238905000000003
 21
119.059208
 31
0.0
  0
ARC
  5
77
  8
0
 10
87.238905000000017
 20
114.059208
 30
0.0
 40
1.0
 50
270.0
 51
0.0
  0
ARC
  5
78
  8
0
 10
87.238905000000017
 20
124.059208
 30
0.0
 40
1.0
 50
0.0
 51
90.0
  0
LINE
  5
79
  8
0
 10
194.64668
 20
61.840474999999998
 30
0.0
 11
194.64668
 21
72.840474999999984
 31
0.0
  0
LINE
  5
7A
  8
0
 10
195.14668
 20
73.340474999999998
 30
0.0
 11
212.64668
 21
73.340474999999998
 31
0.0
  0
LINE
  5
7B
  8
0
 10
213.64668
 20
72.340474999999984
 30
0.0
 11
213.64668
 21
67.840474999999984
 31
0.0
  0
LINE
  5
7C
  8
0
 10
212.64668
 20
61.340474999999998
 30
0.0
 11
195.14668
 21
61.340474999999998
 31
0.0
  0
LINE
  5
7D
  8
0
 10
213.64668
 20
66.840474999999998
 30
0.0
 11
204.14668
 21
66.840474999999998
 31
0.0
  0
LINE
  5
7E
  8
0
 10
204.14668
 20
66.840474999999998
 30
0.0
 11
204.14668
 21
67.840474999999984
 31
0.0
  0
LINE
  5
7F
  8
0
 10
204.14668
 20
67.840474999999984
 30
0.0
 11
213.64668
 21
67.840474999999984
 31
0.0
  0
LINE
  5
80
  8
0
 10
213.64668
 20
66.840474999999998
 30
0.0
 11
213.64668
 21
62.340474999999991
 31
0.0
  0
LINE
  5
81
  8
2
 10
204.14668
 20
67.840474999999984
 30
0.0
 11
204.14668
 21
73.340474999999998
 31
0.0
  0
LINE
  5
82
  8
2
 10
204.14668
 20
66.840474999999998
 30
0.0
 11
204.14668
 21
61.340474999999998
 31
0.0
  0
LINE
  5
83
  8
1
 10
189.64668
 20
67.340474999999984
 30
0.0
 11
218.64668
 21
67.340474999999984
 31
0.0
  0
ARC
  5
84
  8
0
 10
212.64668
 20
72.340474999999984
 30
0.0
 40
1.0
 50
0.0
 51
90.0
  0
ARC
  5
85
  8
0
 10
212.64668
 20
62.340474999999991
 30
0.0
 40
1.0
 50
270.0
 51
0.0
  0
ARC
  5
86
  8
0
 10
212.64668
 20
88.199841000000006
 30
0.0
 40
1.0
 50
270.0
 51
0.0
  0
ARC
  5
87
  8
0
 10
212.64668
 20
98.199841000000006
 30
0.0
 40
1.0
 50
0.0
 51
90.0
  0
LINE
  5
88
  8
0
 10
249.094325
 20
92.699841000000006
 30
0.0
 11
253.65924200000001
 21
92.699841000000006
 31
0.0
  0
LINE
  5
89
  8
0
 10
249.094325
 20
93.699841000000006
 30
0.0
 11
253.65924200000001
 21
93.699841000000006
 31
0.0
  0
LINE
  5
8A
  8
0
 10
248.18011100000001
 20
94.614055000000008
 30
0.0
 11
248.18011100000001
 21
99.178972000000002
 31
0.0
  0
LINE
  5
8B
  8
0
 10
247.18011100000001
 20
94.614055000000008
 30
0.0
 11
247.18011100000001
 21
99.178972000000002
 31
0.0
  0
ARC
  5
8C
  8
0
 10
247.68011100000001
 20
93.199841000000006
 30
0.0
 40
3.0
 50
279.59406799999999
 51
350.40593200000001
  0
ARC
  5
8D
  8
0
 10
247.68011100000001
 20
93.199841000000006
 30
0.0
 40
3.0
 50
189.59406799999999
 51
260.40593200000001
  0
ARC
  5
8E
  8
0
 10
247.68011100000001
 20
93.199841000000006
 30
0.0
 40
3.0
 50
99.594068000000007
 51
170.40593200000001
  0
ARC
  5
8F
  8
0
 10
247.68011100000001
 20
93.199841000000006
 30
0.0
 40
3.0
 50
9.594068
 51
80.405931999999993
  0
CIRCLE
  5
90
  8
0
 10
247.68011100000001
 20
93.199841000000006
 30
0.0
 40
1.5
  0
LINE
  5
91
  8
0
 10
248.18011100000001
 20
87.220710999999994
 30
0.0
 11
248.18011100000001
 21
91.785627999999988
 31
0.0
  0
LINE
  5
92
  8
0
 10
247.18011100000001
 20
87.220710999999994
 30
0.0
 11
247.18011100000001
 21
91.785627999999988
 31
0.0
  0
LINE
  5
93
  8
0
 10
241.70098100000001
 20
92.699841000000006
 30
0.0
 11
246.26589799999999
 21
92.699841000000006
 31
0.0
  0
LINE
  5
94
  8
0
 10
241.70098100000001
 20
93.699841000000006
 30
0.0
 11
246.26589799999999
 21
93.699841000000006
 31
0.0
  0
CIRCLE
  5
95
  8
0
 10
247.68011100000001
 20
93.199841000000006
 30
0.0
 40
6.0
  0
LINE
  5
96
  8
1
 10
247.68011100000001
 20
104.19984100000001
 30
0.0
 11
247.68011100000001
 21
82.199841000000006
 31
0.0
  0
LINE
  5
97
  8
1
 10
236.68011100000001
 20
93.199841000000006
 30
0.0
 11
258.68011100000001
 21
93.199841000000006
 31
0.0
  0
LINE
  5
98
  8
1
 10
189.64668
 20
93.199841000000006
 30
0.0
 11
218.64668
 21
93.199841000000006
 31
0.0
  0
LINE
  5
99
  8
2
 10
204.14668
 20
92.699841000000006
 30
0.0
 11
204.14668
 21
87.199841000000006
 31
0.0
  0
LINE
  5
9A
  8
2
 10
204.14668
 20
93.699841000000006
 30
0.0
 11
204.14668
 21
99.199841000000006
 31
0.0
  0
LINE
  5
9B
  8
0
 10
213.64668
 20
92.699841000000006
 30
0.0
 11
213.64668
 21
88.199841000000006
 31
0.0
  0
LINE
  5
9C
  8
0
 10
204.14668
 20
93.699841000000006
 30
0.0
 11
213.64668
 21
93.699841000000006
 31
0.0
  0
LINE
  5
9D
  8
0
 10
204.14668
 20
92.699841000000006
 30
0.0
 11
204.14668
 21
93.699841000000006
 31
0.0
  0
LINE
  5
9E
  8
0
 10
213.64668
 20
92.699841000000006
 30
0.0
 11
204.14668
 21
92.699841000000006
 31
0.0
  0
LINE
  5
9F
  8
0
 10
160.35227800000001
 20
91.699841000000006
 30
0.0
 11
162.084329
 21
91.699841000000006
 31
0.0
  0
LINE
  5
A0
  8
0
 10
162.084329
 20
91.699841000000006
 30
0.0
 11
162.950354
 21
93.199841000000006
 31
0.0
  0
LINE
  5
A1
  8
0
 10
162.950354
 20
93.199841000000006
 30
0.0
 11
162.084329
 21
94.699841000000006
 31
0.0
  0
LINE
  5
A2
  8
0
 10
162.084329
 20
94.699841000000006
 30
0.0
 11
160.35227800000001
 21
94.699841000000006
 31
0.0
  0
LINE
  5
A3
  8
0
 10
160.35227800000001
 20
94.699841000000006
 30
0.0
 11
159.48625200000001
 21
93.199841000000006
 31
0.0
  0
LINE
  5
A4
  8
0
 10
159.48625200000001
 20
93.199841000000006
 30
0.0
 11
160.35227800000001
 21
91.699841000000006
 31
0.0
  0
CIRCLE
  5
A5
  8
0
 10
161.21830299999999
 20
93.199841000000006
 30
0.0
 40
2.5
  0
CIRCLE
  5
A6
  8
3
 10
161.21830299999999
 20
93.199841000000006
 30
0.0
 40
3.0
  0
LINE
  5
A7
  8
1
 10
172.21830299999999
 20
93.199841000000006
 30
0.0
 11
150.21830299999999
 21
93.199841000000006
 31
0.0
  0
LINE
  5
A8
  8
1
 10
161.21830299999999
 20
104.19984100000001
 30
0.0
 11
161.21830299999999
 21
82.199841000000006
 31
0.0
  0
CIRCLE
  5
A9
  8
0
 10
161.21830299999999
 20
93.199841000000006
 30
0.0
 40
6.0
  0
LINE
  5
AA
  8
0
 10
212.64668
 20
87.199841000000006
 30
0.0
 11
201.64668
 21
87.199841000000006
 31
0.0
  0
LINE
  5
AB
  8
0
 10
213.64668
 20
98.199841000000006
 30
0.0
 11
213.64668
 21
93.699841000000006
 31
0.0
  0
LINE
  5
AC
  8
0
 10
201.64668
 20
99.199841000000006
 30
0.0
 11
212.64668
 21
99.199841000000006
 31
0.0
  0
LINE
  5
AD
  8
0
 10
194.64668
 20
88.449841000000006
 30
0.0
 11
194.64668
 21
98.165053999999998
 31
0.0
  0
LINE
  5
AE
  8
0
 10
155.444424
 20
94.831502999999998
 30
0.0
 11
161.21830299999999
 21
98.165053999999998
 31
0.0
  0
LINE
  5
AF
  8
0
 10
166.99218200000001
 20
94.831502999999998
 30
0.0
 11
161.21830299999999
 21
98.165053999999998
 31
0.0
  0
LINE
  5
B0
  8
0
 10
155.444424
 20
91.568179999999984
 30
0.0
 11
161.21830299999999
 21
88.234628999999998
 31
0.0
  0
LINE
  5
B1
  8
0
 10
166.99218200000001
 20
91.568179999999984
 30
0.0
 11
161.21830299999999
 21
88.234628999999998
 31
0.0
  0
LINE
  5
B2
  8
0
 10
194.64668
 20
98.165053999999998
 30
0.0
 11
201.64668
 21
98.165053999999998
 31
0.0
  0
LINE
  5
B3
  8
0
 10
201.64668
 20
99.199841000000006
 30
0.0
 11
201.64668
 21
94.831502999999998
 31
0.0
  0
LINE
  5
B4
  8
0
 10
194.64668
 20
88.234628999999998
 30
0.0
 11
201.64668
 21
88.234628999999998
 31
0.0
  0
LINE
  5
B5
  8
0
 10
195.14668
 20
94.831502999999998
 30
0.0
 11
201.64668
 21
94.831502999999998
 31
0.0
  0
LINE
  5
B6
  8
0
 10
195.14668
 20
91.568179999999984
 30
0.0
 11
201.64668
 21
91.568179999999984
 31
0.0
  0
LINE
  5
B7
  8
0
 10
201.64668
 20
91.568179999999984
 30
0.0
 11
201.64668
 21
87.199841000000006
 31
0.0
  0
LINE
  5
B8
  8
0
 10
194.92055999999999
 20
73.114354000000006
 30
0.0
 11
201.64668
 21
73.114354000000006
 31
0.0
  0
LINE
  5
B9
  8
0
 10
194.92055999999999
 20
61.566595999999997
 30
0.0
 11
201.64668
 21
61.566595999999997
 31
0.0
  0
LINE
  5
BA
  8
0
 10
201.64668
 20
61.340474999999998
 30
0.0
 11
201.64668
 21
73.340474999999998
 31
0.0
  0
LINE
  5
BB
  8
0
 10
194.64668
 20
67.340474999999984
 30
0.0
 11
201.64668
 21
67.340474999999984
 31
0.0
  0
LINE
  5
BC
  8
0
 10
194.64668
 20
72.840474999999984
 30
0.0
 11
195.14668
 21
73.340474999999998
 31
0.0
  0
LINE
  5
BD
  8
0
 10
194.64668
 20
61.840474999999998
 30
0.0
 11
195.14668
 21
61.340474999999998
 31
0.0
  0
LINE
  5
BE
  8
0
 10
195.14668
 20
94.831502999999998
 30
0.0
 11
195.14668
 21
91.568179999999984
 31
0.0
  0
LINE
  5
BF
  8
0
 10
194.64668
 20
124.559208
 30
0.0
 11
195.14668
 21
125.059208
 31
0.0
  0
LINE
  5
C0
  8
0
 10
194.64668
 20
113.559208
 30
0.0
 11
195.14668
 21
113.059208
 31
0.0
  0
LINE
  5
C1
  8
0
 10
194.64668
 20
119.059208
 30
0.0
 11
201.64668
 21
119.059208
 31
0.0
  0
LINE
  5
C2
  8
0
 10
201.64668
 20
125.059208
 30
0.0
 11
201.64668
 21
113.059208
 31
0.0
  0
LINE
  5
C3
  8
0
 10
194.92055999999999
 20
124.83308700000001
 30
0.0
 11
201.64668
 21
124.83308700000001
 31
0.0
  0
LINE
  5
C4
  8
0
 10
194.92055999999999
 20
113.285329
 30
0.0
 11
201.64668
 21
113.285329
 31
0.0
  0
ARC
  5
C5
  8
0
 10
212.64668
 20
124.059208
 30
0.0
 40
1.0
 50
0.0
 51
90.0
  0
ARC
  5
C6
  8
0
 10
212.64668
 20
114.059208
 30
0.0
 40
1.0
 50
270.0
 51
0.0
  0
LINE
  5
C7
  8
1
 10
189.64668
 20
119.059208
 30
0.0
 11
218.64668
 21
119.059208
 31
0.0
  0
LINE
  5
C8
  8
2
 10
204.14668
 20
119.559208
 30
0.0
 11
204.14668
 21
125.059208
 31
0.0
  0
LINE
  5
C9
  8
2
 10
204.14668
 20
118.559208
 30
0.0
 11
204.14668
 21
113.059208
 31
0.0
  0
LINE
  5
CA
  8
0
 10
213.64668
 20
119.559208
 30
0.0
 11
213.64668
 21
124.059208
 31
0.0
  0
LINE
  5
CB
  8
0
 10
204.14668
 20
118.559208
 30
0.0
 11
213.64668
 21
118.559208
 31
0.0
  0
LINE
  5
CC
  8
0
 10
204.14668
 20
119.559208
 30
0.0
 11
204.14668
 21
118.559208
 31
0.0
  0
LINE
  5
CD
  8
0
 10
213.64668
 20
119.559208
 30
0.0
 11
204.14668
 21
119.559208
 31
0.0
  0
LINE
  5
CE
  8
0
 10
212.64668
 20
125.059208
 30
0.0
 11
195.14668
 21
125.059208
 31
0.0
  0
LINE
  5
CF
  8
0
 10
213.64668
 20
114.059208
 30
0.0
 11
213.64668
 21
118.559208
 31
0.0
  0
LINE
  5
D0
  8
0
 10
195.14668
 20
113.059208
 30
0.0
 11
212.64668
 21
113.059208
 31
0.0
  0
LINE
  5
D1
  8
0
 10
194.64668
 20
124.559208
 30
0.0
 11
194.64668
 21
113.559208
 31
0.0
  0
ARC
  5
D2
  8
0
 10
161.21830299999999
 20
93.199841000000006
 30
0.0
 40
5.5
 50
338.57265100000001
 51
21.427349
  0
ARC
  5
D3
  8
0
 10
161.21830299999999
 20
93.199841000000006
 30
0.0
 40
5.5
 50
158.57265100000001
 51
201.42734899999999
  0
LINE
  5
D4
  8
0
 10
195.14668
 20
94.831502999999998
 30
0.0
 11
194.64668
 21
95.209108000000015
 31
0.0
  0
LINE
  5
D5
  8
0
 10
194.64668
 20
91.190574999999995
 30
0.0
 11
195.14668
 21
91.568179999999984
 31
0.0
  0
ARC
  5
D6
  8
0
 10
35.810528000000012
 20
93.199841000000006
 30
0.0
 40
5.5
 50
120.27264099999999
 51
239.72735900000001
  0
ARC
  5
D7
  8
0
 10
35.810528000000012
 20
93.199841000000006
 30
0.0
 40
5.5
 50
300.27264100000002
 51
59.727358999999993
  0
LINE
  5
D8
  8
0
 10
69.738905000000003
 20
88.449841000000006
 30
0.0
 11
69.738905000000003
 21
97.949841000000006
 31
0.0
  0
LINE
  5
D9
  8
0
 10
69.738905000000003
 20
61.340474999999998
 30
0.0
 11
69.738905000000003
 21
63.674755000000012
 31
0.0
  0
LINE
  5
DA
  8
0
 10
69.238905000000003
 20
72.840474999999984
 30
0.0
 11
69.738905000000003
 21
73.340474999999998
 31
0.0
  0
LINE
  5
DB
  8
0
 10
69.238905000000003
 20
61.840474999999998
 30
0.0
 11
69.738905000000003
 21
61.340474999999998
 31
0.0
  0
LINE
  5
DC
  8
0
 10
69.738905000000003
 20
63.674755000000012
 30
0.0
 11
69.238905000000003
 21
64.567841000000001
 31
0.0
  0
LINE
  5
DD
  8
0
 10
69.238905000000003
 20
70.113108999999994
 30
0.0
 11
69.738905000000003
 21
71.006193999999994
 31
0.0
  0
LINE
  5
DE
  8
0
 10
69.738905000000003
 20
71.006193999999994
 30
0.0
 11
69.738905000000003
 21
73.340474999999998
 31
0.0
  0
LINE
  5
DF
  8
0
 10
69.238905000000003
 20
121.83184199999999
 30
0.0
 11
69.738905000000003
 21
122.72492699999999
 31
0.0
  0
LINE
  5
E0
  8
0
 10
69.738905000000003
 20
115.393488
 30
0.0
 11
69.238905000000003
 21
116.286574
 31
0.0
  0
LINE
  5
E1
  8
0
 10
71.238905000000003
 20
122.72492699999999
 30
0.0
 11
71.238905000000003
 21
115.393488
 31
0.0
  0
LINE
  5
E2
  8
0
 10
69.738905000000003
 20
122.72492699999999
 30
0.0
 11
71.238905000000003
 21
122.72492699999999
 31
0.0
  0
LINE
  5
E3
  8
0
 10
69.738905000000003
 20
115.393488
 30
0.0
 11
71.238905000000003
 21
115.393488
 31
0.0
  0
LINE
  5
E4
  8
0
 10
69.738905000000003
 20
122.72492699999999
 30
0.0
 11
69.738905000000003
 21
125.059208
 31
0.0
  0
LINE
  5
E5
  8
0
 10
69.738905000000003
 20
113.059208
 30
0.0
 11
69.738905000000003
 21
115.393488
 31
0.0
  0
LINE
  5
E6
  8
0
 10
69.238905000000003
 20
124.559208
 30
0.0
 11
69.738905000000003
 21
125.059208
 31
0.0
  0
LINE
  5
E7
  8
0
 10
69.238905000000003
 20
113.559208
 30
0.0
 11
69.738905000000003
 21
113.059208
 31
0.0
  0
TEXT
  5
277
  8
0
 62
     3
 10
0.0
 20
0.0
 30
0.0
 40
5.0
  1
PIN-12S
  7
STANDARD1
  0
ENDSEC
  0
EOF
