  0
SECTION
  2
HEADER
  9
$ACADVER
  1
AC1009
  9
$INSBASE
 10
0.0
 20
0.0
 30
0.0
  9
$EXTMIN
 10
0.0
 20
-2.960436562073669
 30
0.0
  9
$EXTMAX
 10
241.9918662355031
 20
135.3098317245373
 30
0.0
  9
$LIMMIN
 10
0.0
 20
0.0
  9
$LIMMAX
 10
375.0
 20
270.0
  9
$ORTHOMODE
 70
     1
  9
$REGENMODE
 70
     1
  9
$FILLMODE
 70
     1
  9
$QTEXTMODE
 70
     0
  9
$MIRRTEXT
 70
     0
  9
$DRAGMODE
 70
     2
  9
$LTSCALE
 40
10.0
  9
$OSMODE
 70
  3071
  9
$ATTMODE
 70
     1
  9
$TEXTSIZE
 40
0.2
  9
$TRACEWID
 40
0.05
  9
$TEXTSTYLE
  7
STANDARD
  9
$CLAYER
  8
0
  9
$CELTYPE
  6
BYLAYER
  9
$CECOLOR
 62
   256
  9
$DIMSCALE
 40
1.0
  9
$DIMASZ
 40
3.0
  9
$DIMEXO
 40
2.0
  9
$DIMDLI
 40
0.38
  9
$DIMRND
 40
0.0
  9
$DIMDLE
 40
0.0
  9
$DIMEXE
 40
2.0
  9
$DIMTP
 40
0.0
  9
$DIMTM
 40
0.0
  9
$DIMTXT
 40
3.0
  9
$DIMCEN
 40
0.09
  9
$DIMTSZ
 40
0.0
  9
$DIMTOL
 70
     0
  9
$DIMLIM
 70
     0
  9
$DIMTIH
 70
     0
  9
$DIMTOH
 70
     0
  9
$DIMSE1
 70
     0
  9
$DIMSE2
 70
     0
  9
$DIMTAD
 70
     1
  9
$DIMZIN
 70
     0
  9
$DIMBLK
  1

  9
$DIMASO
 70
     0
  9
$DIMSHO
 70
     0
  9
$DIMPOST
  1

  9
$DIMAPOST
  1

  9
$DIMALT
 70
     0
  9
$DIMALTD
 70
     2
  9
$DIMALTF
 40
25.399999999999999
  9
$DIMLFAC
 40
1.0
  9
$DIMTOFL
 70
     0
  9
$DIMTVP
 40
1.6000000000000001
  9
$DIMTIX
 70
     1
  9
$DIMSOXD
 70
     0
  9
$DIMSAH
 70
     0
  9
$DIMBLK1
  1

  9
$DIMBLK2
  1

  9
$DIMSTYLE
  2
STANDARD
  9
$DIMCLRD
 70
     0
  9
$DIMCLRE
 70
     0
  9
$DIMCLRT
 70
     0
  9
$DIMTFAC
 40
1.0
  9
$DIMGAP
 40
0.09
  9
$LUNITS
 70
     2
  9
$LUPREC
 70
     4
  9
$SKETCHINC
 40
0.1
  9
$FILLETRAD
 40
0.0
  9
$AUNITS
 70
     0
  9
$AUPREC
 70
     0
  9
$MENU
  1
E:\r13\win\SUPPORT\ACAD
  9
$ELEVATION
 40
0.0
  9
$PELEVATION
 40
0.0
  9
$THICKNESS
 40
0.0
  9
$LIMCHECK
 70
     0
  9
$BLIPMODE
 70
     0
  9
$CHAMFERA
 40
0.0
  9
$CHAMFERB
 40
0.0
  9
$SKPOLY
 70
     0
  9
$TDCREATE
 40
2449839.7823842592
  9
$TDUPDATE
 40
2456597.722962419
  9
$TDINDWG
 40
0.0112179861
  9
$TDUSRTIMER
 40
0.0112179861
  9
$USRTIMER
 70
     1
  9
$ANGBASE
 50
0.0
  9
$ANGDIR
 70
     0
  9
$PDMODE
 70
     0
  9
$PDSIZE
 40
0.0
  9
$PLINEWID
 40
0.0
  9
$COORDS
 70
     1
  9
$SPLFRAME
 70
     0
  9
$SPLINETYPE
 70
     6
  9
$SPLINESEGS
 70
     8
  9
$ATTDIA
 70
     0
  9
$ATTREQ
 70
     1
  9
$HANDLING
 70
     1
  9
$HANDSEED
  5
390
  9
$SURFTAB1
 70
     6
  9
$SURFTAB2
 70
     6
  9
$SURFTYPE
 70
     6
  9
$SURFU
 70
     6
  9
$SURFV
 70
     6
  9
$UCSNAME
  2

  9
$UCSORG
 10
0.0
 20
0.0
 30
0.0
  9
$UCSXDIR
 10
1.0
 20
0.0
 30
0.0
  9
$UCSYDIR
 10
0.0
 20
1.0
 30
0.0
  9
$PUCSNAME
  2

  9
$PUCSORG
 10
0.0
 20
0.0
 30
0.0
  9
$PUCSXDIR
 10
1.0
 20
0.0
 30
0.0
  9
$PUCSYDIR
 10
0.0
 20
1.0
 30
0.0
  9
$USERI1
 70
     0
  9
$USERI2
 70
     1
  9
$USERI3
 70
     1
  9
$USERI4
 70
     0
  9
$USERI5
 70
     0
  9
$USERR1
 40
0.0
  9
$USERR2
 40
0.0
  9
$USERR3
 40
0.0
  9
$USERR4
 40
0.0
  9
$USERR5
 40
0.0
  9
$WORLDVIEW
 70
     1
  9
$SHADEDGE
 70
     3
  9
$SHADEDIF
 70
    70
  9
$TILEMODE
 70
     1
  9
$MAXACTVP
 70
    16
  9
$PLIMCHECK
 70
     0
  9
$PEXTMIN
 10
1.0000000000000000E+020
 20
1.0000000000000000E+020
 30
1.0000000000000000E+020
  9
$PEXTMAX
 10
-1.0000000000000000E+020
 20
-1.0000000000000000E+020
 30
-1.0000000000000000E+020
  9
$PLIMMIN
 10
0.0
 20
0.0
  9
$PLIMMAX
 10
12.0
 20
9.0
  9
$UNITMODE
 70
     0
  9
$VISRETAIN
 70
     0
  9
$PLINEGEN
 70
     0
  9
$PSLTSCALE
 70
     0
  0
ENDSEC
  0
SECTION
  2
TABLES
  0
TABLE
  2
VPORT
 70
     1
  0
VPORT
  2
*ACTIVE
 70
     0
 10
0.0
 20
0.0
 11
1.0
 21
1.0
 12
187.49427839065231
 22
134.10366293909439
 13
0.0
 23
0.0
 14
10.0
 24
10.0
 15
10.0
 25
10.0
 16
0.0
 26
0.0
 36
1.0
 17
0.0
 27
0.0
 37
0.0
 40
277.29405978699532
 41
2.304913294797688
 42
50.0
 43
0.0
 44
0.0
 50
0.0
 51
0.0
 71
     0
 72
   500
 73
     1
 74
     0
 75
     0
 76
     0
 77
     0
 78
     2
  0
ENDTAB
  0
TABLE
  2
LTYPE
 70
     4
  0
LTYPE
  2
CONTINUOUS
 70
     0
  3
Solid Line
 72
    65
 73
     0
 40
0.0
  0
LTYPE
  2
CENTER
 70
     0
  3
____ _ ____ _ ____ _ ____ _ ____ _ ____ _ ____
 72
    65
 73
     4
 40
2.0
 49
1.25
 49
-0.25
 49
0.25
 49
-0.25
  0
LTYPE
  2
HIDDEN
 70
     0
  3
_ _ _ _ _ _ _ _ _ _ _ _ _ _ _ _ _ _ _ _ _ _ _
 72
    65
 73
     2
 40
0.375
 49
0.25
 49
-0.125
  0
LTYPE
  2
PHANTOM2
 70
     0
  3
___ _ _ ___ _ _ ___ _ _ ___ _ _
 72
    65
 73
     6
 40
1.25
 49
0.625
 49
-0.125
 49
0.125
 49
-0.125
 49
0.125
 49
-0.125
  0
ENDTAB
  0
TABLE
  2
LAYER
 70
     4
  0
LAYER
  2
0
 70
     0
 62
     7
  6
CONTINUOUS
  0
LAYER
  2
1
 70
     0
 62
     1
  6
CENTER
  0
LAYER
  2
3
 70
     0
 62
     3
  6
CONTINUOUS
  0
LAYER
  2
2
 70
     0
 62
     2
  6
HIDDEN
  0
ENDTAB
  0
TABLE
  2
STYLE
 70
     2
  0
STYLE
  2
STANDARD
 70
     0
 40
0.0
 41
1.0
 50
0.0
 71
     0
 42
0.2
  3
TXT
  4
BIGFONT
  0
STYLE
  2
STANDARD1
 70
     0
 40
0.0
 41
1.0
 50
0.0
 71
     0
 42
3.0
  3
txt
  4

  0
ENDTAB
  0
TABLE
  2
VIEW
 70
     1
  0
VIEW
  2
ALL
 70
     0
 40
270.0
 10
220.99159663865549
 20
135.0
 41
0.0
 11
0.0
 21
0.0
 31
1.0
 12
0.0
 22
0.0
 32
0.0
 42
0.0
 43
0.0
 44
0.0
 50
0.0
 71
     0
  0
ENDTAB
  0
TABLE
  2
UCS
 70
     0
  0
ENDTAB
  0
TABLE
  2
APPID
 70
     3
  0
APPID
  2
ACAD
 70
     0
  0
APPID
  2
ACAD_MLEADERVER
 70
     0
  0
APPID
  2
ACAD_NAV_VCDISPLAY
 70
     0
  0
ENDTAB
  0
TABLE
  2
DIMSTYLE
 70
     1
  0
DIMSTYLE
  2
STANDARD
 70
     0
  3

  4

  5

  6

  7

 40
1.0
 41
0.18
 42
0.0625
 43
0.38
 44
0.18
 45
0.0
 46
0.0
 47
0.0
 48
0.0
140
0.18
141
0.09
142
0.0
143
25.399999999999999
144
1.0
145
0.0
146
1.0
147
0.09
 71
     0
 72
     0
 73
     1
 74
     1
 75
     0
 76
     0
 77
     0
 78
     0
170
     0
171
     2
172
     0
173
     0
174
     0
175
     0
176
     0
177
     0
178
     0
  0
ENDTAB
  0
ENDSEC
  0
SECTION
  2
BLOCKS
  0
BLOCK
  8
0
  2
$MODEL_SPACE
 70
     0
 10
0.0
 20
0.0
 30
0.0
  3
$MODEL_SPACE
  1

  0
ENDBLK
  5
F1
  8
0
  0
BLOCK
 67
     1
  8
0
  2
$PAPER_SPACE
 70
     0
 10
0.0
 20
0.0
 30
0.0
  3
$PAPER_SPACE
  1

  0
ENDBLK
  5
EF
 67
     1
  8
0
  0
ENDSEC
  0
SECTION
  2
ENTITIES
  0
CIRCLE
  5
216
  8
0
 10
69.347689143416801
 20
108.7336790745844
 30
0.0
 40
22.0
  0
LINE
  5
217
  8
1
 10
69.347689143416801
 20
135.3098317245373
 30
0.0
 11
69.347689143416787
 21
82.654282092153096
 31
0.0
  0
LINE
  5
218
  8
1
 10
42.876983449877969
 20
108.7336790745844
 30
0.0
 11
96.563052597802667
 21
108.7336790745844
 31
0.0
  0
ARC
  5
21A
  8
0
 10
135.12728284954659
 20
129.23367907458439
 30
0.0
 40
8.5
 50
270.0
 51
339.89449021208389
  0
ARC
  5
21B
  8
0
 10
109.294463744838
 20
108.7336790745844
 30
0.0
 40
51.0
 50
0.0
 51
20.89230141257778
  0
ARC
  5
21C
  8
0
 10
150.15226205086319
 20
123.7336790745844
 30
0.0
 40
7.5
 50
15.170660881594969
 51
90.0
  0
ARC
  5
21D
  8
0
 10
150.15226205086319
 20
123.7336790745844
 30
0.0
 40
7.5
 50
90.0
 51
159.89449021208389
  0
ARC
  5
21E
  8
0
 10
150.15226205086319
 20
93.733679074584472
 30
0.0
 40
7.5
 50
270.0
 51
344.82933911840502
  0
ARC
  5
21F
  8
0
 10
150.15226205086319
 20
93.733679074584472
 30
0.0
 40
7.5
 50
200.10550978791599
 51
270.0
  0
LINE
  5
220
  8
2
 10
130.15226205086319
 20
103.7336790745845
 30
0.0
 11
146.15226205086319
 21
103.7336790745845
 31
0.0
  0
LINE
  5
221
  8
2
 10
130.15226205086319
 20
113.7336790745844
 30
0.0
 11
146.15226205086319
 21
113.7336790745844
 31
0.0
  0
ARC
  5
222
  8
0
 10
135.12728284954659
 20
88.233679074584472
 30
0.0
 40
8.5
 50
20.105509787916048
 51
90.0
  0
LINE
  5
223
  8
2
 10
130.15226205086319
 20
104.6538315745844
 30
0.0
 11
149.15226205086319
 21
104.6538315745844
 31
0.0
  0
LINE
  5
224
  8
2
 10
130.15226205086319
 20
112.8135265745844
 30
0.0
 11
149.15226205086319
 21
112.8135265745844
 31
0.0
  0
LINE
  5
225
  8
1
 10
120.6550482099791
 20
108.7336790745844
 30
0.0
 11
164.21380147540199
 21
108.7336790745844
 31
0.0
  0
LINE
  5
226
  8
0
 10
126.1522620508632
 20
108.7336790745844
 30
0.0
 11
126.1522620508632
 21
97.533679074584427
 31
0.0
  0
LINE
  5
227
  8
0
 10
126.9522620508632
 20
96.733679074584487
 30
0.0
 11
126.9522620508632
 21
108.7336790745844
 31
0.0
  0
LINE
  5
228
  8
2
 10
130.15226205086319
 20
103.4836790745844
 30
0.0
 11
130.15226205086319
 21
108.7336790745844
 31
0.0
  0
LINE
  5
229
  8
2
 10
126.1522620508632
 20
113.9836790745844
 30
0.0
 11
130.15226205086319
 21
113.9836790745844
 31
0.0
  0
LINE
  5
22A
  8
0
 10
126.9522620508632
 20
120.7336790745844
 30
0.0
 11
135.12728284954659
 21
120.7336790745844
 31
0.0
  0
LINE
  5
22B
  8
0
 10
126.9522620508632
 20
120.7336790745844
 30
0.0
 11
126.9522620508632
 21
108.7336790745844
 31
0.0
  0
LINE
  5
22C
  8
0
 10
126.1522620508632
 20
108.7336790745844
 30
0.0
 11
126.1522620508632
 21
119.9336790745845
 31
0.0
  0
LINE
  5
22D
  8
0
 10
126.9522620508632
 20
120.7336790745844
 30
0.0
 11
126.1522620508632
 21
119.9336790745844
 31
0.0
  0
LINE
  5
22E
  8
2
 10
130.15226205086319
 20
113.9836790745844
 30
0.0
 11
130.15226205086319
 21
108.7336790745844
 31
0.0
  0
LINE
  5
22F
  8
2
 10
126.1522620508632
 20
103.4836790745844
 30
0.0
 11
130.15226205086319
 21
103.4836790745844
 31
0.0
  0
LINE
  5
230
  8
0
 10
126.9522620508632
 20
96.733679074584487
 30
0.0
 11
135.12728284954659
 21
96.733679074584487
 31
0.0
  0
LINE
  5
231
  8
0
 10
126.1522620508632
 20
97.630844538709965
 30
0.0
 11
127.04942751498869
 21
96.733679074584487
 31
0.0
  0
LINE
  5
232
  8
0
 10
126.9522620508632
 20
96.733679074584487
 30
0.0
 11
126.1522620508632
 21
97.533679074584455
 31
0.0
  0
ARC
  5
233
  8
0
 10
109.294463744838
 20
108.7336790745844
 30
0.0
 40
51.0
 50
339.10769858742231
 51
0.0
  0
LINE
  5
234
  8
2
 10
146.15226205086319
 20
103.7336790745845
 30
0.0
 11
146.15226205086319
 21
108.7336790745844
 31
0.0
  0
LINE
  5
235
  8
2
 10
146.15226205086319
 20
113.7336790745844
 30
0.0
 11
146.15226205086319
 21
108.7336790745844
 31
0.0
  0
LINE
  5
236
  8
2
 10
149.15226205086319
 20
112.8135265745844
 30
0.0
 11
149.15226205086319
 21
108.7336790745844
 31
0.0
  0
LINE
  5
237
  8
2
 10
149.15226205086319
 20
104.6538315745844
 30
0.0
 11
149.15226205086319
 21
108.7336790745844
 31
0.0
  0
LINE
  5
239
  8
1
 10
215.52116054196429
 20
135.3098317245373
 30
0.0
 11
215.52116054196429
 21
82.654282092153096
 31
0.0
  0
CIRCLE
  5
23A
  8
0
 10
215.52116054196429
 20
108.7336790745844
 30
0.0
 40
22.0
  0
LINE
  5
23B
  8
1
 10
241.9918662355031
 20
108.7336790745844
 30
0.0
 11
188.30579708757841
 21
108.7336790745844
 31
0.0
  0
CIRCLE
  5
241
  8
0
 10
69.347689143416787
 20
108.7336790745844
 30
0.0
 40
12.0
  0
CIRCLE
  5
242
  8
0
 10
69.347689143416787
 20
108.7336790745844
 30
0.0
 40
11.19999999999999
  0
CIRCLE
  5
243
  8
0
 10
69.347689143416787
 20
108.7336790745844
 30
0.0
 40
4.0798474999999712
  0
CIRCLE
  5
244
  8
3
 10
69.347689143416787
 20
108.7336790745844
 30
0.0
 40
5.0
  0
CIRCLE
  5
245
  8
0
 10
69.347689143416787
 20
108.7336790745844
 30
0.0
 40
5.25
  0
TEXT
  5
2F7
  8
0
 62
     3
 10
0.0
 20
0.0
 30
0.0
 40
10.0
  1
PKN45N
  7
STANDARD1
  0
ENDSEC
  0
EOF
