  0
SECTION
  2
HEADER
  9
$ACADVER
  1
AC1009
  9
$INSBASE
 10
0.0
 20
0.0
 30
0.0
  9
$EXTMIN
 10
0.0
 20
-2.960436562073669
 30
0.0
  9
$EXTMAX
 10
283.0377105105801
 20
225.01573741007189
 30
0.0
  9
$LIMMIN
 10
0.0
 20
0.0
  9
$LIMMAX
 10
375.0
 20
270.0
  9
$ORTHOMODE
 70
     1
  9
$REGENMODE
 70
     1
  9
$FILLMODE
 70
     1
  9
$QTEXTMODE
 70
     0
  9
$MIRRTEXT
 70
     0
  9
$DRAGMODE
 70
     2
  9
$LTSCALE
 40
10.0
  9
$OSMODE
 70
  3071
  9
$ATTMODE
 70
     1
  9
$TEXTSIZE
 40
0.2
  9
$TRACEWID
 40
0.05
  9
$TEXTSTYLE
  7
STANDARD
  9
$CLAYER
  8
0
  9
$CELTYPE
  6
BYLAYER
  9
$CECOLOR
 62
   256
  9
$DIMSCALE
 40
1.0
  9
$DIMASZ
 40
3.0
  9
$DIMEXO
 40
2.0
  9
$DIMDLI
 40
0.38
  9
$DIMRND
 40
0.0
  9
$DIMDLE
 40
0.0
  9
$DIMEXE
 40
2.0
  9
$DIMTP
 40
0.0
  9
$DIMTM
 40
0.0
  9
$DIMTXT
 40
3.2000000000000002
  9
$DIMCEN
 40
0.0
  9
$DIMTSZ
 40
0.0
  9
$DIMTOL
 70
     0
  9
$DIMLIM
 70
     0
  9
$DIMTIH
 70
     0
  9
$DIMTOH
 70
     0
  9
$DIMSE1
 70
     0
  9
$DIMSE2
 70
     0
  9
$DIMTAD
 70
     1
  9
$DIMZIN
 70
     0
  9
$DIMBLK
  1

  9
$DIMASO
 70
     1
  9
$DIMSHO
 70
     0
  9
$DIMPOST
  1

  9
$DIMAPOST
  1

  9
$DIMALT
 70
     0
  9
$DIMALTD
 70
     2
  9
$DIMALTF
 40
25.399999999999999
  9
$DIMLFAC
 40
1.0
  9
$DIMTOFL
 70
     1
  9
$DIMTVP
 40
1.6000000000000001
  9
$DIMTIX
 70
     1
  9
$DIMSOXD
 70
     0
  9
$DIMSAH
 70
     0
  9
$DIMBLK1
  1

  9
$DIMBLK2
  1

  9
$DIMSTYLE
  2
STANDARD
  9
$DIMCLRD
 70
     0
  9
$DIMCLRE
 70
     0
  9
$DIMCLRT
 70
     0
  9
$DIMTFAC
 40
1.0
  9
$DIMGAP
 40
0.09
  9
$LUNITS
 70
     2
  9
$LUPREC
 70
     4
  9
$SKETCHINC
 40
0.1
  9
$FILLETRAD
 40
0.0
  9
$AUNITS
 70
     0
  9
$AUPREC
 70
     4
  9
$MENU
  1
E:\r13\win\SUPPORT\ACAD
  9
$ELEVATION
 40
0.0
  9
$PELEVATION
 40
0.0
  9
$THICKNESS
 40
0.0
  9
$LIMCHECK
 70
     0
  9
$BLIPMODE
 70
     0
  9
$CHAMFERA
 40
0.0
  9
$CHAMFERB
 40
0.0
  9
$SKPOLY
 70
     0
  9
$TDCREATE
 40
2449839.7965393518
  9
$TDUPDATE
 40
2456597.7231609141
  9
$TDINDWG
 40
0.0001570949
  9
$TDUSRTIMER
 40
0.0001570949
  9
$USRTIMER
 70
     1
  9
$ANGBASE
 50
0.0
  9
$ANGDIR
 70
     0
  9
$PDMODE
 70
     0
  9
$PDSIZE
 40
0.0
  9
$PLINEWID
 40
0.0
  9
$COORDS
 70
     1
  9
$SPLFRAME
 70
     0
  9
$SPLINETYPE
 70
     6
  9
$SPLINESEGS
 70
     8
  9
$ATTDIA
 70
     0
  9
$ATTREQ
 70
     1
  9
$HANDLING
 70
     1
  9
$HANDSEED
  5
2DA
  9
$SURFTAB1
 70
     6
  9
$SURFTAB2
 70
     6
  9
$SURFTYPE
 70
     6
  9
$SURFU
 70
     6
  9
$SURFV
 70
     6
  9
$UCSNAME
  2

  9
$UCSORG
 10
0.0
 20
0.0
 30
0.0
  9
$UCSXDIR
 10
1.0
 20
0.0
 30
0.0
  9
$UCSYDIR
 10
0.0
 20
1.0
 30
0.0
  9
$PUCSNAME
  2

  9
$PUCSORG
 10
0.0
 20
0.0
 30
0.0
  9
$PUCSXDIR
 10
1.0
 20
0.0
 30
0.0
  9
$PUCSYDIR
 10
0.0
 20
1.0
 30
0.0
  9
$USERI1
 70
     0
  9
$USERI2
 70
     1
  9
$USERI3
 70
     1
  9
$USERI4
 70
     0
  9
$USERI5
 70
     0
  9
$USERR1
 40
0.0
  9
$USERR2
 40
0.0
  9
$USERR3
 40
0.0
  9
$USERR4
 40
0.0
  9
$USERR5
 40
0.0
  9
$WORLDVIEW
 70
     1
  9
$SHADEDGE
 70
     3
  9
$SHADEDIF
 70
    70
  9
$TILEMODE
 70
     1
  9
$MAXACTVP
 70
    16
  9
$PLIMCHECK
 70
     0
  9
$PEXTMIN
 10
1.0000000000000000E+020
 20
1.0000000000000000E+020
 30
1.0000000000000000E+020
  9
$PEXTMAX
 10
-1.0000000000000000E+020
 20
-1.0000000000000000E+020
 30
-1.0000000000000000E+020
  9
$PLIMMIN
 10
0.0
 20
0.0
  9
$PLIMMAX
 10
12.0
 20
9.0
  9
$UNITMODE
 70
     0
  9
$VISRETAIN
 70
     0
  9
$PLINEGEN
 70
     0
  9
$PSLTSCALE
 70
     0
  0
ENDSEC
  0
SECTION
  2
TABLES
  0
TABLE
  2
VPORT
 70
     1
  0
VPORT
  2
*ACTIVE
 70
     0
 10
0.0
 20
0.0
 11
1.0
 21
1.0
 12
187.49427839065231
 22
134.10366293909439
 13
0.0
 23
0.0
 14
10.0
 24
10.0
 15
10.0
 25
10.0
 16
0.0
 26
0.0
 36
1.0
 17
0.0
 27
0.0
 37
0.0
 40
277.29405978699532
 41
2.304913294797688
 42
50.0
 43
0.0
 44
0.0
 50
0.0
 51
0.0
 71
     0
 72
   500
 73
     1
 74
     0
 75
     0
 76
     0
 77
     0
 78
     2
  0
ENDTAB
  0
TABLE
  2
LTYPE
 70
     4
  0
LTYPE
  2
CONTINUOUS
 70
     0
  3
Solid Line
 72
    65
 73
     0
 40
0.0
  0
LTYPE
  2
CENTER
 70
     0
  3
____ _ ____ _ ____ _ ____ _ ____ _ ____ _ ____
 72
    65
 73
     4
 40
2.0
 49
1.25
 49
-0.25
 49
0.25
 49
-0.25
  0
LTYPE
  2
HIDDEN
 70
     0
  3
_ _ _ _ _ _ _ _ _ _ _ _ _ _ _ _ _ _ _ _ _ _ _
 72
    65
 73
     2
 40
0.375
 49
0.25
 49
-0.125
  0
LTYPE
  2
PHANTOM2
 70
     0
  3
___ _ _ ___ _ _ ___ _ _ ___ _ _
 72
    65
 73
     6
 40
1.25
 49
0.625
 49
-0.125
 49
0.125
 49
-0.125
 49
0.125
 49
-0.125
  0
ENDTAB
  0
TABLE
  2
LAYER
 70
     5
  0
LAYER
  2
0
 70
     0
 62
     7
  6
CONTINUOUS
  0
LAYER
  2
1
 70
     0
 62
     1
  6
CENTER
  0
LAYER
  2
2
 70
     0
 62
     2
  6
HIDDEN
  0
LAYER
  2
3
 70
     0
 62
     3
  6
CONTINUOUS
  0
LAYER
  2
4
 70
     0
 62
     4
  6
CONTINUOUS
  0
ENDTAB
  0
TABLE
  2
STYLE
 70
     2
  0
STYLE
  2
STANDARD
 70
     0
 40
0.0
 41
1.0
 50
0.0
 71
     0
 42
0.2
  3
TXT
  4
BIGFONT
  0
STYLE
  2
STANDARD1
 70
     0
 40
0.0
 41
1.0
 50
0.0
 71
     0
 42
3.0
  3
txt
  4

  0
ENDTAB
  0
TABLE
  2
VIEW
 70
     1
  0
VIEW
  2
ALL
 70
     0
 40
179.5384664489153
 10
135.0
 20
89.769233224457665
 41
0.0
 11
0.0
 21
0.0
 31
1.0
 12
0.0
 22
0.0
 32
0.0
 42
0.0
 43
0.0
 44
0.0
 50
0.0
 71
     0
  0
ENDTAB
  0
TABLE
  2
UCS
 70
     0
  0
ENDTAB
  0
TABLE
  2
APPID
 70
     3
  0
APPID
  2
ACAD
 70
     0
  0
APPID
  2
ACAD_MLEADERVER
 70
     0
  0
APPID
  2
ACAD_NAV_VCDISPLAY
 70
     0
  0
ENDTAB
  0
TABLE
  2
DIMSTYLE
 70
     1
  0
DIMSTYLE
  2
STANDARD
 70
     0
  3

  4

  5

  6

  7

 40
1.0
 41
0.18
 42
0.0625
 43
0.38
 44
0.18
 45
0.0
 46
0.0
 47
0.0
 48
0.0
140
0.18
141
0.09
142
0.0
143
25.399999999999999
144
1.0
145
0.0
146
1.0
147
0.09
 71
     0
 72
     0
 73
     1
 74
     1
 75
     0
 76
     0
 77
     0
 78
     0
170
     0
171
     2
172
     0
173
     0
174
     0
175
     0
176
     0
177
     0
178
     0
  0
ENDTAB
  0
ENDSEC
  0
SECTION
  2
BLOCKS
  0
BLOCK
  8
0
  2
$MODEL_SPACE
 70
     0
 10
0.0
 20
0.0
 30
0.0
  3
$MODEL_SPACE
  1

  0
ENDBLK
  5
155
  8
0
  0
BLOCK
 67
     1
  8
0
  2
$PAPER_SPACE
 70
     0
 10
0.0
 20
0.0
 30
0.0
  3
$PAPER_SPACE
  1

  0
ENDBLK
  5
153
 67
     1
  8
0
  0
ENDSEC
  0
SECTION
  2
ENTITIES
  0
LINE
  5
38
  8
0
 10
263.03770968137991
 20
134.0445143884892
 30
0.0
 11
259.0377105105801
 21
134.0445143884892
 31
0.0
  0
LINE
  5
39
  8
1
 10
268.03770664097902
 20
157.0445143884892
 30
0.0
 11
268.03770664097902
 21
141.04451438848909
 31
0.0
  0
CIRCLE
  5
3A
  8
0
 10
268.03770664097902
 20
149.04451438848909
 30
0.0
 40
2.458499999999999
  0
CIRCLE
  5
3B
  8
3
 10
268.03770664097902
 20
149.04451438848909
 30
0.0
 40
3.0
  0
LINE
  5
3C
  8
0
 10
276.5377105105801
 20
158.94451438848901
 30
0.0
 11
276.5377105105801
 21
139.14451438848931
 31
0.0
  0
LINE
  5
3D
  8
0
 10
261.0377105105801
 20
139.14451438848931
 30
0.0
 11
278.0377105105801
 21
139.14451438848931
 31
0.0
  0
LINE
  5
3E
  8
0
 10
261.0377105105801
 20
164.04451438848909
 30
0.0
 11
261.0377105105801
 21
155.0445143884892
 31
0.0
  0
LINE
  5
3F
  8
0
 10
261.0377105105801
 20
158.94451438848901
 30
0.0
 11
278.0377105105801
 21
158.94451438848901
 31
0.0
  0
LINE
  5
40
  8
2
 10
264.87410766808603
 20
164.04451438848909
 30
0.0
 11
278.0377105105801
 21
164.04451438848909
 31
0.0
  0
LINE
  5
41
  8
0
 10
278.0377105105801
 20
160.94451438848901
 30
0.0
 11
278.0377105105801
 21
134.0445143884892
 31
0.0
  0
LINE
  5
42
  8
0
 10
261.0377105105801
 20
134.0445143884892
 30
0.0
 11
261.0377105105801
 21
143.0445143884892
 31
0.0
  0
ARC
  5
43
  8
0
 10
271.03771051057919
 20
158.94451438848989
 30
0.0
 40
7.9999999999990896
 50
89.999999999993463
 51
180.000000000006
  0
LINE
  5
44
  8
1
 10
282.5377105105801
 20
149.04451438848909
 30
0.0
 11
255.0377105105801
 21
149.04451438848909
 31
0.0
  0
LINE
  5
45
  8
0
 10
259.0377105105801
 20
164.04451438848909
 30
0.0
 11
264.87410766808603
 21
164.04451438848909
 31
0.0
  0
LINE
  5
46
  8
0
 10
278.0377105105801
 20
134.0445143884892
 30
0.0
 11
269.03770968137991
 21
134.0445143884892
 31
0.0
  0
LINE
  5
47
  8
0
 10
259.0377105105801
 20
134.0445143884892
 30
0.0
 11
259.0377105105801
 21
143.0445143884892
 31
0.0
  0
LINE
  5
48
  8
0
 10
259.0377105105801
 20
164.04451438848909
 30
0.0
 11
259.0377105105801
 21
155.0445143884892
 31
0.0
  0
LINE
  5
49
  8
0
 10
259.0377105105801
 20
155.0445143884892
 30
0.0
 11
276.5377105105801
 21
155.0445143884892
 31
0.0
  0
LINE
  5
4A
  8
0
 10
276.5377105105801
 20
143.0445143884892
 30
0.0
 11
259.0377105105801
 21
143.0445143884892
 31
0.0
  0
LINE
  5
4B
  8
0
 10
260.0377105105801
 20
155.0445143884892
 30
0.0
 11
260.0377105105801
 21
143.0445143884892
 31
0.0
  0
LINE
  5
4C
  8
0
 10
278.0377105105801
 20
166.94451438848901
 30
0.0
 11
278.0377105105801
 21
160.94451438848901
 31
0.0
  0
LINE
  5
4D
  8
0
 10
278.0377105105801
 20
166.94451438848901
 30
0.0
 11
271.0377105105801
 21
166.94451438848901
 31
0.0
  0
LINE
  5
4E
  8
2
 10
269.0377105105801
 20
158.94451438848901
 30
0.0
 11
269.0377105105801
 21
139.14451438848931
 31
0.0
  0
LINE
  5
4F
  8
2
 10
263.0377105105801
 20
158.94451438848901
 30
0.0
 11
263.0377105105801
 21
139.14451438848931
 31
0.0
  0
ARC
  5
50
  8
0
 10
271.0377105105801
 20
158.94451438848901
 30
0.0
 40
2.0
 50
90.0
 51
180.0
  0
LINE
  5
51
  8
1
 10
283.0377105105801
 20
163.94451438848901
 30
0.0
 11
271.0377105105801
 21
163.94451438848901
 31
0.0
  0
ARC
  5
52
  8
1
 10
271.0377105105801
 20
158.94451438848901
 30
0.0
 40
5.0
 50
90.0
 51
180.0
  0
LINE
  5
53
  8
0
 10
278.0377105105801
 20
160.94451438848901
 30
0.0
 11
271.0377105105801
 21
160.94451438848901
 31
0.0
  0
LINE
  5
54
  8
0
 10
269.0377105105801
 20
139.14451438848931
 30
0.0
 11
269.03770470617849
 21
103.4445143884891
 31
0.0
  0
LINE
  5
55
  8
0
 10
263.0377105105801
 20
139.14451438848931
 30
0.0
 11
263.03770470617849
 21
103.4445143884891
 31
0.0
  0
LINE
  5
56
  8
0
 10
269.03770470617849
 20
103.4445143884891
 30
0.0
 11
263.03770470617849
 21
103.4445143884891
 31
0.0
  0
LINE
  5
57
  8
0
 10
267.5377047061786
 20
95.944514388489026
 30
0.0
 11
269.03770470617849
 21
103.4445143884891
 31
0.0
  0
LINE
  5
58
  8
0
 10
264.53770470617849
 20
95.944514388489026
 30
0.0
 11
267.5377047061786
 21
95.944514388489026
 31
0.0
  0
LINE
  5
59
  8
0
 10
263.03770470617849
 20
103.4445143884891
 30
0.0
 11
264.53770470617849
 21
95.944514388489026
 31
0.0
  0
LINE
  5
5A
  8
1
 10
266.0377105105801
 20
158.94451438848901
 30
0.0
 11
266.0377047061786
 21
90.944514388489026
 31
0.0
  0
LINE
  5
5B
  8
0
 10
100.0377085757796
 20
134.0445143884892
 30
0.0
 11
90.03770857577949
 21
134.0445143884892
 31
0.0
  0
LINE
  5
5C
  8
1
 10
201.037706640979
 20
149.04451438848909
 30
0.0
 11
233.037706640979
 21
149.04451438848909
 31
0.0
  0
LINE
  5
5D
  8
0
 10
100.0377085757797
 20
163.9445143884904
 30
0.0
 11
100.0377085757797
 21
158.94451438848901
 31
0.0
  0
LINE
  5
5E
  8
0
 10
106.0377085757794
 20
163.9445143884904
 30
0.0
 11
106.0377085757794
 21
158.94451438848901
 31
0.0
  0
LINE
  5
5F
  8
0
 10
106.03604144589229
 20
164.04451438848909
 30
0.0
 11
110.0377085757795
 21
164.04451438848909
 31
0.0
  0
CIRCLE
  5
60
  8
0
 10
103.0377085757795
 20
163.9445143884904
 30
0.0
 40
2.9999999999998672
  0
LINE
  5
61
  8
1
 10
83.037708575779504
 20
149.04451438848909
 30
0.0
 11
115.0377085757795
 21
149.04451438848909
 31
0.0
  0
LINE
  5
62
  8
0
 10
105.8377066409786
 20
158.94451438848901
 30
0.0
 11
105.8377066409785
 21
139.14451438848931
 31
0.0
  0
LINE
  5
63
  8
0
 10
102.037706640979
 20
158.94451438848901
 30
0.0
 11
102.037706640979
 21
139.14451438848931
 31
0.0
  0
LINE
  5
64
  8
0
 10
96.53770664097901
 20
158.94451438848901
 30
0.0
 11
96.53770664097901
 21
139.14451438848931
 31
0.0
  0
LINE
  5
65
  8
0
 10
108.0377066409785
 20
164.04451438848909
 30
0.0
 11
108.0377066409785
 21
134.0445143884892
 31
0.0
  0
LINE
  5
66
  8
0
 10
90.03770857577949
 20
158.94451438848901
 30
0.0
 11
108.0377066409785
 21
158.94451438848901
 31
0.0
  0
LINE
  5
67
  8
0
 10
90.03770857577949
 20
139.14451438848931
 30
0.0
 11
108.0377066409785
 21
139.14451438848931
 31
0.0
  0
LINE
  5
68
  8
0
 10
93.037706640979025
 20
155.0445143884892
 30
0.0
 11
93.037706640979025
 21
143.0445143884892
 31
0.0
  0
LINE
  5
69
  8
0
 10
91.03770664097901
 20
143.0445143884892
 30
0.0
 11
91.03770664097901
 21
155.0445143884892
 31
0.0
  0
LINE
  5
6A
  8
0
 10
100.0377085757796
 20
139.14451438848931
 30
0.0
 11
100.0377085757795
 21
103.4445143884891
 31
0.0
  0
LINE
  5
6B
  8
0
 10
106.0377085757795
 20
139.14451438848931
 30
0.0
 11
106.0377085757795
 21
103.4445143884891
 31
0.0
  0
LINE
  5
6C
  8
0
 10
100.0377085757795
 20
103.4445143884891
 30
0.0
 11
106.0377085757795
 21
103.4445143884891
 31
0.0
  0
LINE
  5
6D
  8
0
 10
101.5377085757795
 20
95.944514388489026
 30
0.0
 11
100.0377085757795
 21
103.4445143884891
 31
0.0
  0
LINE
  5
6E
  8
0
 10
104.5377085757795
 20
95.944514388489026
 30
0.0
 11
101.5377085757795
 21
95.944514388489026
 31
0.0
  0
LINE
  5
6F
  8
0
 10
106.0377085757795
 20
103.4445143884891
 30
0.0
 11
104.5377085757795
 21
95.944514388489026
 31
0.0
  0
LINE
  5
70
  8
1
 10
103.0377058783812
 20
171.94451438848901
 30
0.0
 11
103.0377085757795
 21
90.944514388489026
 31
0.0
  0
LINE
  5
71
  8
0
 10
90.03770857577949
 20
164.04451438848909
 30
0.0
 11
100.0393757056667
 21
164.04451438848909
 31
0.0
  0
LINE
  5
72
  8
0
 10
110.0377085757795
 20
164.04451438848909
 30
0.0
 11
110.0377085757795
 21
134.0445143884892
 31
0.0
  0
LINE
  5
73
  8
0
 10
110.0377085757795
 20
134.0445143884892
 30
0.0
 11
106.0377085757795
 21
134.0445143884892
 31
0.0
  0
LINE
  5
74
  8
0
 10
90.03770857577949
 20
134.0445143884892
 30
0.0
 11
90.03770857577949
 21
143.0445143884892
 31
0.0
  0
LINE
  5
75
  8
0
 10
90.03770857577949
 20
155.0445143884892
 30
0.0
 11
90.03770857577949
 21
164.04451438848909
 31
0.0
  0
LINE
  5
76
  8
0
 10
88.037708575779504
 20
143.0445143884892
 30
0.0
 11
88.037708575779504
 21
155.0445143884892
 31
0.0
  0
LINE
  5
77
  8
0
 10
88.037708575779504
 20
155.0445143884892
 30
0.0
 11
93.037706640979025
 21
155.0445143884892
 31
0.0
  0
LINE
  5
78
  8
0
 10
88.037708575779504
 20
143.0445143884892
 30
0.0
 11
93.037706640979025
 21
143.0445143884892
 31
0.0
  0
LINE
  5
79
  8
0
 10
228.037706640979
 20
143.0445143884892
 30
0.0
 11
207.037706640979
 21
143.0445143884892
 31
0.0
  0
LINE
  5
7A
  8
0
 10
228.037706640979
 20
155.0445143884892
 30
0.0
 11
207.037706640979
 21
155.0445143884892
 31
0.0
  0
LINE
  5
7B
  8
0
 10
228.037706640979
 20
143.0445143884892
 30
0.0
 11
228.037706640979
 21
155.0445143884892
 31
0.0
  0
LINE
  5
7C
  8
0
 10
207.037706640979
 20
143.0445143884892
 30
0.0
 11
207.037706640979
 21
155.0445143884892
 31
0.0
  0
LINE
  5
7D
  8
0
 10
224.037706640979
 20
155.0445143884892
 30
0.0
 11
224.037706640979
 21
164.04451438848909
 31
0.0
  0
LINE
  5
7E
  8
0
 10
226.037706640979
 20
155.0445143884892
 30
0.0
 11
226.037706640979
 21
164.04451438848909
 31
0.0
  0
ARC
  5
7F
  8
0
 10
213.037706640979
 20
163.9445143884904
 30
0.0
 40
3.0
 50
1.91021317168823
 51
178.0897868283117
  0
LINE
  5
80
  8
0
 10
224.037706640979
 20
134.0445143884892
 30
0.0
 11
224.037706640979
 21
143.0445143884892
 31
0.0
  0
LINE
  5
81
  8
0
 10
226.037706640979
 20
134.0445143884892
 30
0.0
 11
226.037706640979
 21
143.0445143884892
 31
0.0
  0
LINE
  5
82
  8
0
 10
206.037706640979
 20
134.0445143884892
 30
0.0
 11
226.037706640979
 21
134.0445143884892
 31
0.0
  0
LINE
  5
83
  8
0
 10
206.037706640979
 20
164.04451438848909
 30
0.0
 11
206.037706640979
 21
134.0445143884892
 31
0.0
  0
LINE
  5
84
  8
0
 10
226.037706640979
 20
164.04451438848909
 30
0.0
 11
206.037706640979
 21
164.04451438848909
 31
0.0
  0
LINE
  5
85
  8
1
 10
213.0377093383774
 20
171.94451438848901
 30
0.0
 11
213.037706640979
 21
90.944514388489026
 31
0.0
  0
LINE
  5
86
  8
0
 10
210.037706640979
 20
103.4445143884891
 30
0.0
 11
211.537706640979
 21
95.944514388489026
 31
0.0
  0
LINE
  5
87
  8
0
 10
211.537706640979
 20
95.944514388489026
 30
0.0
 11
214.537706640979
 21
95.944514388489026
 31
0.0
  0
LINE
  5
88
  8
0
 10
214.537706640979
 20
95.944514388489026
 30
0.0
 11
216.037706640979
 21
103.4445143884891
 31
0.0
  0
LINE
  5
89
  8
0
 10
216.037706640979
 20
103.4445143884891
 30
0.0
 11
210.037706640979
 21
103.4445143884891
 31
0.0
  0
LINE
  5
8A
  8
0
 10
210.037706640979
 20
134.0445143884892
 30
0.0
 11
210.037706640979
 21
103.4445143884891
 31
0.0
  0
LINE
  5
8B
  8
0
 10
216.037706640979
 20
134.0445143884892
 30
0.0
 11
216.037706640979
 21
103.4445143884891
 31
0.0
  0
LINE
  5
8C
  8
1
 10
143.03770664097891
 20
149.04451438848909
 30
0.0
 11
171.037706640979
 21
149.04451438848909
 31
0.0
  0
LINE
  5
8D
  8
0
 10
163.037706640979
 20
134.0445143884892
 30
0.0
 11
163.037706640979
 21
103.4445143884891
 31
0.0
  0
LINE
  5
8E
  8
0
 10
157.037706640979
 20
134.0445143884892
 30
0.0
 11
157.037706640979
 21
103.4445143884891
 31
0.0
  0
LINE
  5
8F
  8
2
 10
148.037706640979
 20
160.94451438848901
 30
0.0
 11
155.037706640979
 21
160.94451438848901
 31
0.0
  0
ARC
  5
90
  8
0
 10
155.037706640979
 20
158.94451438848901
 30
0.0
 40
8.0
 50
39.605652393867878
 51
90.0
  0
LINE
  5
91
  8
0
 10
163.037706640979
 20
103.4445143884891
 30
0.0
 11
157.037706640979
 21
103.4445143884891
 31
0.0
  0
LINE
  5
92
  8
0
 10
161.537706640979
 20
95.944514388489026
 30
0.0
 11
163.037706640979
 21
103.4445143884891
 31
0.0
  0
LINE
  5
93
  8
0
 10
158.537706640979
 20
95.944514388489026
 30
0.0
 11
161.537706640979
 21
95.944514388489026
 31
0.0
  0
LINE
  5
94
  8
0
 10
157.037706640979
 20
103.4445143884891
 30
0.0
 11
158.537706640979
 21
95.944514388489026
 31
0.0
  0
LINE
  5
95
  8
1
 10
160.037706640979
 20
155.01915467625881
 30
0.0
 11
160.037706640979
 21
87.019154676258793
 31
0.0
  0
ARC
  5
96
  8
1
 10
155.037706640979
 20
158.94451438848901
 30
0.0
 40
5.0
 50
0.0
 51
90.0
  0
LINE
  5
97
  8
1
 10
143.037706640979
 20
163.94451438848901
 30
0.0
 11
155.037706640979
 21
163.94451438848901
 31
0.0
  0
ARC
  5
98
  8
2
 10
155.037706640979
 20
158.94451438848901
 30
0.0
 40
8.0
 50
0.0
 51
39.605652393867878
  0
ARC
  5
99
  8
2
 10
155.037706640979
 20
158.94451438848901
 30
0.0
 40
2.0
 50
0.0
 51
90.0
  0
LINE
  5
9A
  8
2
 10
163.037706640979
 20
158.94451438848901
 30
0.0
 11
163.037706640979
 21
134.0445143884892
 31
0.0
  0
LINE
  5
9B
  8
2
 10
157.037706640979
 20
158.94451438848901
 30
0.0
 11
157.037706640979
 21
134.0445143884892
 31
0.0
  0
LINE
  5
9C
  8
0
 10
148.037706640979
 20
166.94451438848901
 30
0.0
 11
155.037706640979
 21
166.94451438848901
 31
0.0
  0
LINE
  5
9D
  8
0
 10
148.037706640979
 20
166.94451438848901
 30
0.0
 11
148.037706640979
 21
160.94451438848901
 31
0.0
  0
LINE
  5
9E
  8
0
 10
154.037706640979
 20
155.0445143884892
 30
0.0
 11
154.037706640979
 21
143.0445143884892
 31
0.0
  0
LINE
  5
9F
  8
0
 10
166.037706640979
 20
155.0445143884892
 30
0.0
 11
166.037706640979
 21
143.0445143884892
 31
0.0
  0
LINE
  5
A0
  8
0
 10
153.53770664097891
 20
143.0445143884892
 30
0.0
 11
167.037706640979
 21
143.0445143884892
 31
0.0
  0
LINE
  5
A1
  8
0
 10
167.037706640979
 20
155.0445143884892
 30
0.0
 11
153.53770664097891
 21
155.0445143884892
 31
0.0
  0
LINE
  5
A2
  8
0
 10
153.53770664097891
 20
155.0445143884892
 30
0.0
 11
153.53770664097891
 21
143.0445143884892
 31
0.0
  0
LINE
  5
A3
  8
0
 10
150.03770664097979
 20
164.04451438848909
 30
0.0
 11
150.03770664097979
 21
134.0445143884892
 31
0.0
  0
LINE
  5
A4
  8
0
 10
167.037706640979
 20
164.04451438848909
 30
0.0
 11
167.037706640979
 21
155.0445143884892
 31
0.0
  0
LINE
  5
A5
  8
0
 10
167.037706640979
 20
134.0445143884892
 30
0.0
 11
167.037706640979
 21
143.0445143884892
 31
0.0
  0
LINE
  5
A6
  8
0
 10
148.03770664097891
 20
134.0445143884892
 30
0.0
 11
167.037706640979
 21
134.0445143884892
 31
0.0
  0
LINE
  5
A7
  8
0
 10
148.03770664097891
 20
164.04451438848909
 30
0.0
 11
148.03770664097891
 21
134.0445143884892
 31
0.0
  0
LINE
  5
A8
  8
0
 10
167.037706640979
 20
164.04451438848909
 30
0.0
 11
148.03770664097891
 21
164.04451438848909
 31
0.0
  0
LINE
  5
A9
  8
2
 10
151.83770664097921
 20
202.01573741007189
 30
0.0
 11
151.83770664097921
 21
202.21573741007239
 31
0.0
  0
LINE
  5
AA
  8
0
 10
150.037706640979
 20
208.01573741007189
 30
0.0
 11
150.037706640979
 21
211.51573741007189
 31
0.0
  0
LINE
  5
AB
  8
0
 10
153.88770664097899
 20
215.09073741007199
 30
0.0
 11
150.037706640979
 21
217.01573741007189
 31
0.0
  0
LINE
  5
AC
  8
0
 10
166.037706640979
 20
217.01573741007189
 30
0.0
 11
166.037706640979
 21
220.01573741007189
 31
0.0
  0
LINE
  5
AD
  8
1
 10
160.037706640979
 20
192.01573741007189
 30
0.0
 11
160.037706640979
 21
218.01573741007189
 31
0.0
  0
LINE
  5
AE
  8
1
 10
143.037706640979
 20
205.01573741007189
 30
0.0
 11
173.037706640979
 21
205.01573741007189
 31
0.0
  0
ARC
  5
AF
  8
0
 10
160.037706640979
 20
205.01573741007189
 30
0.0
 40
3.0
 50
270.0
 51
90.0
  0
LINE
  5
B0
  8
0
 10
148.037706640979
 20
208.01573741007189
 30
0.0
 11
148.037706640979
 21
202.01573741007189
 31
0.0
  0
LINE
  5
B1
  8
0
 10
160.037706640979
 20
202.01573741007189
 30
0.0
 11
148.037706640979
 21
202.01573741007189
 31
0.0
  0
LINE
  5
B2
  8
0
 10
160.037706640979
 20
208.01573741007189
 30
0.0
 11
148.037706640979
 21
208.01573741007189
 31
0.0
  0
LINE
  5
B3
  8
1
 10
158.037706640979
 20
205.01573741007189
 30
0.0
 11
158.037706640979
 21
225.01573741007189
 31
0.0
  0
LINE
  5
B4
  8
2
 10
148.037706640979
 20
202.21573741007239
 30
0.0
 11
150.037706640979
 21
206.01573741007189
 31
0.0
  0
LINE
  5
B5
  8
2
 10
150.037706640979
 20
206.01573741007189
 30
0.0
 11
150.037706640979
 21
208.01573741007189
 31
0.0
  0
LINE
  5
B6
  8
2
 10
151.83770664097921
 20
202.21573741007239
 30
0.0
 11
148.03770664097891
 21
202.21573741007239
 31
0.0
  0
LINE
  5
B7
  8
0
 10
151.83770664097921
 20
200.0157374100724
 30
0.0
 11
151.83770664097921
 21
202.01573741007189
 31
0.0
  0
LINE
  5
B8
  8
0
 10
157.037706640979
 20
218.01573741007189
 30
0.0
 11
150.037706640979
 21
211.51573741007189
 31
0.0
  0
LINE
  5
B9
  8
0
 10
165.037706640979
 20
218.01573741007189
 30
0.0
 11
157.037706640979
 21
218.01573741007189
 31
0.0
  0
ARC
  5
BA
  8
0
 10
163.037706640979
 20
202.0157374100724
 30
0.0
 40
2.0
 50
270.0
 51
0.0
  0
ARC
  5
BB
  8
0
 10
162.037706640979
 20
203.01573741007189
 30
0.0
 40
5.0
 50
270.0
 51
0.0
  0
LINE
  5
BC
  8
0
 10
165.037706640979
 20
202.0157374100724
 30
0.0
 11
165.037706640979
 21
218.01573741007189
 31
0.0
  0
LINE
  5
BD
  8
0
 10
148.03770664097891
 20
200.0157374100724
 30
0.0
 11
163.037706640979
 21
200.0157374100724
 31
0.0
  0
LINE
  5
BE
  8
0
 10
150.03770664097979
 20
198.01573741007189
 30
0.0
 11
148.03770664097891
 21
200.0157374100724
 31
0.0
  0
LINE
  5
BF
  8
0
 10
162.037706640979
 20
198.01573741007189
 30
0.0
 11
150.03770664097979
 21
198.01573741007189
 31
0.0
  0
LINE
  5
C0
  8
0
 10
167.037706640979
 20
216.01573741007189
 30
0.0
 11
167.037706640979
 21
203.01573741007189
 31
0.0
  0
LINE
  5
C1
  8
0
 10
165.037706640979
 20
218.01573741007189
 30
0.0
 11
167.037706640979
 21
216.01573741007189
 31
0.0
  0
LINE
  5
C2
  8
4
 10
154.037706640979
 20
215.01573741007189
 30
0.0
 11
153.88770664097899
 21
215.09073741007199
 31
0.0
  0
LINE
  5
C3
  8
2
 10
154.037706640979
 20
205.01573741007189
 30
0.0
 11
154.037706640979
 21
215.01573741007189
 31
0.0
  0
LINE
  5
C4
  8
2
 10
166.037706640979
 20
205.01573741007189
 30
0.0
 11
166.037706640979
 21
217.01573741007189
 31
0.0
  0
ARC
  5
C5
  8
2
 10
160.037706640979
 20
205.01573741007189
 30
0.0
 40
6.0
 50
180.0
 51
0.0
  0
LINE
  5
C6
  8
0
 10
150.037706640979
 20
220.01573741007189
 30
0.0
 11
150.037706640979
 21
217.01573741007189
 31
0.0
  0
LINE
  5
C7
  8
0
 10
166.037706640979
 20
220.01573741007189
 30
0.0
 11
150.037706640979
 21
220.01573741007189
 31
0.0
  0
LINE
  5
C8
  8
0
 10
166.037706640979
 20
36.472571942445967
 30
0.0
 11
150.037706640979
 21
36.472571942445967
 31
0.0
  0
LINE
  5
C9
  8
0
 10
150.037706640979
 20
36.472571942445967
 30
0.0
 11
150.037706640979
 21
39.472571942445981
 31
0.0
  0
ARC
  5
CA
  8
2
 10
160.037706640979
 20
51.472571942445967
 30
0.0
 40
6.0
 50
360.0
 51
180.0
  0
LINE
  5
CB
  8
2
 10
166.037706640979
 20
51.472571942445967
 30
0.0
 11
166.037706640979
 21
39.472571942445981
 31
0.0
  0
LINE
  5
CC
  8
2
 10
154.037706640979
 20
51.472571942445967
 30
0.0
 11
154.037706640979
 21
41.472571942445967
 31
0.0
  0
LINE
  5
CD
  8
4
 10
154.037706640979
 20
41.472571942445967
 30
0.0
 11
153.88770664097899
 21
41.397571942445929
 31
0.0
  0
LINE
  5
CE
  8
0
 10
165.037706640979
 20
38.472571942445981
 30
0.0
 11
167.037706640979
 21
40.472571942445967
 31
0.0
  0
LINE
  5
CF
  8
0
 10
167.037706640979
 20
40.472571942445967
 30
0.0
 11
167.037706640979
 21
53.472571942445967
 31
0.0
  0
LINE
  5
D0
  8
0
 10
162.037706640979
 20
58.472571942445967
 30
0.0
 11
150.03770664097979
 21
58.472571942445967
 31
0.0
  0
LINE
  5
D1
  8
0
 10
150.03770664097979
 20
58.472571942445967
 30
0.0
 11
148.03770664097891
 21
56.472571942445512
 31
0.0
  0
LINE
  5
D2
  8
0
 10
148.03770664097891
 20
56.472571942445512
 30
0.0
 11
163.037706640979
 21
56.472571942445512
 31
0.0
  0
LINE
  5
D3
  8
0
 10
165.037706640979
 20
54.472571942445512
 30
0.0
 11
165.037706640979
 21
38.472571942445981
 31
0.0
  0
ARC
  5
D4
  8
0
 10
162.037706640979
 20
53.472571942445967
 30
0.0
 40
5.0
 50
360.0
 51
90.0
  0
ARC
  5
D5
  8
0
 10
163.037706640979
 20
54.472571942445512
 30
0.0
 40
2.0
 50
360.0
 51
90.0
  0
LINE
  5
D6
  8
0
 10
165.037706640979
 20
38.472571942445981
 30
0.0
 11
157.037706640979
 21
38.472571942445981
 31
0.0
  0
LINE
  5
D7
  8
0
 10
157.037706640979
 20
38.472571942445981
 30
0.0
 11
150.037706640979
 21
44.972571942445967
 31
0.0
  0
LINE
  5
D8
  8
0
 10
151.83770664097921
 20
56.472571942445512
 30
0.0
 11
151.83770664097921
 21
54.47257194244596
 31
0.0
  0
LINE
  5
D9
  8
2
 10
151.83770664097921
 20
54.27257194244546
 30
0.0
 11
148.03770664097891
 21
54.27257194244546
 31
0.0
  0
LINE
  5
DA
  8
2
 10
150.037706640979
 20
50.472571942445967
 30
0.0
 11
150.037706640979
 21
48.472571942445967
 31
0.0
  0
LINE
  5
DB
  8
2
 10
148.037706640979
 20
54.27257194244546
 30
0.0
 11
150.037706640979
 21
50.472571942445967
 31
0.0
  0
LINE
  5
DC
  8
1
 10
158.037706640979
 20
51.472571942445967
 30
0.0
 11
158.037706640979
 21
31.47257194244597
 31
0.0
  0
LINE
  5
DD
  8
0
 10
150.037706640979
 20
48.472571942445967
 30
0.0
 11
148.037706640979
 21
48.472571942445967
 31
0.0
  0
LINE
  5
DE
  8
0
 10
151.83770664097921
 20
54.47257194244596
 30
0.0
 11
148.037706640979
 21
54.47257194244596
 31
0.0
  0
LINE
  5
DF
  8
0
 10
148.037706640979
 20
48.472571942445967
 30
0.0
 11
148.037706640979
 21
54.47257194244596
 31
0.0
  0
LINE
  5
E0
  8
1
 10
143.037706640979
 20
51.472571942445967
 30
0.0
 11
173.037706640979
 21
51.472571942445967
 31
0.0
  0
LINE
  5
E1
  8
1
 10
160.037706640979
 20
64.472571942445967
 30
0.0
 11
160.037706640979
 21
38.472571942445981
 31
0.0
  0
LINE
  5
E2
  8
0
 10
166.037706640979
 20
39.472571942445981
 30
0.0
 11
166.037706640979
 21
36.472571942445967
 31
0.0
  0
LINE
  5
E3
  8
0
 10
153.88770664097899
 20
41.397571942445929
 30
0.0
 11
150.037706640979
 21
39.472571942445981
 31
0.0
  0
LINE
  5
E4
  8
0
 10
150.037706640979
 20
48.472571942445967
 30
0.0
 11
150.037706640979
 21
44.972571942445967
 31
0.0
  0
LINE
  5
E5
  8
2
 10
151.83770664097921
 20
54.47257194244596
 30
0.0
 11
151.83770664097921
 21
54.27257194244546
 31
0.0
  0
CIRCLE
  5
E6
  8
0
 10
160.037706640979
 20
51.472571942445967
 30
0.0
 40
3.0
  0
CIRCLE
  5
E7
  8
0
 10
160.037706640979
 20
51.472571942445967
 30
0.0
 40
1.5
  0
TEXT
  5
241
  8
0
 62
     3
 10
0.0
 20
0.0
 30
0.0
 40
10.0
  1
PLH301B
  7
STANDARD1
  0
ENDSEC
  0
EOF
