  0
SECTION
  2
HEADER
  9
$ACADVER
  1
AC1009
  9
$INSBASE
 10
0.0
 20
0.0
 30
0.0
  9
$EXTMIN
 10
0.0
 20
-2.960436562073669
 30
0.0
  9
$EXTMAX
 10
276.79999982999999
 20
213.0
 30
0.0
  9
$LIMMIN
 10
0.0
 20
0.0
  9
$LIMMAX
 10
375.0
 20
270.0
  9
$ORTHOMODE
 70
     1
  9
$REGENMODE
 70
     1
  9
$FILLMODE
 70
     1
  9
$QTEXTMODE
 70
     0
  9
$MIRRTEXT
 70
     0
  9
$DRAGMODE
 70
     2
  9
$LTSCALE
 40
5.0
  9
$OSMODE
 70
    37
  9
$ATTMODE
 70
     1
  9
$TEXTSIZE
 40
0.2
  9
$TRACEWID
 40
0.05
  9
$TEXTSTYLE
  7
STANDARD
  9
$CLAYER
  8
0
  9
$CELTYPE
  6
BYLAYER
  9
$CECOLOR
 62
   256
  9
$DIMSCALE
 40
1.0
  9
$DIMASZ
 40
3.0
  9
$DIMEXO
 40
2.0
  9
$DIMDLI
 40
0.38
  9
$DIMRND
 40
0.0
  9
$DIMDLE
 40
0.0
  9
$DIMEXE
 40
2.0
  9
$DIMTP
 40
0.0
  9
$DIMTM
 40
0.0
  9
$DIMTXT
 40
3.2000000000000002
  9
$DIMCEN
 40
0.0
  9
$DIMTSZ
 40
0.0
  9
$DIMTOL
 70
     0
  9
$DIMLIM
 70
     0
  9
$DIMTIH
 70
     0
  9
$DIMTOH
 70
     0
  9
$DIMSE1
 70
     0
  9
$DIMSE2
 70
     0
  9
$DIMTAD
 70
     1
  9
$DIMZIN
 70
     0
  9
$DIMBLK
  1

  9
$DIMASO
 70
     0
  9
$DIMSHO
 70
     0
  9
$DIMPOST
  1

  9
$DIMAPOST
  1

  9
$DIMALT
 70
     0
  9
$DIMALTD
 70
     2
  9
$DIMALTF
 40
25.399999999999999
  9
$DIMLFAC
 40
1.0
  9
$DIMTOFL
 70
     0
  9
$DIMTVP
 40
1.6000000000000001
  9
$DIMTIX
 70
     1
  9
$DIMSOXD
 70
     0
  9
$DIMSAH
 70
     0
  9
$DIMBLK1
  1

  9
$DIMBLK2
  1

  9
$DIMSTYLE
  2
STANDARD
  9
$DIMCLRD
 70
     4
  9
$DIMCLRE
 70
     4
  9
$DIMCLRT
 70
     4
  9
$DIMTFAC
 40
1.0
  9
$DIMGAP
 40
0.09
  9
$LUNITS
 70
     2
  9
$LUPREC
 70
     1
  9
$SKETCHINC
 40
0.1
  9
$FILLETRAD
 40
0.0
  9
$AUNITS
 70
     0
  9
$AUPREC
 70
     1
  9
$MENU
  1
E:\r13\win\SUPPORT\ACAD
  9
$ELEVATION
 40
0.0
  9
$PELEVATION
 40
0.0
  9
$THICKNESS
 40
0.0
  9
$LIMCHECK
 70
     0
  9
$BLIPMODE
 70
     0
  9
$CHAMFERA
 40
0.0
  9
$CHAMFERB
 40
0.0
  9
$SKPOLY
 70
     0
  9
$TDCREATE
 40
2449840.6508564819
  9
$TDUPDATE
 40
2457968.4254733911
  9
$TDINDWG
 40
0.3282492824
  9
$TDUSRTIMER
 40
0.3282492824
  9
$USRTIMER
 70
     1
  9
$ANGBASE
 50
0.0
  9
$ANGDIR
 70
     0
  9
$PDMODE
 70
     0
  9
$PDSIZE
 40
0.0
  9
$PLINEWID
 40
0.0
  9
$COORDS
 70
     1
  9
$SPLFRAME
 70
     0
  9
$SPLINETYPE
 70
     6
  9
$SPLINESEGS
 70
     8
  9
$ATTDIA
 70
     0
  9
$ATTREQ
 70
     1
  9
$HANDLING
 70
     1
  9
$HANDSEED
  5
267B
  9
$SURFTAB1
 70
     6
  9
$SURFTAB2
 70
     6
  9
$SURFTYPE
 70
     6
  9
$SURFU
 70
     6
  9
$SURFV
 70
     6
  9
$UCSNAME
  2

  9
$UCSORG
 10
0.0
 20
0.0
 30
0.0
  9
$UCSXDIR
 10
1.0
 20
0.0
 30
0.0
  9
$UCSYDIR
 10
0.0
 20
1.0
 30
0.0
  9
$PUCSNAME
  2

  9
$PUCSORG
 10
0.0
 20
0.0
 30
0.0
  9
$PUCSXDIR
 10
1.0
 20
0.0
 30
0.0
  9
$PUCSYDIR
 10
0.0
 20
1.0
 30
0.0
  9
$USERI1
 70
     0
  9
$USERI2
 70
     1
  9
$USERI3
 70
     1
  9
$USERI4
 70
     0
  9
$USERI5
 70
     0
  9
$USERR1
 40
0.0
  9
$USERR2
 40
0.0
  9
$USERR3
 40
0.0
  9
$USERR4
 40
0.0
  9
$USERR5
 40
0.0
  9
$WORLDVIEW
 70
     1
  9
$SHADEDGE
 70
     3
  9
$SHADEDIF
 70
    70
  9
$TILEMODE
 70
     1
  9
$MAXACTVP
 70
    16
  9
$PLIMCHECK
 70
     0
  9
$PEXTMIN
 10
1.0000000000000000E+020
 20
1.0000000000000000E+020
 30
1.0000000000000000E+020
  9
$PEXTMAX
 10
-1.0000000000000000E+020
 20
-1.0000000000000000E+020
 30
-1.0000000000000000E+020
  9
$PLIMMIN
 10
0.0
 20
0.0
  9
$PLIMMAX
 10
12.0
 20
9.0
  9
$UNITMODE
 70
     0
  9
$VISRETAIN
 70
     0
  9
$PLINEGEN
 70
     0
  9
$PSLTSCALE
 70
     0
  0
ENDSEC
  0
SECTION
  2
TABLES
  0
TABLE
  2
VPORT
 70
     1
  0
VPORT
  2
*ACTIVE
 70
     0
 10
0.0
 20
0.0
 11
1.0
 21
1.0
 12
272.4358974358974
 22
150.0
 13
0.0
 23
0.0
 14
10.0
 24
10.0
 15
10.0
 25
10.0
 16
0.0
 26
0.0
 36
1.0
 17
0.0
 27
0.0
 37
0.0
 40
300.0
 41
1.816239316239316
 42
50.0
 43
0.0
 44
0.0
 50
0.0
 51
0.0
 71
     0
 72
   500
 73
     1
 74
     0
 75
     0
 76
     0
 77
     0
 78
     2
  0
ENDTAB
  0
TABLE
  2
LTYPE
 70
     3
  0
LTYPE
  2
CONTINUOUS
 70
     0
  3
Solid Line
 72
    65
 73
     0
 40
0.0
  0
LTYPE
  2
CENTER
 70
     0
  3
____ _ ____ _ ____ _ ____ _ ____ _ ____ _ ____
 72
    65
 73
     4
 40
2.0
 49
1.25
 49
-0.25
 49
0.25
 49
-0.25
  0
LTYPE
  2
PHANTOM2
 70
     0
  3
___ _ _ ___ _ _ ___ _ _ ___ _ _
 72
    65
 73
     6
 40
1.25
 49
0.625
 49
-0.125
 49
0.125
 49
-0.125
 49
0.125
 49
-0.125
  0
ENDTAB
  0
TABLE
  2
LAYER
 70
     3
  0
LAYER
  2
0
 70
     0
 62
     7
  6
CONTINUOUS
  0
LAYER
  2
1
 70
     0
 62
     1
  6
CENTER
  0
LAYER
  2
3
 70
     0
 62
     3
  6
CONTINUOUS
  0
ENDTAB
  0
TABLE
  2
STYLE
 70
     2
  0
STYLE
  2
STANDARD
 70
     0
 40
0.0
 41
1.0
 50
0.0
 71
     0
 42
0.2
  3
TXT
  4
BIGFONT
  0
STYLE
  2
STANDARD1
 70
     0
 40
0.0
 41
1.0
 50
0.0
 71
     0
 42
3.0
  3
txt
  4

  0
ENDTAB
  0
TABLE
  2
VIEW
 70
     1
  0
VIEW
  2
ALL
 70
     0
 40
270.0
 10
220.99159663865549
 20
135.0
 41
0.0
 11
0.0
 21
0.0
 31
1.0
 12
0.0
 22
0.0
 32
0.0
 42
0.0
 43
0.0
 44
0.0
 50
0.0
 71
     0
  0
ENDTAB
  0
TABLE
  2
UCS
 70
     0
  0
ENDTAB
  0
TABLE
  2
APPID
 70
    13
  0
APPID
  2
ACAD
 70
     0
  0
APPID
  2
GENIUS_GENODEF_13
 70
     0
  0
APPID
  2
GENIUS_GENOENT_13
 70
     0
  0
APPID
  2
GENIUS_GENOBJ_13
 70
     0
  0
APPID
  2
GENIUS_GENOLIS_13
 70
     0
  0
APPID
  2
GENIUS_GENOREF_13
 70
     0
  0
APPID
  2
GENIUS_GENOBJ-N-FIL_13
 70
     0
  0
APPID
  2
ACAD_MLEADERVER
 70
     0
  0
APPID
  2
ACAD_DSTYLE_DIMJAG
 70
     0
  0
APPID
  2
ACAD_DSTYLE_DIMTALN
 70
     0
  0
APPID
  2
ACAD_NAV_VCDISPLAY
 70
     0
  0
APPID
  2
ACAD_EXEMPT_FROM_CAD_STANDARDS
 70
     0
  0
APPID
  2
ACADANNOTATIVE
 70
     0
  0
ENDTAB
  0
TABLE
  2
DIMSTYLE
 70
     1
  0
DIMSTYLE
  2
STANDARD
 70
     0
  3

  4

  5

  6

  7

 40
1.0
 41
0.18
 42
0.0625
 43
0.38
 44
0.18
 45
0.0
 46
0.0
 47
0.0
 48
0.0
140
0.18
141
0.09
142
0.0
143
25.399999999999999
144
1.0
145
0.0
146
1.0
147
0.09
 71
     0
 72
     0
 73
     1
 74
     1
 75
     0
 76
     0
 77
     0
 78
     0
170
     0
171
     2
172
     0
173
     0
174
     0
175
     0
176
     0
177
     0
178
     0
  0
ENDTAB
  0
ENDSEC
  0
SECTION
  2
BLOCKS
  0
BLOCK
  8
0
  2
$MODEL_SPACE
 70
     0
 10
0.0
 20
0.0
 30
0.0
  3
$MODEL_SPACE
  1

  0
ENDBLK
  5
DC
  8
0
  0
BLOCK
 67
     1
  8
0
  2
$PAPER_SPACE
 70
     0
 10
0.0
 20
0.0
 30
0.0
  3
$PAPER_SPACE
  1

  0
ENDBLK
  5
DA
 67
     1
  8
0
  0
ENDSEC
  0
SECTION
  2
ENTITIES
  0
TEXT
  5
452
  8
0
 62
     3
 10
0.0
 20
0.0
 30
0.0
 40
10.0
  1
PLW3252L
  7
STANDARD1
  0
LINE
  5
1879
  8
0
 10
185.79999982999999
 20
61.649999845610289
 30
0.0
 11
185.79999982999999
 21
62.000000027999988
 31
0.0
  0
LINE
  5
187A
  8
0
 10
185.79999982999999
 20
83.999999971999955
 30
0.0
 11
185.79999982999999
 21
84.350000077194977
 31
0.0
  0
LINE
  5
187B
  8
0
 10
185.79999982999999
 20
69.999999971999955
 30
0.0
 11
185.79999982999999
 21
76.000000027999974
 31
0.0
  0
LINE
  5
187D
  8
0
 10
178.5
 20
50.0
 30
0.0
 11
178.5
 21
96.0
 31
0.0
  0
LINE
  5
187E
  8
0
 10
184.79624671375959
 20
96.0
 30
0.0
 11
178.5
 21
96.0
 31
0.0
  0
ARC
  5
1882
  8
0
 10
187.5333798048579
 20
80.0
 30
0.0
 40
4.0579179765682136
 50
132.51841103563891
 51
227.48158896436109
  0
ARC
  5
1884
  8
0
 10
187.5333798048579
 20
66.0
 30
0.0
 40
4.0579179765682047
 50
132.51841103563891
 51
227.4815889643634
  0
LINE
  5
1887
  8
0
 10
185.79999985800001
 20
62.0
 30
0.0
 11
184.79092924208709
 21
63.009070615912883
 31
0.0
  0
LINE
  5
1888
  8
0
 10
184.79092966882419
 20
68.990929810824184
 30
0.0
 11
185.79999985800001
 21
70.0
 31
0.0
  0
LINE
  5
1889
  8
0
 10
184.79092966882419
 20
82.990929810824184
 30
0.0
 11
185.79999985800001
 21
84.0
 31
0.0
  0
LINE
  5
188A
  8
0
 10
185.79999985800001
 20
76.0
 30
0.0
 11
184.79092924208709
 21
77.009070615912833
 31
0.0
  0
ARC
  5
188B
  8
0
 10
190.22145592594069
 20
58.4601658513958
 30
0.0
 40
5.4520010917032939
 50
144.19165166849029
 51
174.31750237390719
  0
LINE
  5
188C
  8
0
 10
184.79624671375959
 20
50.0
 30
0.0
 11
184.79624671375959
 21
59.0
 31
0.0
  0
LINE
  5
188D
  8
0
 10
178.5
 20
50.0
 30
0.0
 11
184.79624671375959
 21
50.0
 31
0.0
  0
LINE
  5
188E
  8
0
 10
184.79624671375959
 20
87.0
 30
0.0
 11
184.79624671375959
 21
96.0
 31
0.0
  0
ARC
  5
188F
  8
0
 10
189.76460688123649
 20
87.36679126095413
 30
0.0
 40
4.981881028575855
 50
184.22222528266909
 51
217.26862067494159
  0
LINE
  5
1891
  8
0
 10
168.0
 20
104.00000000998421
 30
0.0
 11
179.19999999000001
 21
104.00000000997559
 31
0.0
  0
ARC
  5
1892
  8
0
 10
179.20001972470001
 20
100.0000226574
 30
0.0
 40
3.9999773526243509
 50
7.8549754191985768
 51
90.000282680355809
  0
ARC
  5
1893
  8
0
 10
150.4721221142006
 20
96.036540335499936
 30
0.0
 40
32.999999649699411
 50
359.93655734981178
 51
7.8552582606334056
  0
ARC
  5
1894
  8
0
 10
177.99999999159999
 20
95.974254161899964
 30
0.0
 40
2.5000000015999921
 50
0.5900617441759994
 51
179.99999999078949
  0
ARC
  5
1895
  8
0
 10
150.499999844
 20
95.974254192099977
 30
0.0
 40
25.000000145999991
 50
335.2304132469273
 51
359.99999993170962
  0
LINE
  5
1896
  8
0
 10
173.19999999000541
 20
85.500000009999994
 30
0.0
 11
168.0
 21
85.500000009999994
 31
0.0
  0
CIRCLE
  5
189F
  8
0
 10
152.0
 20
96.000000000000014
 30
0.0
 40
7.8499999999999943
  0
CIRCLE
  5
18A3
  8
0
 10
152.0
 20
96.000000000000014
 30
0.0
 40
1.5
  0
CIRCLE
  5
18A4
  8
0
 10
152.0
 20
96.0
 30
0.0
 40
12.99999999999998
  0
CIRCLE
  5
18A5
  8
0
 10
152.0
 20
96.0
 30
0.0
 40
10.0
  0
LINE
  5
18AF
  8
0
 10
136.0
 20
74.0
 30
0.0
 11
136.0
 21
118.0
 31
0.0
  0
LINE
  5
18B2
  8
0
 10
140.0
 20
122.0
 30
0.0
 11
164.0
 21
122.0
 31
0.0
  0
LINE
  5
18B5
  8
0
 10
168.0
 20
118.0
 30
0.0
 11
168.0
 21
74.0
 31
0.0
  0
LINE
  5
18B8
  8
0
 10
164.0
 20
70.0
 30
0.0
 11
140.0
 21
70.0
 31
0.0
  0
ARC
  5
18BB
  8
0
 10
140.0
 20
118.0
 30
0.0
 40
4.0
 50
90.0
 51
180.0
  0
ARC
  5
18BC
  8
0
 10
164.0
 20
74.0
 30
0.0
 40
4.0000000000000284
 50
270.0
 51
0.0
  0
ARC
  5
18BD
  8
0
 10
164.0
 20
118.0
 30
0.0
 40
4.0000000000000284
 50
0.0
 51
90.0
  0
ARC
  5
18BE
  8
0
 10
140.0
 20
74.0
 30
0.0
 40
4.0000000000000142
 50
180.0
 51
270.0
  0
LINE
  5
18BF
  8
0
 10
270.39999940295007
 20
50.0
 30
0.0
 11
270.39999940295007
 21
96.0
 31
0.0
  0
LINE
  5
18C0
  8
0
 10
256.59999939755011
 20
96.0
 30
0.0
 11
256.59999939755011
 21
50.0
 31
0.0
  0
LINE
  5
18C1
  8
0
 10
269.7499998300226
 20
104.4999999999873
 30
0.0
 11
269.20151707430011
 21
105.4499999999741
 31
0.0
  0
LINE
  5
18C2
  8
0
 10
265.29848258580012
 20
105.45000000018619
 30
0.0
 11
264.74999982995507
 21
104.4999999999873
 31
0.0
  0
LINE
  5
18C3
  8
0
 10
269.20151707430011
 20
105.45
 30
0.0
 11
265.29848258580012
 21
105.45
 31
0.0
  0
LINE
  5
18C4
  8
0
 10
262.24999983000009
 20
107.0
 30
0.0
 11
259.24999983000009
 21
107.0
 31
0.0
  0
LINE
  5
18C5
  8
0
 10
240.29999982999999
 20
83.0
 30
0.0
 11
240.89999983000001
 21
83.0
 31
0.0
  0
LINE
  5
18C6
  8
0
 10
240.89999983000001
 20
109.0
 30
0.0
 11
240.29999982999999
 21
109.0
 31
0.0
  0
LINE
  5
18C7
  8
0
 10
240.29999982999999
 20
109.0
 30
0.0
 11
237.29999982999999
 21
106.0
 31
0.0
  0
LINE
  5
18C8
  8
0
 10
237.29999982999999
 20
86.0
 30
0.0
 11
240.29999982999999
 21
83.0
 31
0.0
  0
LINE
  5
18C9
  8
0
 10
236.7999998300001
 20
88.149999999999963
 30
0.0
 11
237.29999982999999
 21
88.149999999999963
 31
0.0
  0
LINE
  5
18CA
  8
0
 10
237.29999982999999
 20
103.84999999999989
 30
0.0
 11
236.7999998300001
 21
103.84999999999989
 31
0.0
  0
LINE
  5
18CC
  8
0
 10
235.79999982999999
 20
89.149999999999963
 30
0.0
 11
236.7999998300001
 21
88.149999999999963
 31
0.0
  0
LINE
  5
18CD
  8
0
 10
247.8999998300001
 20
73.500000000108685
 30
0.0
 11
248.39999982997409
 21
74.000000000082764
 31
0.0
  0
LINE
  5
18CE
  8
0
 10
248.39999982997409
 20
80.999999999917236
 30
0.0
 11
247.8999998300001
 21
81.499999999891315
 31
0.0
  0
LINE
  5
18CF
  8
0
 10
247.8999998300001
 20
110.5000000001087
 30
0.0
 11
248.39999982997409
 21
111.00000000008269
 31
0.0
  0
LINE
  5
18D0
  8
0
 10
248.39999982997409
 20
117.99999999991719
 30
0.0
 11
247.8999998300001
 21
118.4999999998913
 31
0.0
  0
LINE
  5
18D1
  8
0
 10
247.8999998300001
 20
81.5
 30
0.0
 11
244.8999998300001
 21
81.5
 31
0.0
  0
LINE
  5
18D2
  8
0
 10
244.8999998300001
 20
73.5
 30
0.0
 11
247.8999998300001
 21
73.5
 31
0.0
  0
LINE
  5
18D3
  8
0
 10
247.8999998300001
 20
118.5
 30
0.0
 11
244.8999998300001
 21
118.5
 31
0.0
  0
LINE
  5
18D4
  8
0
 10
244.8999998300001
 20
110.5
 30
0.0
 11
247.8999998300001
 21
110.5
 31
0.0
  0
LINE
  5
18D5
  8
0
 10
260.84399893026102
 20
82.990929472338848
 30
0.0
 11
260.84399893846751
 21
96.0
 31
0.0
  0
LINE
  5
18D7
  8
0
 10
260.84999940025011
 20
87.0
 30
0.0
 11
260.84999940025011
 21
96.0
 31
0.0
  0
ARC
  5
18D8
  8
0
 10
263.49999940025009
 20
86.999999999999929
 30
0.0
 40
2.6500000000000048
 50
180.0
 51
0.0
  0
LINE
  5
18D9
  8
0
 10
266.14999940025012
 20
96.0
 30
0.0
 11
266.14999940025012
 21
87.0
 31
0.0
  0
LINE
  5
18DB
  8
0
 10
266.15599986203267
 20
96.0
 30
0.0
 11
266.1559998702391
 21
82.990929472338848
 31
0.0
  0
LINE
  5
18DD
  8
0
 10
260.84399893026102
 20
68.990929472338848
 30
0.0
 11
260.84399893026102
 21
77.009070527661095
 31
0.0
  0
LINE
  5
18DE
  8
0
 10
266.1559998702391
 20
77.009070527661152
 30
0.0
 11
266.1559998702391
 21
68.990929472338848
 31
0.0
  0
LINE
  5
18E1
  8
0
 10
266.1559998702391
 20
63.009070527661102
 30
0.0
 11
266.15599986203267
 21
50.0
 31
0.0
  0
LINE
  5
18E3
  8
0
 10
266.14999940025012
 20
59.0
 30
0.0
 11
266.14999940025012
 21
50.0
 31
0.0
  0
ARC
  5
18E4
  8
0
 10
263.49999940025009
 20
59.0
 30
0.0
 40
2.6500000000000048
 50
0.0
 51
180.0
  0
LINE
  5
18E5
  8
0
 10
260.84999940025011
 20
50.0
 30
0.0
 11
260.84999940025011
 21
59.0
 31
0.0
  0
LINE
  5
18E7
  8
0
 10
260.84399893846751
 20
50.0
 30
0.0
 11
260.84399893026102
 21
63.009070527661152
 31
0.0
  0
LINE
  5
18F4
  8
0
 10
256.59999939755011
 20
96.000000000000171
 30
0.0
 11
262.24999983000009
 21
95.999999999999943
 31
0.0
  0
LINE
  5
18F5
  8
0
 10
264.74999983000021
 20
96.0
 30
0.0
 11
270.39999940295007
 21
96.000000000000057
 31
0.0
  0
LINE
  5
18F7
  8
0
 10
256.59999939755011
 20
50.0
 30
0.0
 11
270.39999940295007
 21
50.0
 31
0.0
  0
LINE
  5
18FC
  8
0
 10
264.74999983000009
 20
88.50000001001149
 30
0.0
 11
262.24999983000009
 21
88.500000010000008
 31
0.0
  0
LINE
  5
18FE
  8
0
 10
264.74999983000009
 20
104.00000000997051
 30
0.0
 11
262.24999983000009
 21
104.00000000997559
 31
0.0
  0
POLYLINE
  5
1901
  8
0
 66
     1
 10
0.0
 20
0.0
 30
0.0
 70
   128
  0
VERTEX
  5
265F
  8
0
 10
264.74999982996241
 20
96.0
 30
0.0
  0
VERTEX
  5
2660
  8
0
 10
264.89270818200453
 20
98.064733639008054
 30
0.0
  0
VERTEX
  5
2661
  8
0
 10
265.29848258569882
 20
100.12946727801609
 30
0.0
  0
SEQEND
  5
2662
  8
0
  0
LINE
  5
1902
  8
0
 10
269.20151707428403
 20
100.1294672780045
 30
0.0
 11
265.29848258574629
 21
100.1294672779912
 31
0.0
  0
ARC
  5
1903
  8
0
 10
253.00253493641659
 20
95.876732518888204
 30
0.0
 40
16.747918534383391
 50
0.4217103261447639
 51
14.70996482707832
  0
LINE
  5
1904
  8
0
 10
269.20151707428391
 20
101.29648229322601
 30
0.0
 11
269.20151707428403
 21
100.1294672780045
 31
0.0
  0
ARC
  5
1905
  8
0
 10
265.17751629521098
 20
103.4706485480278
 30
0.0
 40
4.5737928651719209
 50
331.6176623385702
 51
358.62900975530141
  0
LINE
  5
1906
  8
0
 10
269.74999983001902
 20
96.0
 30
0.0
 11
269.74999983001902
 21
103.36121593219529
 31
0.0
  0
LINE
  5
1907
  8
0
 10
265.29848258574629
 20
101.296482293233
 30
0.0
 11
265.29848258574629
 21
100.1294672779912
 31
0.0
  0
LINE
  5
1908
  8
0
 10
265.29848258574629
 20
101.296482293233
 30
0.0
 11
269.20151707428391
 21
101.29648229322601
 31
0.0
  0
POLYLINE
  5
1909
  8
0
 66
     1
 10
0.0
 20
0.0
 30
0.0
 70
   128
  0
VERTEX
  5
2663
  8
0
 10
265.29848258571587
 20
101.2964822931973
 30
0.0
  0
VERTEX
  5
2664
  8
0
 10
264.89711125399901
 20
102.312812247209
 30
0.0
  0
VERTEX
  5
2665
  8
0
 10
264.74999982996241
 20
103.36121593220069
 30
0.0
  0
SEQEND
  5
2666
  8
0
  0
ARC
  5
190A
  8
0
 10
269.31655974507169
 20
103.2533568864305
 30
0.0
 40
4.5678335162382666
 50
151.5997079456578
 51
178.646964145547
  0
LINE
  5
190B
  8
0
 10
269.20151707429301
 20
105.42594957116771
 30
0.0
 11
265.29848258574629
 21
105.4259495711685
 31
0.0
  0
ARC
  5
190C
  8
0
 10
265.18343991372183
 20
103.253356886235
 30
0.0
 40
4.5678335174267728
 50
1.353035856554196
 51
28.40029204905505
  0
LINE
  5
190D
  8
0
 10
269.20151707429301
 20
105.42594957116771
 30
0.0
 11
269.20151707429301
 21
105.44999999999921
 31
0.0
  0
LINE
  5
190E
  8
0
 10
269.74999983001902
 20
103.36121593219529
 30
0.0
 11
269.7499998300226
 21
104.4999999999873
 31
0.0
  0
LINE
  5
190F
  8
0
 10
265.29848258574651
 20
105.45
 30
0.0
 11
265.29848258574629
 21
105.4259495711685
 31
0.0
  0
LINE
  5
1910
  8
0
 10
264.74999982995507
 20
104.4999999999873
 30
0.0
 11
264.74999982995507
 21
88.50000001001149
 31
0.0
  0
LINE
  5
1911
  8
0
 10
259.24999983000009
 20
107.0
 30
0.0
 11
259.24999983000009
 21
96.0
 31
0.0
  0
LINE
  5
1912
  8
0
 10
262.24999983000009
 20
107.0
 30
0.0
 11
262.24999983000009
 21
88.500000010000008
 31
0.0
  0
LINE
  5
1913
  8
0
 10
252.8999998300001
 20
95.999999999999943
 30
0.0
 11
256.09999983000012
 21
95.999999999999943
 31
0.0
  0
LINE
  5
1914
  8
0
 10
252.8999998300001
 20
109.8564064606
 30
0.0
 11
252.8999998300001
 21
82.143593539400058
 31
0.0
  0
LINE
  5
1915
  8
0
 10
252.8999998300001
 20
109.8564064606
 30
0.0
 11
256.09999983000012
 21
109.8564064606
 31
0.0
  0
LINE
  5
1916
  8
0
 10
256.09999983000012
 20
82.143593539400058
 30
0.0
 11
256.09999983000012
 21
109.8564064606
 31
0.0
  0
LINE
  5
1917
  8
0
 10
252.8999998300001
 20
82.143593539400058
 30
0.0
 11
256.09999983000012
 21
82.143593539400058
 31
0.0
  0
LINE
  5
191A
  8
0
 10
240.29999982999999
 20
109.0
 30
0.0
 11
240.29999982999999
 21
83.0
 31
0.0
  0
LINE
  5
191C
  8
0
 10
237.29999982999999
 20
105.9999999999999
 30
0.0
 11
237.29999982999999
 21
86.0
 31
0.0
  0
LINE
  5
191D
  8
0
 10
256.79996789094821
 20
107.099
 30
0.0
 11
256.80018002347441
 21
99.799671038392731
 31
0.0
  0
LINE
  5
1923
  8
0
 10
252.8999998300001
 20
107.099
 30
0.0
 11
244.8999998300001
 21
107.099
 31
0.0
  0
LINE
  5
1924
  8
0
 10
252.8999998300001
 20
84.901000000000067
 30
0.0
 11
244.8999998300001
 21
84.901000000000067
 31
0.0
  0
LINE
  5
1925
  8
0
 10
256.79999982999999
 20
106.0
 30
0.0
 11
258.79999982999999
 21
106.0
 31
0.0
  0
LINE
  5
1927
  8
0
 10
258.79999982999999
 20
106.0
 30
0.0
 11
258.79999982999999
 21
95.999999999999943
 31
0.0
  0
LINE
  5
1928
  8
0
 10
236.7999998300001
 20
103.84999999999989
 30
0.0
 11
236.7999998300001
 21
88.149999999999963
 31
0.0
  0
LINE
  5
192B
  8
0
 10
235.79999982999999
 20
102.84999999999999
 30
0.0
 11
235.79999982999999
 21
89.149999999999963
 31
0.0
  0
LINE
  5
192C
  8
0
 10
258.79999982999999
 20
99.570714214271504
 30
0.0
 11
259.24999983000009
 21
99.570714214271504
 31
0.0
  0
LINE
  5
192D
  8
0
 10
269.7499998300226
 20
99.570714214271504
 30
0.0
 11
271.7999998300001
 21
99.570714214271504
 31
0.0
  0
LINE
  5
192E
  8
0
 10
270.39999940295007
 20
92.429285785728624
 30
0.0
 11
271.7999998300001
 21
92.429285785728624
 31
0.0
  0
LINE
  5
192F
  8
0
 10
271.7999998300001
 20
91.000000000000057
 30
0.0
 11
271.7999998300001
 21
101.0
 31
0.0
  0
LINE
  5
1932
  8
0
 10
240.89999983000001
 20
120.0
 30
0.0
 11
240.89999983000001
 21
72.0
 31
0.0
  0
ARC
  5
1933
  8
0
 10
242.8999998300001
 20
120.0
 30
0.0
 40
2.0
 50
90.0
 51
180.0
  0
ARC
  5
1935
  8
0
 10
242.8999998300001
 20
72.0
 30
0.0
 40
2.0
 50
180.0
 51
270.0
  0
LINE
  5
1938
  8
0
 10
244.8999998300001
 20
122.0
 30
0.0
 11
244.8999998300001
 21
70.0
 31
0.0
  0
LINE
  5
1939
  8
0
 10
244.8999998300001
 20
70.0
 30
0.0
 11
242.8999998300001
 21
70.0
 31
0.0
  0
LINE
  5
193F
  8
0
 10
244.8999998300001
 20
122.0
 30
0.0
 11
242.8999998300001
 21
122.0
 31
0.0
  0
LINE
  5
1941
  8
0
 10
244.8999998300001
 20
89.596675603998108
 30
0.0
 11
248.3999998300001
 21
89.596675604000495
 31
0.0
  0
LINE
  5
1942
  8
0
 10
248.3999998300001
 20
102.40332436449729
 30
0.0
 11
244.8999998300001
 21
102.4033243882127
 31
0.0
  0
LINE
  5
1943
  8
0
 10
248.3999998300001
 20
89.596675604000495
 30
0.0
 11
248.3999998300001
 21
102.40332436449729
 31
0.0
  0
LINE
  5
1944
  8
0
 10
248.39999982997409
 20
74.000000000082764
 30
0.0
 11
248.39999982997409
 21
80.999999999917236
 31
0.0
  0
LINE
  5
1945
  8
0
 10
247.8999998300001
 20
73.500000000108685
 30
0.0
 11
247.8999998300001
 21
81.5
 31
0.0
  0
LINE
  5
1946
  8
0
 10
248.39999982997409
 20
111.00000000008269
 30
0.0
 11
248.39999982997409
 21
117.99999999991719
 31
0.0
  0
LINE
  5
1947
  8
0
 10
247.8999998300001
 20
110.5000000001087
 30
0.0
 11
247.8999998300001
 21
118.5
 31
0.0
  0
LINE
  5
1948
  8
0
 10
183.47212176389999
 20
198.44999999999999
 30
0.0
 11
183.47212176389999
 21
200.94999999999999
 31
0.0
  0
LINE
  5
1949
  8
0
 10
163.0
 20
195.44999999999999
 30
0.0
 11
163.0
 21
198.44999999999999
 31
0.0
  0
LINE
  5
194A
  8
0
 10
141.0
 20
198.44999999999999
 30
0.0
 11
141.0
 21
195.44999999999999
 31
0.0
  0
LINE
  5
194B
  8
0
 10
165.0
 20
176.5
 30
0.0
 11
165.0
 21
177.09999999999999
 31
0.0
  0
LINE
  5
194C
  8
0
 10
139.0
 20
177.09999999999999
 30
0.0
 11
139.0
 21
176.5
 31
0.0
  0
LINE
  5
194D
  8
0
 10
139.0
 20
176.5
 30
0.0
 11
142.0
 21
173.5
 31
0.0
  0
LINE
  5
194E
  8
0
 10
162.0
 20
173.5
 30
0.0
 11
165.0
 21
176.5
 31
0.0
  0
LINE
  5
1957
  8
0
 10
159.84999999999999
 20
173.0
 30
0.0
 11
159.84999999999999
 21
173.5
 31
0.0
  0
LINE
  5
1958
  8
0
 10
144.15000000000001
 20
173.5
 30
0.0
 11
144.15000000000001
 21
173.0
 31
0.0
  0
LINE
  5
1959
  8
0
 10
144.15000000000001
 20
173.0
 30
0.0
 11
145.15000000000001
 21
172.0
 31
0.0
  0
LINE
  5
195A
  8
0
 10
158.84999999999999
 20
172.0
 30
0.0
 11
159.84999999999999
 21
173.0
 31
0.0
  0
LINE
  5
195B
  8
0
 10
148.5
 20
208.0
 30
0.0
 11
148.5
 21
205.9500000000225
 31
0.0
  0
LINE
  5
195E
  8
0
 10
155.5
 20
205.9500000000225
 30
0.0
 11
155.5
 21
208.0
 31
0.0
  0
LINE
  5
195F
  8
0
 10
155.99999999989129
 20
184.09999999999999
 30
0.0
 11
155.49999999991721
 21
184.5999999999741
 31
0.0
  0
LINE
  5
1960
  8
0
 10
148.50000000008271
 20
184.5999999999741
 30
0.0
 11
148.00000000010871
 21
184.09999999999999
 31
0.0
  0
LINE
  5
1961
  8
0
 10
148.0
 20
184.09999999999999
 30
0.0
 11
148.0
 21
181.09999999999999
 31
0.0
  0
LINE
  5
1962
  8
0
 10
156.0
 20
181.09999999999999
 30
0.0
 11
156.0
 21
184.09999999999999
 31
0.0
  0
ARC
  5
1965
  8
0
 10
172.82721254920011
 20
207.66800484229989
 30
0.0
 40
15.999999953609841
 50
291.82021561429508
 51
318.39432066663392
  0
ARC
  5
1966
  8
0
 10
178.69999999699999
 20
192.9999999943
 30
0.0
 40
0.1999999970090643
 50
179.9999991796941
 51
291.82021596230652
  0
LINE
  5
1967
  8
0
 10
178.5
 20
192.9999999971634
 30
0.0
 11
178.5
 21
198.4500000000001
 31
0.0
  0
LINE
  5
1968
  8
0
 10
178.5
 20
200.94999999999999
 30
0.0
 11
178.5
 21
206.40000000283661
 31
0.0
  0
ARC
  5
1969
  8
0
 10
178.69999999699999
 20
206.40000000570001
 30
0.0
 40
0.1999999970090379
 50
68.179784037691761
 51
180.00000082030579
  0
ARC
  5
196A
  8
0
 10
172.82721254920011
 20
191.73199515770011
 30
0.0
 40
15.99999995360986
 50
41.60567933336614
 51
68.179784385704878
  0
LINE
  5
196B
  8
0
 10
180.0
 20
197.05000000000001
 30
0.0
 11
180.0
 21
198.44999999999999
 31
0.0
  0
LINE
  5
196C
  8
0
 10
180.0
 20
200.94999999999999
 30
0.0
 11
180.0
 21
202.34999999999999
 31
0.0
  0
ARC
  5
196D
  8
0
 10
181.79999985800001
 20
199.70000085949999
 30
0.0
 40
3.9999999719999981
 50
318.39432054863431
 51
318.50916635382617
  0
ARC
  5
196E
  8
0
 10
181.79999985800001
 20
199.69999914050001
 30
0.0
 40
3.9999999720000159
 50
41.49083364617379
 51
41.605679451366342
  0
LINE
  5
196F
  8
0
 10
180.0
 20
202.34999999999999
 30
0.0
 11
184.79624671375959
 21
202.34999999999999
 31
0.0
  0
LINE
  5
1970
  8
0
 10
184.79624671375959
 20
197.05000000000001
 30
0.0
 11
180.0
 21
197.05000000000001
 31
0.0
  0
ARC
  5
1971
  8
0
 10
181.80000639724469
 20
199.69999999999999
 30
0.0
 40
3.9999945042848699
 50
318.50911352084739
 51
41.490886479152671
  0
LINE
  5
1977
  8
0
 10
143.50000000000639
 20
205.95000000001889
 30
0.0
 11
143.49999999004339
 21
198.44999999999999
 31
0.0
  0
LINE
  5
1978
  8
0
 10
143.49999999004339
 20
200.94999999999999
 30
0.0
 11
183.47212176389999
 21
200.94999999999999
 31
0.0
  0
LINE
  5
197E
  8
0
 10
151.3262235669103
 20
201.49848275574621
 30
0.0
 11
152.6737764330897
 21
201.49848275574621
 31
0.0
  0
ARC
  5
197F
  8
0
 10
156.36564883390889
 20
213.6371632313213
 30
0.0
 40
12.687690314317919
 50
253.0833246510698
 51
269.4777393137453
  0
ARC
  5
1981
  8
0
 10
147.63266394997461
 20
213.64816423723491
 30
0.0
 40
12.69870634141478
 50
270.5294205520118
 51
286.90951548310392
  0
LINE
  5
1982
  8
0
 10
152.67377643309121
 20
205.40151724429299
 30
0.0
 11
151.3262235669103
 21
205.40151724429259
 31
0.0
  0
LINE
  5
1983
  8
0
 10
152.67377643309121
 20
205.40151724429299
 30
0.0
 11
152.6737764330897
 21
201.49848275574621
 31
0.0
  0
LINE
  5
1984
  8
0
 10
151.3262235669103
 20
201.49848275574621
 30
0.0
 11
151.3262235669103
 21
205.40151724429259
 31
0.0
  0
ARC
  5
1986
  8
0
 10
156.36564883424529
 20
193.2628367651084
 30
0.0
 40
12.6876903178687
 50
90.522260687627465
 51
106.9166753456349
  0
ARC
  5
1987
  8
0
 10
147.63266394958291
 20
193.2518357589189
 30
0.0
 40
12.69870634524565
 50
73.090484520305282
 51
89.47057944635975
  0
ARC
  5
1988
  8
0
 10
156.13266394954169
 20
193.25183575942589
 30
0.0
 40
12.698706344734321
 50
73.090484519891675
 51
89.470579446652863
  0
LINE
  5
1989
  8
0
 10
159.8262235667957
 20
201.49848275574621
 30
0.0
 11
159.82622356680781
 21
205.40151724428381
 31
0.0
  0
POLYLINE
  5
198A
  8
0
 66
     1
 10
0.0
 20
0.0
 30
0.0
 70
   128
  0
VERTEX
  5
2667
  8
0
 10
159.82622356680389
 20
201.4984827557158
 30
0.0
  0
VERTEX
  5
2668
  8
0
 10
158.06588844922351
 20
201.09711142399891
 30
0.0
  0
VERTEX
  5
2669
  8
0
 10
156.2499999999427
 20
200.9499999999623
 30
0.0
  0
SEQEND
  5
266A
  8
0
  0
POLYLINE
  5
198B
  8
0
 66
     1
 10
0.0
 20
0.0
 30
0.0
 70
   128
  0
VERTEX
  5
266B
  8
0
 10
147.75000000004729
 20
200.9499999999623
 30
0.0
  0
VERTEX
  5
266C
  8
0
 10
145.96188821661491
 20
201.0927083520053
 30
0.0
  0
VERTEX
  5
266D
  8
0
 10
144.1737764331827
 20
201.4984827556988
 30
0.0
  0
SEQEND
  5
266E
  8
0
  0
LINE
  5
198C
  8
0
 10
144.1737764332058
 20
205.40151724429299
 30
0.0
 11
144.17377643320421
 21
201.49848275574621
 31
0.0
  0
ARC
  5
198D
  8
0
 10
147.8656488344059
 20
193.2628367648945
 30
0.0
 40
12.687690318086821
 50
90.522260687842433
 51
106.9166753455532
  0
LINE
  5
198E
  8
0
 10
159.8262235667957
 20
201.49848275574621
 30
0.0
 11
160.5
 21
201.49848275574621
 31
0.0
  0
LINE
  5
198F
  8
0
 10
160.5
 20
200.9499999999623
 30
0.0
 11
160.5
 21
205.950000000019
 31
0.0
  0
LINE
  5
1990
  8
0
 10
159.82622356680781
 20
205.40151724428381
 30
0.0
 11
160.5
 21
205.40151724428389
 31
0.0
  0
LINE
  5
1992
  8
0
 10
160.49999999999369
 20
205.95000000001889
 30
0.0
 11
143.50000000000631
 21
205.950000000019
 31
0.0
  0
LINE
  5
1993
  8
0
 10
144.1737764332058
 20
205.40151724429299
 30
0.0
 11
143.5
 21
205.40151724429259
 31
0.0
  0
LINE
  5
1997
  8
0
 10
143.5
 20
201.49848275574621
 30
0.0
 11
144.17377643320421
 21
201.49848275574621
 31
0.0
  0
LINE
  5
199A
  8
0
 10
141.0
 20
195.44999999999999
 30
0.0
 11
163.0
 21
195.44999999999999
 31
0.0
  0
LINE
  5
199B
  8
0
 10
141.0
 20
198.44999999999999
 30
0.0
 11
183.47212176389999
 21
198.4500000000001
 31
0.0
  0
LINE
  5
199C
  8
0
 10
139.0
 20
176.5
 30
0.0
 11
165.0
 21
176.5
 31
0.0
  0
LINE
  5
199D
  8
0
 10
142.0
 20
173.5
 30
0.0
 11
162.0
 21
173.5
 31
0.0
  0
LINE
  5
19B7
  8
0
 10
144.15000000000001
 20
173.0
 30
0.0
 11
159.84999999999999
 21
173.0
 31
0.0
  0
LINE
  5
19BC
  8
0
 10
145.15000000000001
 20
172.0
 30
0.0
 11
158.84999999999999
 21
172.0
 31
0.0
  0
LINE
  5
19BF
  8
0
 10
155.5
 20
208.0
 30
0.0
 11
148.5
 21
208.0
 31
0.0
  0
LINE
  5
19C5
  8
0
 10
138.0
 20
177.09999999999999
 30
0.0
 11
166.0
 21
177.09999999999999
 31
0.0
  0
ARC
  5
19C6
  8
0
 10
138.0
 20
179.09999999999999
 30
0.0
 40
2.0
 50
180.0
 51
270.0
  0
ARC
  5
19CA
  8
0
 10
166.0
 20
179.09999999999999
 30
0.0
 40
2.000000000000028
 50
270.0
 51
0.0
  0
LINE
  5
19CD
  8
0
 10
136.0
 20
181.09999999999999
 30
0.0
 11
136.0
 21
179.09999999999999
 31
0.0
  0
LINE
  5
19CE
  8
0
 10
136.0
 20
181.09999999999999
 30
0.0
 11
168.0
 21
181.09999999999999
 31
0.0
  0
LINE
  5
19D5
  8
0
 10
168.0
 20
181.09999999999999
 30
0.0
 11
168.0
 21
179.09999999999999
 31
0.0
  0
LINE
  5
19D6
  8
0
 10
155.49999999991721
 20
184.5999999999741
 30
0.0
 11
148.50000000008271
 21
184.5999999999741
 31
0.0
  0
LINE
  5
19D7
  8
0
 10
156.0
 20
184.09999999999999
 30
0.0
 11
148.0
 21
184.09999999999999
 31
0.0
  0
LINE
  5
19DD
  8
0
 10
51.400000427049967
 20
91.0
 30
0.0
 11
51.400000427049967
 21
50.0
 31
0.0
  0
LINE
  5
19DE
  8
0
 10
65.200000432449968
 20
50.0
 30
0.0
 11
65.200000432449997
 21
84.900999999999996
 31
0.0
  0
LINE
  5
19DF
  8
0
 10
57.050000000044989
 20
104.4999999999873
 30
0.0
 11
56.501517244199981
 21
105.45000000018619
 31
0.0
  0
LINE
  5
19E0
  8
0
 10
52.59848275569999
 20
105.4499999999741
 30
0.0
 11
52.049999999977473
 21
104.4999999999873
 31
0.0
  0
LINE
  5
19E1
  8
0
 10
52.049999999977473
 20
87.500000000012619
 30
0.0
 11
52.59848275569999
 21
86.550000000025818
 31
0.0
  0
LINE
  5
19E2
  8
0
 10
56.501517244199981
 20
86.549999999813679
 30
0.0
 11
57.050000000044989
 21
87.500000000012619
 31
0.0
  0
LINE
  5
19E3
  8
0
 10
52.59848275569999
 20
86.549999999999955
 30
0.0
 11
56.501517244199981
 21
86.549999999999955
 31
0.0
  0
LINE
  5
19E4
  8
0
 10
56.501517244199981
 20
105.45
 30
0.0
 11
52.59848275569999
 21
105.45
 31
0.0
  0
LINE
  5
19E5
  8
0
 10
62.54999999999999
 20
107.0
 30
0.0
 11
59.549999999999997
 21
107.0
 31
0.0
  0
LINE
  5
19E6
  8
0
 10
59.549999999999997
 20
85.0
 30
0.0
 11
62.54999999999999
 21
85.0
 31
0.0
  0
LINE
  5
19E7
  8
0
 10
81.5
 20
109.0
 30
0.0
 11
80.900000000000034
 21
109.0
 31
0.0
  0
LINE
  5
19E8
  8
0
 10
80.900000000000034
 20
83.0
 30
0.0
 11
81.5
 21
83.0
 31
0.0
  0
LINE
  5
19E9
  8
0
 10
81.5
 20
83.0
 30
0.0
 11
84.500000000000014
 21
86.0
 31
0.0
  0
LINE
  5
19EA
  8
0
 10
84.500000000000014
 20
106.0
 30
0.0
 11
81.5
 21
109.0
 31
0.0
  0
LINE
  5
19EB
  8
0
 10
85.0
 20
103.84999999999989
 30
0.0
 11
84.500000000000014
 21
103.84999999999989
 31
0.0
  0
LINE
  5
19EC
  8
0
 10
84.500000000000014
 20
88.149999999999963
 30
0.0
 11
85.0
 21
88.149999999999963
 31
0.0
  0
LINE
  5
19ED
  8
0
 10
85.0
 20
88.149999999999963
 30
0.0
 11
86.0
 21
89.149999999999963
 31
0.0
  0
LINE
  5
19EF
  8
0
 10
73.899999999999963
 20
118.4999999998913
 30
0.0
 11
73.400000000025926
 21
117.99999999991719
 31
0.0
  0
LINE
  5
19F0
  8
0
 10
73.400000000025926
 20
111.00000000008269
 30
0.0
 11
73.899999999999963
 21
110.5000000001087
 31
0.0
  0
LINE
  5
19F1
  8
0
 10
73.899999999999963
 20
81.499999999891315
 30
0.0
 11
73.400000000025926
 21
80.999999999917236
 31
0.0
  0
LINE
  5
19F2
  8
0
 10
73.400000000025926
 20
74.000000000082764
 30
0.0
 11
73.899999999999963
 21
73.500000000108685
 31
0.0
  0
LINE
  5
19F3
  8
0
 10
73.899999999999963
 20
110.5
 30
0.0
 11
76.900000000000006
 21
110.5
 31
0.0
  0
LINE
  5
19F4
  8
0
 10
76.900000000000006
 20
118.5
 30
0.0
 11
73.899999999999963
 21
118.5
 31
0.0
  0
LINE
  5
19F5
  8
0
 10
73.899999999999963
 20
73.5
 30
0.0
 11
76.900000000000006
 21
73.5
 31
0.0
  0
LINE
  5
19F6
  8
0
 10
76.900000000000006
 20
81.5
 30
0.0
 11
73.899999999999963
 21
81.5
 31
0.0
  0
LINE
  5
19F7
  8
0
 10
51.400000427049967
 20
50.0
 30
0.0
 11
65.200000432449968
 21
50.0
 31
0.0
  0
CIRCLE
  5
19F8
  8
0
 10
58.300000429749957
 20
80.0
 30
0.0
 40
3.9999999999999849
  0
CIRCLE
  5
19F9
  8
0
 10
58.300000429749957
 20
66.0
 30
0.0
 40
3.9999999999999849
  0
LINE
  5
19FC
  8
0
 10
57.050000000004381
 20
96.999456718494855
 30
0.0
 11
57.049999999999983
 21
97.000000009998345
 31
0.0
  0
LINE
  5
19FD
  8
0
 10
57.049999999999983
 20
97.000000009998345
 30
0.0
 11
59.549999999999997
 21
97.000000009998345
 31
0.0
  0
LINE
  5
1A00
  8
0
 10
57.049999999999983
 20
104.00000001001411
 30
0.0
 11
59.549999999999997
 21
104.00000000999999
 31
0.0
  0
LINE
  5
1A02
  8
0
 10
59.549999999999997
 20
85.500000009999994
 30
0.0
 11
57.049999999999983
 21
85.500000009994551
 31
0.0
  0
LINE
  5
1A03
  8
0
 10
57.049999999999983
 20
85.500000009994551
 30
0.0
 11
57.049999999999983
 21
104.5000000000653
 31
0.0
  0
LINE
  5
1A04
  8
0
 10
52.59848275570701
 20
91.87053272201058
 30
0.0
 11
52.59848275570743
 21
90.703517706766945
 31
0.0
  0
ARC
  5
1A05
  8
0
 10
56.622483534889398
 20
88.529351451955208
 30
0.0
 40
4.5737928652726572
 50
151.6176623391105
 51
178.62900975512221
  0
ARC
  5
1A07
  8
0
 10
68.797464893979154
 20
96.123267481144296
 30
0.0
 40
16.74791853477932
 50
180.42171032624569
 51
194.70996482678541
  0
POLYLINE
  5
1A08
  8
0
 66
     1
 10
0.0
 20
0.0
 30
0.0
 70
   128
  0
VERTEX
  5
266F
  8
0
 10
57.05000000003767
 20
96.0
 30
0.0
  0
VERTEX
  5
2670
  8
0
 10
56.90729164799555
 20
93.935266360991946
 30
0.0
  0
VERTEX
  5
2671
  8
0
 10
56.501517244301247
 20
91.870532721983864
 30
0.0
  0
SEQEND
  5
2672
  8
0
  0
LINE
  5
1A09
  8
0
 10
52.59848275570701
 20
91.87053272201058
 30
0.0
 11
56.501517244253762
 21
91.870532722008747
 31
0.0
  0
ARC
  5
1A0A
  8
0
 10
68.811004593654161
 20
95.874934153282297
 30
0.0
 40
16.76147119005801
 50
165.29584171524189
 51
179.5724831317242
  0
LINE
  5
1A0B
  8
0
 10
56.501517244253762
 20
100.1294672779912
 30
0.0
 11
52.59848275570743
 21
100.1294672779912
 31
0.0
  0
ARC
  5
1A0C
  8
0
 10
40.288995411182789
 20
95.874934153681338
 30
0.0
 40
16.761471185240641
 50
0.4275168670348847
 51
14.704158287670779
  0
LINE
  5
1A0D
  8
0
 10
52.59848275570701
 20
101.29648229323389
 30
0.0
 11
52.59848275570743
 21
100.1294672779912
 31
0.0
  0
ARC
  5
1A0F
  8
0
 10
56.616559916360778
 20
103.4690749781974
 30
0.0
 40
4.5678335175140177
 50
181.3530358571243
 51
208.4002920489034
  0
LINE
  5
1A10
  8
0
 10
56.501517244253762
 20
100.1294672779912
 30
0.0
 11
56.501517244253762
 21
101.296482293233
 31
0.0
  0
LINE
  5
1A11
  8
0
 10
52.59848275570701
 20
101.29648229323389
 30
0.0
 11
56.501517244253762
 21
101.296482293233
 31
0.0
  0
LINE
  5
1A12
  8
0
 10
56.501517244253762
 20
90.703517706766945
 30
0.0
 11
56.501517244253762
 21
91.870532722008747
 31
0.0
  0
LINE
  5
1A13
  8
0
 10
56.501517244253762
 20
90.703517706766945
 30
0.0
 11
52.59848275570743
 21
90.703517706766945
 31
0.0
  0
POLYLINE
  5
1A15
  8
0
 66
     1
 10
0.0
 20
0.0
 30
0.0
 70
   128
  0
VERTEX
  5
2673
  8
0
 10
57.05000000003767
 20
103.36121593219499
 30
0.0
  0
VERTEX
  5
2674
  8
0
 10
56.907291647994747
 20
102.3288491127077
 30
0.0
  0
VERTEX
  5
2675
  8
0
 10
56.501517244301247
 20
101.29648229322051
 30
0.0
  0
SEQEND
  5
2676
  8
0
  0
ARC
  5
1A17
  8
0
 10
52.477516466338997
 20
88.529351452156234
 30
0.0
 40
4.5737928640622441
 50
1.370990242724375
 51
28.382337666220149
  0
POLYLINE
  5
1A18
  8
0
 66
     1
 10
0.0
 20
0.0
 30
0.0
 70
   128
  0
VERTEX
  5
2677
  8
0
 10
57.05000000003767
 20
88.638784067799165
 30
0.0
  0
VERTEX
  5
2678
  8
0
 10
56.90729164799555
 20
87.606417248309072
 30
0.0
  0
VERTEX
  5
2679
  8
0
 10
56.501517244301247
 20
86.574050428818964
 30
0.0
  0
SEQEND
  5
267A
  8
0
  0
LINE
  5
1A19
  8
0
 10
52.59848275570701
 20
86.574050428832265
 30
0.0
 11
56.501517244253762
 21
86.574050428831413
 31
0.0
  0
ARC
  5
1A1A
  8
0
 10
56.616559916278241
 20
88.746643113764947
 30
0.0
 40
4.567833517426747
 50
181.3530358565541
 51
208.40029204905881
  0
ARC
  5
1A1B
  8
0
 10
56.622483534956238
 20
103.2517833163318
 30
0.0
 40
4.5737928653433224
 50
151.61766233923279
 51
178.62900975503749
  0
LINE
  5
1A1C
  8
0
 10
56.501517244253762
 20
105.4259495711685
 30
0.0
 11
52.598482755707451
 21
105.4259495711685
 31
0.0
  0
ARC
  5
1A1D
  8
0
 10
52.477516466347929
 20
103.2517833165613
 30
0.0
 40
4.5737928640527548
 50
1.3709902424376841
 51
28.38233766623501
  0
LINE
  5
1A1E
  8
0
 10
56.501517244253762
 20
105.4259495711685
 30
0.0
 11
56.501517244253627
 21
105.45
 31
0.0
  0
LINE
  5
1A20
  8
0
 10
52.598482755706982
 20
105.44999999999921
 30
0.0
 11
52.598482755707451
 21
105.4259495711685
 31
0.0
  0
LINE
  5
1A22
  8
0
 10
52.59848275570701
 20
86.574050428832265
 30
0.0
 11
52.598482755706982
 21
86.55000000000075
 31
0.0
  0
LINE
  5
1A23
  8
0
 10
52.05000000003178
 20
104.5000000000814
 30
0.0
 11
52.049999999977473
 21
87.500000000012619
 31
0.0
  0
LINE
  5
1A24
  8
0
 10
56.501517244253627
 20
86.549999999999955
 30
0.0
 11
56.501517244253762
 21
86.574050428831413
 31
0.0
  0
LINE
  5
1A26
  8
0
 10
62.54999999999999
 20
85.0
 30
0.0
 11
62.54999999999999
 21
107.0
 31
0.0
  0
LINE
  5
1A27
  8
0
 10
59.549999999999997
 20
85.0
 30
0.0
 11
59.549999999999997
 21
107.0
 31
0.0
  0
LINE
  5
1A28
  8
0
 10
68.899999999999963
 20
96.0
 30
0.0
 11
65.699999999999989
 21
96.0
 31
0.0
  0
LINE
  5
1A2A
  8
0
 10
68.899999999999963
 20
82.143593539399987
 30
0.0
 11
65.699999999999989
 21
82.143593539399987
 31
0.0
  0
LINE
  5
1A2C
  8
0
 10
65.699999999999989
 20
109.8564064606
 30
0.0
 11
68.899999999999963
 21
109.8564064606
 31
0.0
  0
LINE
  5
1A2D
  8
0
 10
68.899999969145313
 20
82.143593539399987
 30
0.0
 11
68.90000042974998
 21
109.8564064606
 31
0.0
  0
LINE
  5
1A2E
  8
0
 10
65.700000429749991
 20
109.8564064606
 30
0.0
 11
65.700000429749991
 21
82.143593539399987
 31
0.0
  0
LINE
  5
1A2F
  8
0
 10
81.5
 20
83.0
 30
0.0
 11
81.5
 21
109.0
 31
0.0
  0
LINE
  5
1A31
  8
0
 10
84.500000000000014
 20
86.0
 30
0.0
 11
84.500000000000014
 21
105.9999999999999
 31
0.0
  0
LINE
  5
1A33
  8
0
 10
65.000000429750003
 20
84.900999999999996
 30
0.0
 11
65.000000288436084
 21
92.200328961607326
 31
0.0
  0
LINE
  5
1A38
  8
0
 10
68.899999999999963
 20
84.900999999999996
 30
0.0
 11
76.900000000000034
 21
84.900999999999996
 31
0.0
  0
LINE
  5
1A39
  8
0
 10
76.89999957025006
 20
107.099
 30
0.0
 11
68.899999570250003
 21
107.099
 31
0.0
  0
LINE
  5
1A3A
  8
0
 10
62.999999999999979
 20
86.0
 30
0.0
 11
65.000000429750003
 21
86.0
 31
0.0
  0
LINE
  5
1A3B
  8
0
 10
62.999999999999979
 20
106.0
 30
0.0
 11
65.000000429750003
 21
106.0
 31
0.0
  0
LINE
  5
1A3C
  8
0
 10
63.000000429750003
 20
86.0
 30
0.0
 11
62.999999999999979
 21
106.0
 31
0.0
  0
LINE
  5
1A3D
  8
0
 10
85.0
 20
88.149999999999963
 30
0.0
 11
85.0
 21
103.84999999999989
 31
0.0
  0
LINE
  5
1A41
  8
0
 10
86.0
 20
89.149999999999963
 30
0.0
 11
86.0
 21
102.8499999999998
 31
0.0
  0
LINE
  5
1A47
  8
0
 10
80.899999999999977
 20
72.0
 30
0.0
 11
80.899999999999977
 21
120.0
 31
0.0
  0
ARC
  5
1A4A
  8
0
 10
78.899999999999963
 20
120.0
 30
0.0
 40
2.0
 50
0.0
 51
90.0
  0
ARC
  5
1A4E
  8
0
 10
78.899999999999963
 20
72.0
 30
0.0
 40
2.0
 50
270.0
 51
0.0
  0
LINE
  5
1A51
  8
0
 10
78.899999999999963
 20
70.0
 30
0.0
 11
76.900000000000006
 21
70.0
 31
0.0
  0
LINE
  5
1A55
  8
0
 10
76.900000000000006
 20
70.0
 30
0.0
 11
76.900000000000006
 21
122.0
 31
0.0
  0
LINE
  5
1A56
  8
0
 10
76.900000000000006
 20
122.0
 30
0.0
 11
78.899999999999963
 21
122.0
 31
0.0
  0
LINE
  5
1A58
  8
0
 10
76.900000000000006
 20
102.4033243988244
 30
0.0
 11
73.399999999999977
 21
102.40332439882199
 31
0.0
  0
LINE
  5
1A59
  8
0
 10
73.399999999999977
 20
89.596675632913275
 30
0.0
 11
76.900000000000006
 21
89.596675609431145
 31
0.0
  0
LINE
  5
1A5A
  8
0
 10
73.399999999999977
 20
102.40332439882199
 30
0.0
 11
73.399999999999977
 21
89.596675632913275
 31
0.0
  0
LINE
  5
1A5B
  8
0
 10
73.400000000025926
 20
117.99999999991719
 30
0.0
 11
73.400000000025926
 21
111.00000000008269
 31
0.0
  0
LINE
  5
1A5C
  8
0
 10
73.899999999999963
 20
118.5
 30
0.0
 11
73.899999999999963
 21
110.5
 31
0.0
  0
LINE
  5
1A5D
  8
0
 10
73.400000000025926
 20
80.999999999917236
 30
0.0
 11
73.400000000025926
 21
74.000000000082764
 31
0.0
  0
LINE
  5
1A5E
  8
0
 10
73.899999999999963
 20
81.5
 30
0.0
 11
73.899999999999963
 21
73.5
 31
0.0
  0
LINE
  5
1B6F
  8
1
 10
152.0
 20
127.0
 30
0.0
 11
152.0
 21
65.0
 31
0.0
  0
LINE
  5
1B70
  8
1
 10
131.0
 20
96.0
 30
0.0
 11
189.79624671375959
 21
96.0
 31
0.0
  0
LINE
  5
1C05
  8
1
 10
152.0
 20
213.0
 30
0.0
 11
152.0
 21
167.0
 31
0.0
  0
LINE
  5
1C96
  8
1
 10
188.30000090152959
 20
199.69999999999999
 30
0.0
 11
140.9999999917039
 21
199.69999999999999
 31
0.0
  0
LINE
  5
1D1F
  8
1
 10
230.7999998300001
 20
96.000000000000057
 30
0.0
 11
276.79999982999999
 21
96.0
 31
0.0
  0
LINE
  5
1D20
  8
1
 10
256.99978842848111
 20
80.0
 30
0.0
 11
269.99978842848111
 21
80.0
 31
0.0
  0
LINE
  5
1D21
  8
1
 10
256.99978842848111
 20
66.0
 30
0.0
 11
269.99978842848111
 21
66.0
 31
0.0
  0
CIRCLE
  5
1D24
  8
0
 10
263.49978842848111
 20
80.0
 30
0.0
 40
4.0
  0
CIRCLE
  5
1D25
  8
0
 10
263.49978842848111
 20
66.0
 30
0.0
 40
4.0
  0
LINE
  5
1D28
  8
1
 10
263.49978842848111
 20
47.5
 30
0.0
 11
263.49978842848111
 21
106.50000000997299
 31
0.0
  0
LINE
  5
1DCB
  8
1
 10
91.0
 20
96.000000000000057
 30
0.0
 11
45.0
 21
96.0
 31
0.0
  0
LINE
  5
1DD0
  8
1
 10
58.300211401518929
 20
47.5
 30
0.0
 11
58.300211401518929
 21
106.50000000997299
 31
0.0
  0
LINE
  5
1F81
  8
0
 10
235.79999983000019
 20
102.85000000000009
 30
0.0
 11
236.79999983000019
 21
103.85000000000009
 31
0.0
  0
LINE
  5
1F82
  8
0
 10
84.999999999999716
 20
103.84999999999999
 30
0.0
 11
85.999999999999758
 21
102.85000000000009
 31
0.0
  0
LINE
  5
2201
  8
0
 10
140.90000000000001
 20
184.59999999999999
 30
0.0
 11
140.90000000000001
 21
181.09999999999999
 31
0.0
  0
LINE
  5
2202
  8
0
 10
163.09999999999999
 20
181.09999999999999
 30
0.0
 11
163.09999999999999
 21
184.59999999999999
 31
0.0
  0
LINE
  5
223A
  8
0
 10
152.0
 20
189.09999999999999
 30
0.0
 11
152.0
 21
192.30000000000001
 31
0.0
  0
LINE
  5
223B
  8
0
 10
140.0
 20
189.09999999999999
 30
0.0
 11
140.0
 21
192.30000000000001
 31
0.0
  0
LINE
  5
223C
  8
0
 10
164.0
 20
192.30000000000001
 30
0.0
 11
140.0
 21
192.30000000000001
 31
0.0
  0
LINE
  5
223D
  8
0
 10
140.0
 20
189.09999999999999
 30
0.0
 11
164.0
 21
189.09999999999999
 31
0.0
  0
LINE
  5
223E
  8
0
 10
164.0
 20
189.09999999999999
 30
0.0
 11
164.0
 21
192.30000000000001
 31
0.0
  0
LINE
  5
2244
  8
0
 10
142.75
 20
193.0
 30
0.0
 11
161.25
 21
193.0
 31
0.0
  0
LINE
  5
2247
  8
0
 10
142.75
 20
189.09999999999999
 30
0.0
 11
142.75
 21
184.59999999999999
 31
0.0
  0
LINE
  5
2248
  8
0
 10
161.25
 20
189.09999999999999
 30
0.0
 11
161.25
 21
184.59999999999999
 31
0.0
  0
LINE
  5
2249
  8
0
 10
142.75
 20
193.00018019347431
 30
0.0
 11
161.25
 21
193.00018019347431
 31
0.0
  0
LINE
  5
224C
  8
0
 10
142.75
 20
192.30000000000001
 30
0.0
 11
142.75
 21
195.0
 31
0.0
  0
LINE
  5
224D
  8
0
 10
161.25
 20
195.0
 30
0.0
 11
161.25
 21
192.30000000000001
 31
0.0
  0
LINE
  5
224E
  8
0
 10
142.75
 20
195.0
 30
0.0
 11
161.25
 21
195.0
 31
0.0
  0
LINE
  5
2252
  8
0
 10
148.5
 20
195.0
 30
0.0
 11
148.5
 21
195.44999999999999
 31
0.0
  0
LINE
  5
2254
  8
0
 10
155.5
 20
195.0
 30
0.0
 11
155.5
 21
195.44999999999999
 31
0.0
  0
LINE
  5
226B
  8
0
 10
142.93316832504109
 20
181.09999999999999
 30
0.0
 11
142.93316832504451
 21
184.59999999999999
 31
0.0
  0
LINE
  5
226C
  8
0
 10
142.93316832504451
 20
184.59999999999999
 30
0.0
 11
140.90000000000001
 21
184.59999999999999
 31
0.0
  0
LINE
  5
226D
  8
0
 10
163.09999999999999
 20
184.59999999999999
 30
0.0
 11
161.06683170419581
 21
184.59999999999999
 31
0.0
  0
LINE
  5
226E
  8
0
 10
161.06683170419581
 20
184.59999999999999
 30
0.0
 11
161.06683168745329
 21
181.09999999999999
 31
0.0
  0
LINE
  5
2312
  8
0
 10
65.000000429750003
 20
84.900999999999996
 30
0.0
 11
65.700000429749991
 21
84.900999999999996
 31
0.0
  0
LINE
  5
2315
  8
0
 10
65.700000429749991
 20
107.099
 30
0.0
 11
65.000000429750003
 21
107.099
 31
0.0
  0
LINE
  5
231D
  8
0
 10
52.050000429727447
 20
101.0
 30
0.0
 11
50.000000429750003
 21
101.0
 31
0.0
  0
LINE
  5
231E
  8
0
 10
50.000000429750003
 20
91.0
 30
0.0
 11
52.050000429727447
 21
91.0
 31
0.0
  0
LINE
  5
2331
  8
0
 10
59.550000429749957
 20
94.637589633992221
 30
0.0
 11
57.050000429749957
 21
94.637589633992221
 31
0.0
  0
LINE
  5
2332
  8
0
 10
57.050000429749957
 20
88.588437089611006
 30
0.0
 11
59.550000429749957
 21
88.588437089605719
 31
0.0
  0
LINE
  5
235B
  8
0
 10
68.90000042974998
 20
102.9282032303
 30
0.0
 11
65.700000429749991
 21
102.9282032303
 31
0.0
  0
LINE
  5
235D
  8
0
 10
65.700000429749991
 20
89.071796769700015
 30
0.0
 11
68.90000042974998
 21
89.071796769700015
 31
0.0
  0
LINE
  5
2365
  8
0
 10
63.000000429750003
 20
92.200328961607326
 30
0.0
 11
65.000000288436084
 21
92.200328961607326
 31
0.0
  0
LINE
  5
2367
  8
0
 10
65.000000141313933
 20
99.79967103839266
 30
0.0
 11
63.000000429750003
 21
99.79967103839266
 31
0.0
  0
LINE
  5
2369
  8
0
 10
65.000000429750003
 20
102.13394660883181
 30
0.0
 11
65.700000429749991
 21
102.13394660883181
 31
0.0
  0
LINE
  5
236A
  8
0
 10
65.700000429749991
 20
89.866053391168109
 30
0.0
 11
65.000000429750003
 21
89.866053391168109
 31
0.0
  0
LINE
  5
2372
  8
0
 10
73.40000042974998
 20
89.866053391168109
 30
0.0
 11
68.90000042974998
 21
89.866053391168109
 31
0.0
  0
LINE
  5
2373
  8
0
 10
68.90000042974998
 20
102.13394660883181
 30
0.0
 11
73.40000042974998
 21
102.13394660883181
 31
0.0
  0
LINE
  5
2377
  8
0
 10
52.050000429727447
 20
99.570714214271433
 30
0.0
 11
50.000000429750003
 21
99.570714214271433
 31
0.0
  0
LINE
  5
2378
  8
0
 10
50.000000429750003
 20
101.0
 30
0.0
 11
50.00000042975001
 21
91.0
 31
0.0
  0
LINE
  5
237A
  8
0
 10
52.050000429727447
 20
92.429285785728567
 30
0.0
 11
50.000000429750003
 21
92.429285785728567
 31
0.0
  0
LINE
  5
2422
  8
0
 10
269.7499998300226
 20
101.0
 30
0.0
 11
271.7999998300001
 21
101.0
 31
0.0
  0
LINE
  5
2423
  8
0
 10
270.39999940295007
 20
91.000000000000057
 30
0.0
 11
271.7999998300001
 21
91.000000000000057
 31
0.0
  0
LINE
  5
2424
  8
0
 10
256.79996789094821
 20
107.099
 30
0.0
 11
256.09999983000012
 21
107.099
 31
0.0
  0
LINE
  5
2425
  8
0
 10
256.09999983000012
 20
102.13394660883191
 30
0.0
 11
256.8001121849407
 21
102.13394660883191
 31
0.0
  0
LINE
  5
2426
  8
0
 10
256.80018002347441
 20
99.799671038392731
 30
0.0
 11
258.79999982999999
 21
99.799671038392731
 31
0.0
  0
LINE
  5
2427
  8
0
 10
248.3999998300001
 20
102.13394660883191
 30
0.0
 11
252.89999983000001
 21
102.13394660883191
 31
0.0
  0
LINE
  5
2428
  8
0
 10
252.8999998300001
 20
102.9282032303
 30
0.0
 11
256.09999983
 21
102.9282032303
 31
0.0
  0
LINE
  5
2429
  8
0
 10
248.3999998299999
 20
89.866053391168194
 30
0.0
 11
252.89999983000001
 21
89.866053391168194
 31
0.0
  0
LINE
  5
242A
  8
0
 10
252.89999983000001
 20
89.071796769700086
 30
0.0
 11
256.09999983
 21
89.071796769700086
 31
0.0
  0
LINE
  5
242B
  8
0
 10
256.09999983000012
 20
84.901000000000067
 30
0.0
 11
256.59999939755011
 21
84.901000000000067
 31
0.0
  0
LINE
  5
242C
  8
0
 10
256.09999983000012
 20
89.866053391168194
 30
0.0
 11
256.59999939755011
 21
89.866053391168194
 31
0.0
  0
LINE
  5
242D
  8
0
 10
259.24999983000009
 20
101.0000000000001
 30
0.0
 11
258.79999982999999
 21
101.0
 31
0.0
  0
LINE
  5
242F
  8
0
 10
62.999999999999979
 20
92.429285785728567
 30
0.0
 11
62.550000000000018
 21
92.429285785728567
 31
0.0
  0
LINE
  5
2430
  8
0
 10
62.999999999999979
 20
90.999999999999986
 30
0.0
 11
62.550000000000018
 21
90.999999999999986
 31
0.0
  0
LINE
  5
2431
  8
0
 10
63.000000429750003
 20
101.0
 30
0.0
 11
62.550000429750042
 21
101.0
 31
0.0
  0
LINE
  5
2432
  8
0
 10
62.999999999999979
 20
99.570714214271433
 30
0.0
 11
62.550000000000018
 21
99.570714214271433
 31
0.0
  0
LINE
  5
2476
  8
1
 10
51.80000042974995
 20
80.0
 30
0.0
 11
64.800000429749957
 21
80.0
 31
0.0
  0
LINE
  5
2477
  8
1
 10
51.80000042974995
 20
66.0
 30
0.0
 11
64.800000429749957
 21
66.0
 31
0.0
  0
LINE
  5
24C1
  8
0
 10
65.000000141313933
 20
99.79967103839266
 30
0.0
 11
65.0
 21
107.099
 31
0.0
  0
ARC
  5
250C
  8
0
 10
152.0
 20
96.000000000000014
 30
0.0
 40
4.8499999999999943
 50
289.88943650265338
 51
70.110563497346575
  0
ARC
  5
2513
  8
0
 10
152.0
 20
96.000000000000014
 30
0.0
 40
7.3499999999999943
 50
257.02712184924928
 51
282.97287815075072
  0
LINE
  5
2515
  8
0
 10
150.34999999999999
 20
91.439298299603465
 30
0.0
 11
150.34999999999999
 21
88.837598168212025
 31
0.0
  0
LINE
  5
2516
  8
0
 10
153.65000000000001
 20
91.439298299603465
 30
0.0
 11
153.65000000000001
 21
88.837598168212025
 31
0.0
  0
ARC
  5
2517
  8
0
 10
152.0
 20
96.000000000000014
 30
0.0
 40
7.3499999999999943
 50
77.027121849249298
 51
102.9728781507507
  0
LINE
  5
2518
  8
0
 10
153.65000000000001
 20
100.56070170039651
 30
0.0
 11
153.65000000000001
 21
103.162401831788
 31
0.0
  0
LINE
  5
2519
  8
0
 10
150.34999999999999
 20
100.56070170039651
 30
0.0
 11
150.34999999999999
 21
103.162401831788
 31
0.0
  0
ARC
  5
251A
  8
0
 10
152.0
 20
96.000000000000014
 30
0.0
 40
4.8499999999999943
 50
109.8894365026534
 51
250.11056349734659
  0
CIRCLE
  5
252E
  8
3
 10
58.300211401518929
 20
80.0
 30
0.0
 40
3.3235000000002231
  0
LINE
  5
252F
  8
0
 10
60.30021139989023
 20
81.154700537440078
 30
0.0
 11
60.30021139989023
 21
78.845299460681701
 31
0.0
  0
LINE
  5
2530
  8
0
 10
60.300211399888411
 20
78.845299462560263
 30
0.0
 11
58.30021139989023
 21
77.690598924180733
 31
0.0
  0
LINE
  5
2531
  8
0
 10
58.300211401518219
 20
77.69059892512206
 30
0.0
 11
56.300211401518219
 21
78.845299463500908
 31
0.0
  0
LINE
  5
2532
  8
0
 10
56.300211403146221
 20
78.8452994625614
 30
0.0
 11
56.300211403146221
 21
81.154700539319776
 31
0.0
  0
LINE
  5
2533
  8
0
 10
56.300211403146221
 20
81.154700537439851
 30
0.0
 11
58.300211403146221
 21
82.30940107581938
 31
0.0
  0
LINE
  5
2534
  8
0
 10
58.300211401518219
 20
82.309401074878053
 30
0.0
 11
60.300211401518233
 21
81.154700536499206
 31
0.0
  0
CIRCLE
  5
2542
  8
3
 10
58.300211401518929
 20
66.0
 30
0.0
 40
3.3235000000002231
  0
LINE
  5
2543
  8
0
 10
60.300211399890223
 20
67.154700537440078
 30
0.0
 11
60.300211399890223
 21
64.845299460681701
 31
0.0
  0
LINE
  5
2544
  8
0
 10
60.300211399888397
 20
64.845299462560263
 30
0.0
 11
58.300211399890223
 21
63.690598924180733
 31
0.0
  0
LINE
  5
2545
  8
0
 10
58.300211401518219
 20
63.69059892512206
 30
0.0
 11
56.300211401518212
 21
64.845299463500893
 31
0.0
  0
LINE
  5
2546
  8
0
 10
56.300211403146207
 20
64.8452994625614
 30
0.0
 11
56.300211403146207
 21
67.154700539319776
 31
0.0
  0
LINE
  5
2547
  8
0
 10
56.300211403146207
 20
67.154700537439851
 30
0.0
 11
58.300211403146207
 21
68.30940107581938
 31
0.0
  0
LINE
  5
2548
  8
0
 10
58.300211401518219
 20
68.309401074878053
 30
0.0
 11
60.300211401518219
 21
67.154700536499206
 31
0.0
  0
CIRCLE
  5
2550
  8
3
 10
263.49978842848111
 20
80.0
 30
0.0
 40
3.3235000000000952
  0
CIRCLE
  5
2558
  8
3
 10
263.49978842848111
 20
66.0
 30
0.0
 40
3.3235000000000952
  0
LINE
  5
256E
  8
1
 10
172.49999985799991
 20
80.0
 30
0.0
 11
189.49999985799991
 21
80.000000000000014
 31
0.0
  0
LINE
  5
256F
  8
0
 10
185.79999985800001
 20
75.999999999999915
 30
0.0
 11
185.79999985800001
 21
84.000000000000028
 31
0.0
  0
LINE
  5
2570
  8
0
 10
186.999999858
 20
77.19999999999996
 30
0.0
 11
185.79999985800001
 21
75.999999999999972
 31
0.0
  0
LINE
  5
2571
  8
0
 10
185.79999985799989
 20
84.000000000000028
 30
0.0
 11
186.99999985799991
 21
82.80000000000004
 31
0.0
  0
LINE
  5
2572
  8
0
 10
175.59999985799999
 20
75.999999999999972
 30
0.0
 11
178.5
 21
75.999999999999957
 31
0.0
  0
LINE
  5
2573
  8
0
 10
175.59999985799999
 20
83.999999999999957
 30
0.0
 11
178.5
 21
83.999999999999957
 31
0.0
  0
LINE
  5
2574
  8
3
 10
175.20942240089329
 20
83.323500000000095
 30
0.0
 11
178.5
 21
83.323500000000095
 31
0.0
  0
LINE
  5
2575
  8
3
 10
185.12349985800009
 20
83.323500000000095
 30
0.0
 11
186.4764998579999
 21
83.323500000000095
 31
0.0
  0
LINE
  5
2576
  8
3
 10
175.2094224008934
 20
76.676499999999834
 30
0.0
 11
178.5
 21
76.676499999999834
 31
0.0
  0
LINE
  5
2577
  8
3
 10
185.12349985800009
 20
76.67649999999982
 30
0.0
 11
186.4764998579999
 21
76.676499999999834
 31
0.0
  0
LINE
  5
2578
  8
0
 10
175.59999985799999
 20
75.999999999999972
 30
0.0
 11
175.59999985799999
 21
83.999999999999957
 31
0.0
  0
LINE
  5
2579
  8
0
 10
174.999999858
 20
77.039230484541378
 30
0.0
 11
174.999999858
 21
82.960769515458679
 31
0.0
  0
LINE
  5
257A
  8
0
 10
186.999999858
 20
77.19999999999996
 30
0.0
 11
186.99999985799991
 21
82.80000000000004
 31
0.0
  0
LINE
  5
257B
  8
0
 10
174.999999858
 20
82.960769515458679
 30
0.0
 11
175.59999985799999
 21
84.000000000000028
 31
0.0
  0
LINE
  5
257C
  8
0
 10
174.999999858
 20
77.039230484541378
 30
0.0
 11
175.59999985799999
 21
76.000000000000028
 31
0.0
  0
LINE
  5
2592
  8
1
 10
172.49999985799991
 20
66.0
 30
0.0
 11
189.49999985799991
 21
66.000000000000014
 31
0.0
  0
LINE
  5
2593
  8
0
 10
185.79999985800001
 20
61.999999999999922
 30
0.0
 11
185.79999985800001
 21
70.000000000000028
 31
0.0
  0
LINE
  5
2594
  8
0
 10
186.999999858
 20
63.19999999999996
 30
0.0
 11
185.79999985800001
 21
61.999999999999972
 31
0.0
  0
LINE
  5
2595
  8
0
 10
185.79999985799989
 20
70.000000000000028
 30
0.0
 11
186.99999985799991
 21
68.80000000000004
 31
0.0
  0
LINE
  5
2596
  8
0
 10
175.59999985799999
 20
61.999999999999972
 30
0.0
 11
178.5
 21
61.99999999999995
 31
0.0
  0
LINE
  5
2597
  8
0
 10
175.59999985799999
 20
69.999999999999972
 30
0.0
 11
178.5
 21
69.999999999999972
 31
0.0
  0
LINE
  5
2598
  8
3
 10
175.20942240089329
 20
69.323500000000109
 30
0.0
 11
178.5
 21
69.323500000000109
 31
0.0
  0
LINE
  5
2599
  8
3
 10
185.12349985800009
 20
69.323500000000109
 30
0.0
 11
186.4764998579999
 21
69.323500000000109
 31
0.0
  0
LINE
  5
259A
  8
3
 10
175.2094224008934
 20
62.676499999999827
 30
0.0
 11
178.5
 21
62.676499999999827
 31
0.0
  0
LINE
  5
259B
  8
3
 10
185.12349985800009
 20
62.676499999999812
 30
0.0
 11
186.4764998579999
 21
62.676499999999827
 31
0.0
  0
LINE
  5
259C
  8
0
 10
175.59999985799999
 20
61.999999999999972
 30
0.0
 11
175.59999985799999
 21
69.999999999999972
 31
0.0
  0
LINE
  5
259D
  8
0
 10
174.999999858
 20
63.03923048454137
 30
0.0
 11
174.999999858
 21
68.960769515458679
 31
0.0
  0
LINE
  5
259E
  8
0
 10
186.999999858
 20
63.19999999999996
 30
0.0
 11
186.99999985799991
 21
68.80000000000004
 31
0.0
  0
LINE
  5
259F
  8
0
 10
174.999999858
 20
68.960769515458679
 30
0.0
 11
175.59999985799999
 21
70.000000000000028
 31
0.0
  0
LINE
  5
25A0
  8
0
 10
174.999999858
 20
63.03923048454137
 30
0.0
 11
175.59999985799999
 21
62.000000000000021
 31
0.0
  0
LINE
  5
25B9
  8
0
 10
175.59999985799999
 20
195.69999999999999
 30
0.0
 11
178.5
 21
195.69999999999999
 31
0.0
  0
LINE
  5
25BA
  8
0
 10
175.59999985799999
 20
203.69999999999999
 30
0.0
 11
178.5
 21
203.69999999999999
 31
0.0
  0
LINE
  5
25BB
  8
3
 10
175.20942240089329
 20
203.0235000000001
 30
0.0
 11
178.5
 21
203.0235000000001
 31
0.0
  0
LINE
  5
25BC
  8
3
 10
175.2094224008934
 20
196.37649999999979
 30
0.0
 11
178.5
 21
196.37649999999979
 31
0.0
  0
LINE
  5
25BD
  8
0
 10
175.59999985799999
 20
195.69999999999999
 30
0.0
 11
175.59999985799999
 21
198.4500000000001
 31
0.0
  0
LINE
  5
25BE
  8
0
 10
175.59999985799999
 20
200.94999999999999
 30
0.0
 11
175.59999985799999
 21
203.69999999999999
 31
0.0
  0
LINE
  5
25BF
  8
0
 10
174.999999858
 20
196.73923048454139
 30
0.0
 11
174.999999858
 21
198.4500000000001
 31
0.0
  0
LINE
  5
25C0
  8
0
 10
174.99999985799991
 20
200.94999999999999
 30
0.0
 11
174.999999858
 21
202.6607695154587
 31
0.0
  0
LINE
  5
25C1
  8
0
 10
174.999999858
 20
202.6607695154587
 30
0.0
 11
175.59999985799999
 21
203.69999999999999
 31
0.0
  0
LINE
  5
25C2
  8
0
 10
174.999999858
 20
196.73923048454139
 30
0.0
 11
175.59999985799999
 21
195.69999999999999
 31
0.0
  0
LINE
  5
25C3
  8
0
 10
185.79999985800001
 20
195.6999999999999
 30
0.0
 11
185.79999985800001
 21
203.7000000000001
 31
0.0
  0
LINE
  5
25C4
  8
0
 10
186.999999858
 20
196.90000000000001
 30
0.0
 11
185.79999985800001
 21
195.69999999999999
 31
0.0
  0
LINE
  5
25C5
  8
0
 10
185.79999985799989
 20
203.7000000000001
 30
0.0
 11
186.99999985799991
 21
202.50000000000011
 31
0.0
  0
LINE
  5
25C6
  8
3
 10
184.16308114899559
 20
203.02350000000021
 30
0.0
 11
186.4764998579999
 21
203.02350000000021
 31
0.0
  0
LINE
  5
25C7
  8
3
 10
184.1630811489955
 20
196.37649999999971
 30
0.0
 11
186.4764998579999
 21
196.37649999999991
 31
0.0
  0
LINE
  5
25C8
  8
0
 10
186.999999858
 20
196.90000000000001
 30
0.0
 11
186.99999985799991
 21
202.50000000000011
 31
0.0
  0
LINE
  5
25C9
  8
0
 10
183.4463866512761
 20
195.69999999999999
 30
0.0
 11
185.79999985800001
 21
195.69999999999999
 31
0.0
  0
LINE
  5
25CA
  8
0
 10
183.4463866512761
 20
203.69999999999999
 30
0.0
 11
185.79999985800001
 21
203.69999999999999
 31
0.0
  0
ENDSEC
  0
EOF
