  0
SECTION
  2
HEADER
  9
$ACADVER
  1
AC1009
  9
$INSBASE
 10
0.0
 20
0.0
 30
0.0
  9
$EXTMIN
 10
0.0
 20
-1.4802182810368341
 30
0.0
  9
$EXTMAX
 10
62.5
 20
131.5
 30
0.0
  9
$LIMMIN
 10
0.0
 20
0.0
  9
$LIMMAX
 10
195.0
 20
135.0
  9
$ORTHOMODE
 70
     0
  9
$REGENMODE
 70
     1
  9
$FILLMODE
 70
     1
  9
$QTEXTMODE
 70
     0
  9
$MIRRTEXT
 70
     0
  9
$DRAGMODE
 70
     2
  9
$LTSCALE
 40
5.0
  9
$OSMODE
 70
    37
  9
$ATTMODE
 70
     1
  9
$TEXTSIZE
 40
0.2
  9
$TRACEWID
 40
0.05
  9
$TEXTSTYLE
  7
STANDARD
  9
$CLAYER
  8
0
  9
$CELTYPE
  6
BYLAYER
  9
$CECOLOR
 62
   256
  9
$DIMSCALE
 40
0.5
  9
$DIMASZ
 40
3.0
  9
$DIMEXO
 40
2.0
  9
$DIMDLI
 40
0.38
  9
$DIMRND
 40
0.0
  9
$DIMDLE
 40
0.0
  9
$DIMEXE
 40
2.0
  9
$DIMTP
 40
0.0
  9
$DIMTM
 40
0.0
  9
$DIMTXT
 40
3.0
  9
$DIMCEN
 40
0.0
  9
$DIMTSZ
 40
0.0
  9
$DIMTOL
 70
     0
  9
$DIMLIM
 70
     0
  9
$DIMTIH
 70
     0
  9
$DIMTOH
 70
     0
  9
$DIMSE1
 70
     0
  9
$DIMSE2
 70
     0
  9
$DIMTAD
 70
     1
  9
$DIMZIN
 70
     8
  9
$DIMBLK
  1

  9
$DIMASO
 70
     0
  9
$DIMSHO
 70
     0
  9
$DIMPOST
  1

  9
$DIMAPOST
  1

  9
$DIMALT
 70
     0
  9
$DIMALTD
 70
     2
  9
$DIMALTF
 40
25.399999999999999
  9
$DIMLFAC
 40
1.0
  9
$DIMTOFL
 70
     1
  9
$DIMTVP
 40
1.6000000000000001
  9
$DIMTIX
 70
     1
  9
$DIMSOXD
 70
     0
  9
$DIMSAH
 70
     0
  9
$DIMBLK1
  1

  9
$DIMBLK2
  1

  9
$DIMSTYLE
  2
STANDARD
  9
$DIMCLRD
 70
   256
  9
$DIMCLRE
 70
     0
  9
$DIMCLRT
 70
     0
  9
$DIMTFAC
 40
1.0
  9
$DIMGAP
 40
0.09
  9
$LUNITS
 70
     2
  9
$LUPREC
 70
     1
  9
$SKETCHINC
 40
0.1
  9
$FILLETRAD
 40
0.0
  9
$AUNITS
 70
     0
  9
$AUPREC
 70
     1
  9
$MENU
  1
E:\r13\win\SUPPORT\ACAD
  9
$ELEVATION
 40
0.0
  9
$PELEVATION
 40
0.0
  9
$THICKNESS
 40
0.0
  9
$LIMCHECK
 70
     0
  9
$BLIPMODE
 70
     0
  9
$CHAMFERA
 40
0.0
  9
$CHAMFERB
 40
0.0
  9
$SKPOLY
 70
     0
  9
$TDCREATE
 40
2449839.7736689821
  9
$TDUPDATE
 40
2458820.7248713309
  9
$TDINDWG
 40
0.0206539352
  9
$TDUSRTIMER
 40
0.0206539352
  9
$USRTIMER
 70
     1
  9
$ANGBASE
 50
0.0
  9
$ANGDIR
 70
     0
  9
$PDMODE
 70
     0
  9
$PDSIZE
 40
0.0
  9
$PLINEWID
 40
0.0
  9
$COORDS
 70
     1
  9
$SPLFRAME
 70
     0
  9
$SPLINETYPE
 70
     6
  9
$SPLINESEGS
 70
     8
  9
$ATTDIA
 70
     0
  9
$ATTREQ
 70
     1
  9
$HANDLING
 70
     1
  9
$HANDSEED
  5
5F2
  9
$SURFTAB1
 70
     6
  9
$SURFTAB2
 70
     6
  9
$SURFTYPE
 70
     6
  9
$SURFU
 70
     6
  9
$SURFV
 70
     6
  9
$UCSNAME
  2

  9
$UCSORG
 10
0.0
 20
0.0
 30
0.0
  9
$UCSXDIR
 10
1.0
 20
0.0
 30
0.0
  9
$UCSYDIR
 10
0.0
 20
1.0
 30
0.0
  9
$PUCSNAME
  2

  9
$PUCSORG
 10
0.0
 20
0.0
 30
0.0
  9
$PUCSXDIR
 10
1.0
 20
0.0
 30
0.0
  9
$PUCSYDIR
 10
0.0
 20
1.0
 30
0.0
  9
$USERI1
 70
     3
  9
$USERI2
 70
     1
  9
$USERI3
 70
     0
  9
$USERI4
 70
     0
  9
$USERI5
 70
     0
  9
$USERR1
 40
0.5
  9
$USERR2
 40
3.0
  9
$USERR3
 40
3.0
  9
$USERR4
 40
3.0
  9
$USERR5
 40
10.0
  9
$WORLDVIEW
 70
     1
  9
$SHADEDGE
 70
     3
  9
$SHADEDIF
 70
    70
  9
$TILEMODE
 70
     1
  9
$MAXACTVP
 70
    16
  9
$PLIMCHECK
 70
     0
  9
$PEXTMIN
 10
1.0000000000000000E+020
 20
1.0000000000000000E+020
 30
1.0000000000000000E+020
  9
$PEXTMAX
 10
-1.0000000000000000E+020
 20
-1.0000000000000000E+020
 30
-1.0000000000000000E+020
  9
$PLIMMIN
 10
0.0
 20
0.0
  9
$PLIMMAX
 10
12.0
 20
9.0
  9
$UNITMODE
 70
     0
  9
$VISRETAIN
 70
     0
  9
$PLINEGEN
 70
     0
  9
$PSLTSCALE
 70
     0
  0
ENDSEC
  0
SECTION
  2
TABLES
  0
TABLE
  2
VPORT
 70
     1
  0
VPORT
  2
*ACTIVE
 70
     0
 10
0.0
 20
0.0
 11
1.0
 21
1.0
 12
94.217915414444306
 22
65.008436226287856
 13
0.0
 23
0.0
 14
2.5
 24
2.5
 15
5.0
 25
5.0
 16
0.0
 26
0.0
 36
1.0
 17
0.0
 27
0.0
 37
0.0
 40
134.14876385228081
 41
2.415644171779141
 42
50.0
 43
0.0
 44
0.0
 50
0.0
 51
0.0
 71
     0
 72
   100
 73
     1
 74
     0
 75
     0
 76
     0
 77
     0
 78
     2
  0
ENDTAB
  0
TABLE
  2
LTYPE
 70
     4
  0
LTYPE
  2
CONTINUOUS
 70
     0
  3
Solid Line
 72
    65
 73
     0
 40
0.0
  0
LTYPE
  2
CENTER
 70
     0
  3
____ _ ____ _ ____ _ ____ _ ____ _ ____ _ ____
 72
    65
 73
     4
 40
2.0
 49
1.25
 49
-0.25
 49
0.25
 49
-0.25
  0
LTYPE
  2
HIDDEN
 70
     0
  3
_ _ _ _ _ _ _ _ _ _ _ _ _ _ _ _ _ _ _ _ _ _ _
 72
    65
 73
     2
 40
0.375
 49
0.25
 49
-0.125
  0
LTYPE
  2
PHANTOM2
 70
     0
  3
___ _ _ ___ _ _ ___ _ _ ___ _ _
 72
    65
 73
     6
 40
1.25
 49
0.625
 49
-0.125
 49
0.125
 49
-0.125
 49
0.125
 49
-0.125
  0
ENDTAB
  0
TABLE
  2
LAYER
 70
     4
  0
LAYER
  2
0
 70
     0
 62
     7
  6
CONTINUOUS
  0
LAYER
  2
2
 70
     0
 62
     2
  6
HIDDEN
  0
LAYER
  2
1
 70
     0
 62
     1
  6
CENTER
  0
LAYER
  2
3
 70
     0
 62
     3
  6
CONTINUOUS
  0
ENDTAB
  0
TABLE
  2
STYLE
 70
     2
  0
STYLE
  2
STANDARD
 70
     0
 40
0.0
 41
1.0
 50
0.0
 71
     0
 42
0.2
  3
TXT
  4
BIGFONT
  0
STYLE
  2
STANDARD1
 70
     0
 40
0.0
 41
1.0
 50
0.0
 71
     0
 42
3.0
  3
txt
  4

  0
ENDTAB
  0
TABLE
  2
VIEW
 70
     1
  0
VIEW
  2
ALL
 70
     0
 40
135.0
 10
110.49579799999999
 20
67.5
 41
0.0
 11
0.0
 21
0.0
 31
1.0
 12
0.0
 22
0.0
 32
0.0
 42
0.0
 43
0.0
 44
0.0
 50
0.0
 71
     0
  0
ENDTAB
  0
TABLE
  2
UCS
 70
     0
  0
ENDTAB
  0
TABLE
  2
APPID
 70
     8
  0
APPID
  2
ACAD
 70
     0
  0
APPID
  2
ACAD_MLEADERVER
 70
     0
  0
APPID
  2
ACAD_EXEMPT_FROM_CAD_STANDARDS
 70
     0
  0
APPID
  2
ACAD_NAV_VCDISPLAY
 70
     0
  0
APPID
  2
ACAECLAYERSTANDARD
 70
     0
  0
APPID
  2
ACCMTRANSPARENCY
 70
     0
  0
APPID
  2
ACAD_DSTYLE_DIMJAG
 70
     0
  0
APPID
  2
ACAD_DSTYLE_DIMTALN
 70
     0
  0
ENDTAB
  0
TABLE
  2
DIMSTYLE
 70
     1
  0
DIMSTYLE
  2
STANDARD
 70
     0
  3

  4

  5

  6

  7

 40
1.0
 41
0.18
 42
0.0625
 43
0.38
 44
0.18
 45
0.0
 46
0.0
 47
0.0
 48
0.0
140
0.18
141
0.09
142
0.0
143
25.399999999999999
144
1.0
145
0.0
146
1.0
147
0.09
 71
     0
 72
     0
 73
     1
 74
     1
 75
     0
 76
     0
 77
     0
 78
     0
170
     0
171
     2
172
     0
173
     0
174
     0
175
     0
176
     0
177
     0
178
     0
  0
ENDTAB
  0
ENDSEC
  0
SECTION
  2
BLOCKS
  0
BLOCK
  8
0
  2
$MODEL_SPACE
 70
     0
 10
0.0
 20
0.0
 30
0.0
  3
$MODEL_SPACE
  1

  0
ENDBLK
  5
E0
  8
0
  0
BLOCK
 67
     1
  8
0
  2
$PAPER_SPACE
 70
     0
 10
0.0
 20
0.0
 30
0.0
  3
$PAPER_SPACE
  1

  0
ENDBLK
  5
DE
 67
     1
  8
0
  0
ENDSEC
  0
SECTION
  2
ENTITIES
  0
TEXT
  5
19B
  8
0
 62
     3
 10
0.0
 20
0.0
 30
0.0
 40
5.0
  1
POB06
  7
STANDARD1
  0
LINE
  5
352
  8
1
 10
50.0
 20
55.0
 30
0.0
 11
50.0
 21
30.0
 31
0.0
  0
LINE
  5
359
  8
1
 10
37.5
 20
42.5
 30
0.0
 11
62.5
 21
42.5
 31
0.0
  0
LINE
  5
35A
  8
1
 10
50.0
 20
131.5
 30
0.0
 11
50.0
 21
106.5
 31
0.0
  0
LINE
  5
35B
  8
1
 10
37.5
 20
119.0
 30
0.0
 11
62.5
 21
119.0
 31
0.0
  0
LINE
  5
35E
  8
1
 10
50.0
 20
91.5
 30
0.0
 11
50.0
 21
70.0
 31
0.0
  0
LINE
  5
4C5
  8
2
 10
48.0
 20
77.920518698216625
 30
0.0
 11
48.0
 21
73.0
 31
0.0
  0
LINE
  5
4C6
  8
2
 10
52.0
 20
77.920518698216625
 30
0.0
 11
52.0
 21
73.0
 31
0.0
  0
LINE
  5
4C7
  8
2
 10
50.0
 20
77.920518698216625
 30
0.0
 11
50.0
 21
73.0
 31
0.0
  0
LINE
  5
4C8
  8
2
 10
47.0
 20
88.0
 30
0.0
 11
47.0
 21
78.5
 31
0.0
  0
LINE
  5
4C9
  8
2
 10
53.0
 20
78.5
 30
0.0
 11
53.0
 21
88.0
 31
0.0
  0
POLYLINE
  5
4CA
  8
2
 66
     1
 10
0.0
 20
0.0
 30
0.0
  0
VERTEX
  5
5DC
  8
2
 10
52.0
 20
77.920518698216625
 30
0.0
  0
VERTEX
  5
5DD
  8
2
 10
51.798554291497929
 20
77.830669135363536
 30
0.0
  0
VERTEX
  5
5DE
  8
2
 10
51.592478078066321
 20
77.756368058683407
 30
0.0
  0
VERTEX
  5
5DF
  8
2
 10
51.376753091374347
 20
77.700216754670024
 30
0.0
  0
VERTEX
  5
5E0
  8
2
 10
51.157485520529619
 20
77.667823119693551
 30
0.0
  0
VERTEX
  5
5E1
  8
2
 10
50.94064291542
 20
77.662004502334298
 30
0.0
  0
VERTEX
  5
5E2
  8
2
 10
50.724418345562214
 20
77.682009485620497
 30
0.0
  0
VERTEX
  5
5E3
  8
2
 10
50.50231761857183
 20
77.728854377851661
 30
0.0
  0
VERTEX
  5
5E4
  8
2
 10
50.284625557691591
 20
77.798406355342308
 30
0.0
  0
VERTEX
  5
5E5
  8
2
 10
50.0
 20
77.920518698216625
 30
0.0
  0
SEQEND
  5
5E6
  8
2
  0
POLYLINE
  5
4CB
  8
2
 66
     1
 10
0.0
 20
0.0
 30
0.0
  0
VERTEX
  5
5E7
  8
2
 10
50.0
 20
77.920518698216625
 30
0.0
  0
VERTEX
  5
5E8
  8
2
 10
49.798554291497929
 20
77.830669135363536
 30
0.0
  0
VERTEX
  5
5E9
  8
2
 10
49.592478078066321
 20
77.756368058683407
 30
0.0
  0
VERTEX
  5
5EA
  8
2
 10
49.376753091374361
 20
77.700216754670024
 30
0.0
  0
VERTEX
  5
5EB
  8
2
 10
49.157485520529619
 20
77.667823119693551
 30
0.0
  0
VERTEX
  5
5EC
  8
2
 10
48.94064291542
 20
77.662004502334298
 30
0.0
  0
VERTEX
  5
5ED
  8
2
 10
48.724418345562214
 20
77.682009485620497
 30
0.0
  0
VERTEX
  5
5EE
  8
2
 10
48.502317618571837
 20
77.728854377851661
 30
0.0
  0
VERTEX
  5
5EF
  8
2
 10
48.284625557691598
 20
77.798406355342308
 30
0.0
  0
VERTEX
  5
5F0
  8
2
 10
48.0
 20
77.920518698216625
 30
0.0
  0
SEQEND
  5
5F1
  8
2
  0
LINE
  5
4CC
  8
2
 10
52.0
 20
77.660900368822723
 30
0.0
 11
53.0
 21
78.5
 31
0.0
  0
LINE
  5
4CD
  8
2
 10
47.0
 20
78.5
 30
0.0
 11
48.0
 21
77.660900368822723
 31
0.0
  0
LINE
  5
4CE
  8
2
 10
53.0
 20
78.5
 30
0.0
 11
47.0
 21
78.5
 31
0.0
  0
LINE
  5
4CF
  8
2
 10
53.0
 20
88.0
 30
0.0
 11
53.5
 21
88.499999999999986
 31
0.0
  0
LINE
  5
4D0
  8
2
 10
46.5
 20
88.499999999999986
 30
0.0
 11
47.0
 21
88.0
 31
0.0
  0
LINE
  5
4D1
  8
2
 10
53.0
 20
88.0
 30
0.0
 11
47.0
 21
88.0
 31
0.0
  0
LINE
  5
4D2
  8
0
 10
54.799999999999997
 20
73.0
 30
0.0
 11
56.000000000000007
 21
74.200000000000003
 31
0.0
  0
LINE
  5
4D3
  8
0
 10
44.0
 20
74.200000000000003
 30
0.0
 11
45.200000000000003
 21
73.0
 31
0.0
  0
LINE
  5
4D4
  8
0
 10
54.799999999999997
 20
73.0
 30
0.0
 11
45.200000000000003
 21
73.0
 31
0.0
  0
LINE
  5
4D5
  8
0
 10
44.0
 20
84.500000000000014
 30
0.0
 11
44.0
 21
74.200000000000003
 31
0.0
  0
LINE
  5
4D6
  8
0
 10
56.000000000000007
 20
74.200000000000003
 30
0.0
 11
56.000000000000007
 21
84.500000000000014
 31
0.0
  0
LINE
  5
4D7
  8
0
 10
56.000000000000007
 20
74.200000000000003
 30
0.0
 11
44.0
 21
74.200000000000003
 31
0.0
  0
LINE
  5
4D8
  8
0
 10
45.889527373351036
 20
88.499999999999986
 30
0.0
 11
40.499999999999993
 21
85.0
 31
0.0
  0
LINE
  5
4D9
  8
0
 10
59.500000000000007
 20
85.0
 30
0.0
 11
54.110472626648949
 21
88.499999999999986
 31
0.0
  0
LINE
  5
4DA
  8
0
 10
54.110472626648949
 20
88.499999999999986
 30
0.0
 11
45.889527373351036
 21
88.499999999999986
 31
0.0
  0
LINE
  5
4DB
  8
0
 10
40.499999999999993
 20
85.0
 30
0.0
 11
40.499999999999993
 21
84.500000000000014
 31
0.0
  0
LINE
  5
4DC
  8
0
 10
59.500000000000007
 20
84.500000000000014
 30
0.0
 11
59.500000000000007
 21
85.0
 31
0.0
  0
LINE
  5
4DD
  8
0
 10
59.500000000000007
 20
85.0
 30
0.0
 11
40.499999999999993
 21
85.0
 31
0.0
  0
LINE
  5
4DE
  8
0
 10
59.500000000000007
 20
84.500000000000014
 30
0.0
 11
40.499999999999993
 21
84.500000000000014
 31
0.0
  0
LINE
  5
4DF
  8
3
 10
55.079999999999998
 20
73.280000000000001
 30
0.0
 11
55.079999999999998
 21
83.0
 31
0.0
  0
LINE
  5
4E0
  8
3
 10
56.000000000000007
 20
83.0
 30
0.0
 11
44.0
 21
83.0
 31
0.0
  0
LINE
  5
4E1
  8
3
 10
44.919999999999987
 20
73.280000000000001
 30
0.0
 11
44.919999999999987
 21
83.0
 31
0.0
  0
CIRCLE
  5
4E2
  8
0
 10
50.0
 20
42.5
 30
0.0
 40
9.5
  0
LINE
  5
4E3
  8
0
 10
50.0
 20
40.190598923241502
 30
0.0
 11
48.0
 21
41.345299461620741
 31
0.0
  0
LINE
  5
4E4
  8
0
 10
48.0
 20
41.345299461620741
 30
0.0
 11
48.0
 21
43.654700538379252
 31
0.0
  0
LINE
  5
4E5
  8
0
 10
48.0
 20
43.654700538379252
 30
0.0
 11
50.0
 21
44.809401076758498
 31
0.0
  0
LINE
  5
4E6
  8
0
 10
50.0
 20
44.809401076758498
 30
0.0
 11
52.0
 21
43.654700538379252
 31
0.0
  0
LINE
  5
4E7
  8
0
 10
52.0
 20
43.654700538379252
 30
0.0
 11
52.0
 21
41.345299461620741
 31
0.0
  0
LINE
  5
4E8
  8
0
 10
52.0
 20
41.345299461620741
 30
0.0
 11
50.0
 21
40.190598923241502
 31
0.0
  0
CIRCLE
  5
4E9
  8
0
 10
50.0
 20
42.5
 30
0.0
 40
6.0
  0
CIRCLE
  5
4EA
  8
0
 10
50.0
 20
42.5
 30
0.0
 40
4.7999999999999989
  0
LINE
  5
4EC
  8
0
 10
52.0
 20
120.1547005383792
 30
0.0
 11
52.0
 21
117.8452994616207
 31
0.0
  0
LINE
  5
4ED
  8
0
 10
52.0
 20
117.8452994616207
 30
0.0
 11
50.0
 21
116.6905989232415
 31
0.0
  0
LINE
  5
4EE
  8
0
 10
50.0
 20
116.6905989232415
 30
0.0
 11
48.0
 21
117.8452994616207
 31
0.0
  0
LINE
  5
4EF
  8
0
 10
48.0
 20
117.8452994616207
 30
0.0
 11
48.0
 21
120.1547005383792
 31
0.0
  0
LINE
  5
4F0
  8
0
 10
48.0
 20
120.1547005383792
 30
0.0
 11
50.0
 21
121.3094010767585
 31
0.0
  0
LINE
  5
4F1
  8
0
 10
50.0
 20
121.3094010767585
 30
0.0
 11
52.0
 21
120.1547005383792
 31
0.0
  0
CIRCLE
  5
4F2
  8
0
 10
50.0
 20
119.0
 30
0.0
 40
9.5
  0
CIRCLE
  5
4F3
  8
0
 10
50.0
 20
119.0
 30
0.0
 40
4.1104726266489582
  0
CIRCLE
  5
4F4
  8
0
 10
50.0
 20
119.0
 30
0.0
 40
3.0
  0
CIRCLE
  5
4F5
  8
0
 10
50.0
 20
119.0
 30
0.0
 40
3.5
  0
CIRCLE
  5
4F7
  8
3
 10
50.0
 20
42.5
 30
0.0
 40
5.0799999999999983
  0
ENDSEC
  0
EOF
