  0
SECTION
  2
HEADER
  9
$ACADVER
  1
AC1009
  9
$INSBASE
 10
0.0
 20
0.0
 30
0.0
  9
$EXTMIN
 10
0.0
 20
-2.960436562073669
 30
0.0
  9
$EXTMAX
 10
161.8547461917201
 20
129.3391956836879
 30
0.0
  9
$LIMMIN
 10
0.0
 20
0.0
  9
$LIMMAX
 10
375.0
 20
270.0
  9
$ORTHOMODE
 70
     1
  9
$REGENMODE
 70
     1
  9
$FILLMODE
 70
     1
  9
$QTEXTMODE
 70
     0
  9
$MIRRTEXT
 70
     0
  9
$DRAGMODE
 70
     2
  9
$LTSCALE
 40
10.0
  9
$OSMODE
 70
  3071
  9
$ATTMODE
 70
     1
  9
$TEXTSIZE
 40
0.2
  9
$TRACEWID
 40
0.05
  9
$TEXTSTYLE
  7
STANDARD
  9
$CLAYER
  8
0
  9
$CELTYPE
  6
BYLAYER
  9
$CECOLOR
 62
   256
  9
$DIMSCALE
 40
1.0
  9
$DIMASZ
 40
3.0
  9
$DIMEXO
 40
0.0625
  9
$DIMDLI
 40
0.38
  9
$DIMRND
 40
0.0
  9
$DIMDLE
 40
0.0
  9
$DIMEXE
 40
0.18
  9
$DIMTP
 40
0.0
  9
$DIMTM
 40
0.0
  9
$DIMTXT
 40
3.0
  9
$DIMCEN
 40
0.09
  9
$DIMTSZ
 40
0.0
  9
$DIMTOL
 70
     0
  9
$DIMLIM
 70
     0
  9
$DIMTIH
 70
     1
  9
$DIMTOH
 70
     1
  9
$DIMSE1
 70
     0
  9
$DIMSE2
 70
     0
  9
$DIMTAD
 70
     0
  9
$DIMZIN
 70
     0
  9
$DIMBLK
  1

  9
$DIMASO
 70
     1
  9
$DIMSHO
 70
     1
  9
$DIMPOST
  1

  9
$DIMAPOST
  1

  9
$DIMALT
 70
     0
  9
$DIMALTD
 70
     2
  9
$DIMALTF
 40
25.399999999999999
  9
$DIMLFAC
 40
1.0
  9
$DIMTOFL
 70
     0
  9
$DIMTVP
 40
0.0
  9
$DIMTIX
 70
     0
  9
$DIMSOXD
 70
     0
  9
$DIMSAH
 70
     0
  9
$DIMBLK1
  1

  9
$DIMBLK2
  1

  9
$DIMSTYLE
  2
STANDARD
  9
$DIMCLRD
 70
     0
  9
$DIMCLRE
 70
     0
  9
$DIMCLRT
 70
     0
  9
$DIMTFAC
 40
1.0
  9
$DIMGAP
 40
0.09
  9
$LUNITS
 70
     2
  9
$LUPREC
 70
     4
  9
$SKETCHINC
 40
0.1
  9
$FILLETRAD
 40
0.0
  9
$AUNITS
 70
     0
  9
$AUPREC
 70
     0
  9
$MENU
  1
E:\r13\win\SUPPORT\ACAD
  9
$ELEVATION
 40
0.0
  9
$PELEVATION
 40
0.0
  9
$THICKNESS
 40
0.0
  9
$LIMCHECK
 70
     0
  9
$BLIPMODE
 70
     0
  9
$CHAMFERA
 40
0.0
  9
$CHAMFERB
 40
0.0
  9
$SKPOLY
 70
     0
  9
$TDCREATE
 40
2451606.4771740739
  9
$TDUPDATE
 40
2456597.7280059489
  9
$TDINDWG
 40
0.0001587384
  9
$TDUSRTIMER
 40
0.0001587384
  9
$USRTIMER
 70
     1
  9
$ANGBASE
 50
0.0
  9
$ANGDIR
 70
     0
  9
$PDMODE
 70
     0
  9
$PDSIZE
 40
0.0
  9
$PLINEWID
 40
0.0
  9
$COORDS
 70
     1
  9
$SPLFRAME
 70
     0
  9
$SPLINETYPE
 70
     6
  9
$SPLINESEGS
 70
     8
  9
$ATTDIA
 70
     0
  9
$ATTREQ
 70
     1
  9
$HANDLING
 70
     1
  9
$HANDSEED
  5
412
  9
$SURFTAB1
 70
     6
  9
$SURFTAB2
 70
     6
  9
$SURFTYPE
 70
     6
  9
$SURFU
 70
     6
  9
$SURFV
 70
     6
  9
$UCSNAME
  2

  9
$UCSORG
 10
0.0
 20
0.0
 30
0.0
  9
$UCSXDIR
 10
1.0
 20
0.0
 30
0.0
  9
$UCSYDIR
 10
0.0
 20
1.0
 30
0.0
  9
$PUCSNAME
  2

  9
$PUCSORG
 10
0.0
 20
0.0
 30
0.0
  9
$PUCSXDIR
 10
1.0
 20
0.0
 30
0.0
  9
$PUCSYDIR
 10
0.0
 20
1.0
 30
0.0
  9
$USERI1
 70
     3
  9
$USERI2
 70
     1
  9
$USERI3
 70
     1
  9
$USERI4
 70
     0
  9
$USERI5
 70
     0
  9
$USERR1
 40
1.0
  9
$USERR2
 40
3.0
  9
$USERR3
 40
3.0
  9
$USERR4
 40
3.0
  9
$USERR5
 40
10.0
  9
$WORLDVIEW
 70
     1
  9
$SHADEDGE
 70
     3
  9
$SHADEDIF
 70
    70
  9
$TILEMODE
 70
     1
  9
$MAXACTVP
 70
    16
  9
$PLIMCHECK
 70
     0
  9
$PEXTMIN
 10
1.0000000000000000E+020
 20
1.0000000000000000E+020
 30
1.0000000000000000E+020
  9
$PEXTMAX
 10
-1.0000000000000000E+020
 20
-1.0000000000000000E+020
 30
-1.0000000000000000E+020
  9
$PLIMMIN
 10
0.0
 20
0.0
  9
$PLIMMAX
 10
12.0
 20
9.0
  9
$UNITMODE
 70
     0
  9
$VISRETAIN
 70
     0
  9
$PLINEGEN
 70
     0
  9
$PSLTSCALE
 70
     0
  0
ENDSEC
  0
SECTION
  2
TABLES
  0
TABLE
  2
VPORT
 70
     1
  0
VPORT
  2
*ACTIVE
 70
     0
 10
0.0
 20
0.0
 11
1.0
 21
1.0
 12
187.4942783906524
 22
149.37525922376949
 13
0.0
 23
0.0
 14
10.0
 24
10.0
 15
10.0
 25
10.0
 16
0.0
 26
0.0
 36
1.0
 17
0.0
 27
0.0
 37
0.0
 40
308.52635987286669
 41
2.304913294797688
 42
50.0
 43
0.0
 44
0.0
 50
0.0
 51
0.0
 71
     0
 72
   100
 73
     1
 74
     0
 75
     0
 76
     0
 77
     0
 78
     0
  0
ENDTAB
  0
TABLE
  2
LTYPE
 70
     4
  0
LTYPE
  2
CONTINUOUS
 70
     0
  3
Solid Line
 72
    65
 73
     0
 40
0.0
  0
LTYPE
  2
CENTER
 70
     0
  3
____ _ ____ _ ____ _ ____ _ ____ _ ____ _ ____
 72
    65
 73
     4
 40
2.0
 49
1.25
 49
-0.25
 49
0.25
 49
-0.25
  0
LTYPE
  2
HIDDEN
 70
     0
  3
__ __ __ __ __ __ __ __ __ __ __ __ __ __ __ __
 72
    65
 73
     2
 40
0.375
 49
0.25
 49
-0.125
  0
LTYPE
  2
PHANTOM2
 70
     0
  3
___ _ _ ___ _ _ ___ _ _ ___ _ _
 72
    65
 73
     6
 40
1.25
 49
0.625
 49
-0.125
 49
0.125
 49
-0.125
 49
0.125
 49
-0.125
  0
ENDTAB
  0
TABLE
  2
LAYER
 70
     4
  0
LAYER
  2
0
 70
     0
 62
     7
  6
CONTINUOUS
  0
LAYER
  2
1
 70
     0
 62
     1
  6
CENTER
  0
LAYER
  2
3
 70
     0
 62
     3
  6
CONTINUOUS
  0
LAYER
  2
2
 70
     0
 62
     2
  6
HIDDEN
  0
ENDTAB
  0
TABLE
  2
STYLE
 70
     2
  0
STYLE
  2
STANDARD
 70
     0
 40
0.0
 41
1.0
 50
0.0
 71
     0
 42
0.2
  3
SIMPLEX
  4
BIGFONT
  0
STYLE
  2
STANDARD1
 70
     0
 40
0.0
 41
1.0
 50
0.0
 71
     0
 42
3.0
  3
txt
  4

  0
ENDTAB
  0
TABLE
  2
VIEW
 70
     0
  0
ENDTAB
  0
TABLE
  2
UCS
 70
     0
  0
ENDTAB
  0
TABLE
  2
APPID
 70
     3
  0
APPID
  2
ACAD
 70
     0
  0
APPID
  2
ACAD_MLEADERVER
 70
     0
  0
APPID
  2
ACAD_NAV_VCDISPLAY
 70
     0
  0
ENDTAB
  0
TABLE
  2
DIMSTYLE
 70
     1
  0
DIMSTYLE
  2
STANDARD
 70
     0
  3

  4

  5

  6

  7

 40
1.0
 41
0.18
 42
0.0625
 43
0.38
 44
0.18
 45
0.0
 46
0.0
 47
0.0
 48
0.0
140
0.18
141
0.09
142
0.0
143
25.399999999999999
144
1.0
145
0.0
146
1.0
147
0.09
 71
     0
 72
     0
 73
     1
 74
     1
 75
     0
 76
     0
 77
     0
 78
     0
170
     0
171
     2
172
     0
173
     0
174
     0
175
     0
176
     0
177
     0
178
     0
  0
ENDTAB
  0
ENDSEC
  0
SECTION
  2
BLOCKS
  0
BLOCK
  8
0
  2
$MODEL_SPACE
 70
     0
 10
0.0
 20
0.0
 30
0.0
  3
$MODEL_SPACE
  1

  0
ENDBLK
  5
29E
  8
0
  0
BLOCK
 67
     1
  8
0
  2
$PAPER_SPACE
 70
     0
 10
0.0
 20
0.0
 30
0.0
  3
$PAPER_SPACE
  1

  0
ENDBLK
  5
29C
 67
     1
  8
0
  0
ENDSEC
  0
SECTION
  2
ENTITIES
  0
POLYLINE
  5
1B6
  8
0
 66
     1
 10
0.0
 20
0.0
 30
0.0
 70
     1
  0
VERTEX
  5
1B7
  8
0
 10
35.96527869023771
 20
64.229842467590885
 30
0.0
  0
VERTEX
  5
1B8
  8
0
 10
40.962381737632313
 20
67.114921257172483
 30
0.0
  0
VERTEX
  5
1B9
  8
0
 10
40.962381737632313
 20
72.885078836335737
 30
0.0
  0
VERTEX
  5
1BA
  8
0
 10
35.96527869023771
 20
75.770157625917335
 30
0.0
  0
VERTEX
  5
1BB
  8
0
 10
30.96817564284299
 20
72.885078836335737
 30
0.0
  0
VERTEX
  5
1BC
  8
0
 10
30.96817564284299
 20
67.114921257172483
 30
0.0
  0
SEQEND
  5
1BD
  8
0
  0
CIRCLE
  5
1BE
  8
0
 10
35.96527869023771
 20
70.000000046754081
 30
0.0
 40
5.7701575791632846
  0
LINE
  5
1BF
  8
1
 10
35.96527869023771
 20
53.500000046754081
 30
0.0
 11
35.96527869023771
 21
86.500000046754081
 31
0.0
  0
CIRCLE
  5
1C0
  8
0
 10
35.96527869023771
 20
70.000000046754081
 30
0.0
 40
14.0
  0
LINE
  5
1C1
  8
0
 10
87.640532374725467
 20
57.00000004675406
 30
0.0
 11
87.640532374725467
 21
70.000000046754053
 31
0.0
  0
LINE
  5
1C2
  8
0
 10
82.140532374725467
 20
70.000000046754053
 30
0.0
 11
82.140532374725467
 21
56.000000046754053
 31
0.0
1001
ACAD
1000
ASC_BOUNDS
1002
{
1070
    19
1002
}
  0
LINE
  5
1C3
  8
2
 10
82.849125945982962
 20
64.245935013082317
 30
0.0
 11
82.849125945982962
 21
70.000000046754053
 31
0.0
  0
ARC
  5
1C4
  8
2
 10
85.66832316427417
 20
70.028501125729974
 30
0.0
 40
6.4171391992806983
 50
332.81902481307748
 51
359.74552571559298
1001
ACAD
1000
ASC_BOUNDS
1002
{
1070
    19
1002
}
  0
LINE
  5
1C5
  8
0
 10
95.640532374725467
 20
60.025000046754101
 30
0.0
 11
95.640532374725396
 21
70.00000004675411
 31
0.0
1001
ACAD
1000
ASC_BOUNDS
1002
{
1070
    19
1002
}
  0
LINE
  5
1C6
  8
0
 10
86.140532374725467
 20
56.000000046754053
 30
0.0
 11
86.140532374725467
 21
84.000000046754053
 31
0.0
1001
ACAD
1000
ASC_BOUNDS
1002
{
1070
    19
1002
}
  0
LINE
  5
1C7
  8
0
 10
97.140532374725524
 20
60.880105124341313
 30
0.0
 11
97.140532374725481
 21
70.000000046754053
 31
0.0
1001
ACAD
1000
ASC_BOUNDS
1002
{
1070
    19
1002
}
  0
LINE
  5
1C8
  8
0
 10
95.640532374725467
 20
16.951991366671901
 30
0.0
 11
95.640532374725396
 21
26.92699136667191
 31
0.0
1001
ACAD
1000
ASC_BOUNDS
1002
{
1070
    19
1002
}
  0
LINE
  5
1C9
  8
0
 10
97.140532374725524
 20
17.807096444259109
 30
0.0
 11
97.140532374725481
 21
26.92699136667186
 31
0.0
1001
ACAD
1000
ASC_BOUNDS
1002
{
1070
    19
1002
}
  0
LINE
  5
1CA
  8
2
 10
82.849125945982962
 20
21.17292633300012
 30
0.0
 11
82.849125945982962
 21
26.92699136667186
 31
0.0
  0
LINE
  5
1CB
  8
0
 10
82.140532374725467
 20
26.92699136667186
 30
0.0
 11
82.140532374725467
 21
12.92699136667186
 31
0.0
1001
ACAD
1000
ASC_BOUNDS
1002
{
1070
    19
1002
}
  0
LINE
  5
1CC
  8
0
 10
87.640532374725467
 20
13.926991366671849
 30
0.0
 11
87.640532374725467
 21
26.92699136667186
 31
0.0
  0
LINE
  5
1CD
  8
0
 10
86.140532374725467
 20
12.92699136667186
 30
0.0
 11
86.140532374725467
 21
40.926991366671849
 31
0.0
1001
ACAD
1000
ASC_BOUNDS
1002
{
1070
    19
1002
}
  0
ARC
  5
1CE
  8
2
 10
85.66832316427417
 20
26.955492445647781
 30
0.0
 40
6.4171391992806983
 50
332.81902481307748
 51
359.74552571559298
1001
ACAD
1000
ASC_BOUNDS
1002
{
1070
    19
1002
}
  0
LINE
  5
1CF
  8
2
 10
82.849125945982962
 20
21.17292633300012
 30
0.0
 11
91.376805499645968
 21
21.17292633300012
 31
0.0
1001
ACAD
1000
ASC_BOUNDS
1002
{
1070
    19
1002
}
  0
LINE
  5
1D0
  8
2
 10
82.849125945983005
 20
24.024126734977571
 30
0.0
 11
91.376805499645897
 21
24.024126734977571
 31
0.0
  0
LINE
  5
1D1
  8
0
 10
86.140532374725467
 20
13.926991366671849
 30
0.0
 11
87.640532374725467
 21
13.926991366671849
 31
0.0
  0
LINE
  5
1D2
  8
0
 10
82.140532374725467
 20
12.92699136667186
 30
0.0
 11
86.140532374725467
 21
12.92699136667186
 31
0.0
1001
ACAD
1000
ASC_BOUNDS
1002
{
1070
    19
1002
}
  0
LINE
  5
1D3
  8
2
 10
82.849125945982962
 20
21.17292633300012
 30
0.0
 11
82.140532374725467
 21
20.237509416478741
 31
0.0
1001
ACAD
1000
ASC_BOUNDS
1002
{
1070
    19
1002
}
  0
LINE
  5
1D4
  8
0
 10
87.64053237472541
 20
16.451991366671901
 30
0.0
 11
95.140532374725467
 21
16.451991366671901
 31
0.0
1001
ACAD
1000
ASC_BOUNDS
1002
{
1070
    19
1002
}
  0
LINE
  5
1D5
  8
3
 10
95.640532374725467
 20
17.607096444259131
 30
0.0
 11
87.640532374725467
 21
17.607096444259131
 31
0.0
  0
ARC
  5
1D6
  8
0
 10
96.940532374725535
 20
17.807096444259109
 30
0.0
 40
0.2
 50
270.0
 51
0.0
1001
ACAD
1000
ASC_BOUNDS
1002
{
1070
    19
1002
}
  0
ARC
  5
1D7
  8
0
 10
95.140532374725467
 20
16.951991366671901
 30
0.0
 40
0.5
 50
270.0
 51
0.0
1001
ACAD
1000
ASC_BOUNDS
1002
{
1070
    19
1002
}
  0
LINE
  5
1D8
  8
0
 10
95.640532374725467
 20
17.607096444259131
 30
0.0
 11
96.940532374725535
 21
17.607096444259131
 31
0.0
1001
ACAD
1000
ASC_BOUNDS
1002
{
1070
    19
1002
}
  0
ARC
  5
1D9
  8
2
 10
90.428130495123227
 20
22.598526533988821
 30
0.0
 40
1.7124018796022249
 50
303.64204021625238
 51
56.357959783747582
1001
ACAD
1000
ASC_BOUNDS
1002
{
1070
    19
1002
}
  0
LINE
  5
1DA
  8
0
 10
86.140532374725467
 20
39.926991366671857
 30
0.0
 11
87.640532374725467
 21
39.926991366671857
 31
0.0
  0
LINE
  5
1DB
  8
2
 10
82.849125945982962
 20
32.681056400343593
 30
0.0
 11
91.376805499645968
 21
32.681056400343593
 31
0.0
1001
ACAD
1000
ASC_BOUNDS
1002
{
1070
    19
1002
}
  0
LINE
  5
1DC
  8
2
 10
82.849125945983005
 20
29.829855998366138
 30
0.0
 11
91.376805499645897
 21
29.829855998366138
 31
0.0
  0
LINE
  5
1DD
  8
1
 10
99.640532374725467
 20
26.92699136667186
 30
0.0
 11
79.640532374725481
 21
26.92699136667186
 31
0.0
  0
LINE
  5
1DE
  8
0
 10
86.140532374725467
 20
57.00000004675406
 30
0.0
 11
87.640532374725467
 21
57.00000004675406
 31
0.0
  0
LINE
  5
1DF
  8
2
 10
82.849125945982962
 20
64.245935013082317
 30
0.0
 11
91.376805499645968
 21
64.245935013082317
 31
0.0
1001
ACAD
1000
ASC_BOUNDS
1002
{
1070
    19
1002
}
  0
LINE
  5
1E0
  8
2
 10
82.849125945983005
 20
67.097135415059753
 30
0.0
 11
91.376805499645897
 21
67.097135415059753
 31
0.0
  0
LINE
  5
1E1
  8
0
 10
82.140532374725467
 20
26.92699136667186
 30
0.0
 11
82.140532374725467
 21
40.926991366671849
 31
0.0
1001
ACAD
1000
ASC_BOUNDS
1002
{
1070
    19
1002
}
  0
LINE
  5
1E2
  8
2
 10
82.849125945982962
 20
32.681056400343593
 30
0.0
 11
82.849125945982962
 21
26.92699136667186
 31
0.0
  0
LINE
  5
1E3
  8
2
 10
82.849125945982962
 20
32.681056400343593
 30
0.0
 11
82.140532374725467
 21
33.616473316864969
 31
0.0
1001
ACAD
1000
ASC_BOUNDS
1002
{
1070
    19
1002
}
  0
LINE
  5
1E4
  8
0
 10
82.140532374725467
 20
40.926991366671849
 30
0.0
 11
86.140532374725467
 21
40.926991366671849
 31
0.0
1001
ACAD
1000
ASC_BOUNDS
1002
{
1070
    19
1002
}
  0
LINE
  5
1E5
  8
0
 10
82.140532374725467
 20
56.000000046754053
 30
0.0
 11
86.140532374725467
 21
56.000000046754053
 31
0.0
1001
ACAD
1000
ASC_BOUNDS
1002
{
1070
    19
1002
}
  0
LINE
  5
1E6
  8
2
 10
82.849125945982962
 20
64.245935013082317
 30
0.0
 11
82.140532374725467
 21
63.310518096560941
 31
0.0
1001
ACAD
1000
ASC_BOUNDS
1002
{
1070
    19
1002
}
  0
ARC
  5
1E7
  8
0
 10
95.140532374725467
 20
36.901991366671808
 30
0.0
 40
0.5
 50
0.0
 51
90.0
1001
ACAD
1000
ASC_BOUNDS
1002
{
1070
    19
1002
}
  0
LINE
  5
1E8
  8
0
 10
87.640532374725467
 20
39.926991366671857
 30
0.0
 11
87.640532374725467
 21
26.92699136667186
 31
0.0
  0
LINE
  5
1E9
  8
0
 10
97.140532374725524
 20
36.046886289084597
 30
0.0
 11
97.140532374725481
 21
26.92699136667186
 31
0.0
1001
ACAD
1000
ASC_BOUNDS
1002
{
1070
    19
1002
}
  0
LINE
  5
1EA
  8
0
 10
95.640532374725467
 20
36.901991366671808
 30
0.0
 11
95.640532374725396
 21
26.9269913666718
 31
0.0
1001
ACAD
1000
ASC_BOUNDS
1002
{
1070
    19
1002
}
  0
ARC
  5
1EB
  8
2
 10
90.428130495123227
 20
31.255456199354899
 30
0.0
 40
1.7124018796022249
 50
303.64204021625238
 51
56.357959783747582
1001
ACAD
1000
ASC_BOUNDS
1002
{
1070
    19
1002
}
  0
ARC
  5
1EC
  8
2
 10
85.66832316427417
 20
26.898490287695932
 30
0.0
 40
6.4171391992806983
 50
0.2544742844070136
 51
27.180975186922542
1001
ACAD
1000
ASC_BOUNDS
1002
{
1070
    19
1002
}
  0
LINE
  5
1ED
  8
3
 10
95.640532374725467
 20
36.246886289084578
 30
0.0
 11
87.640532374725467
 21
36.246886289084578
 31
0.0
  0
ARC
  5
1EE
  8
0
 10
96.940532374725535
 20
36.046886289084597
 30
0.0
 40
0.2
 50
0.0
 51
90.0
1001
ACAD
1000
ASC_BOUNDS
1002
{
1070
    19
1002
}
  0
LINE
  5
1EF
  8
0
 10
95.640532374725467
 20
36.246886289084578
 30
0.0
 11
96.940532374725535
 21
36.246886289084578
 31
0.0
1001
ACAD
1000
ASC_BOUNDS
1002
{
1070
    19
1002
}
  0
LINE
  5
1F0
  8
0
 10
87.64053237472541
 20
37.401991366671808
 30
0.0
 11
95.140532374725467
 21
37.401991366671808
 31
0.0
1001
ACAD
1000
ASC_BOUNDS
1002
{
1070
    19
1002
}
  0
LINE
  5
1F1
  8
0
 10
87.64053237472541
 20
59.525000046754101
 30
0.0
 11
95.140532374725467
 21
59.525000046754101
 31
0.0
1001
ACAD
1000
ASC_BOUNDS
1002
{
1070
    19
1002
}
  0
LINE
  5
1F2
  8
3
 10
95.640532374725467
 20
60.680105124341317
 30
0.0
 11
87.640532374725467
 21
60.680105124341317
 31
0.0
  0
ARC
  5
1F3
  8
0
 10
95.140532374725467
 20
60.025000046754101
 30
0.0
 40
0.5
 50
270.0
 51
0.0
1001
ACAD
1000
ASC_BOUNDS
1002
{
1070
    19
1002
}
  0
ARC
  5
1F4
  8
0
 10
96.940532374725535
 20
60.880105124341313
 30
0.0
 40
0.2
 50
270.0
 51
0.0
1001
ACAD
1000
ASC_BOUNDS
1002
{
1070
    19
1002
}
  0
LINE
  5
1F5
  8
0
 10
95.640532374725467
 20
60.680105124341317
 30
0.0
 11
96.940532374725535
 21
60.680105124341317
 31
0.0
1001
ACAD
1000
ASC_BOUNDS
1002
{
1070
    19
1002
}
  0
ARC
  5
1F6
  8
2
 10
90.428130495123227
 20
65.671535214071014
 30
0.0
 40
1.7124018796022249
 50
303.64204021625238
 51
56.357959783747582
1001
ACAD
1000
ASC_BOUNDS
1002
{
1070
    19
1002
}
  0
LINE
  5
1F7
  8
1
 10
52.465278690237703
 20
70.000000046754081
 30
0.0
 11
19.46527869023771
 21
70.000000046754081
 31
0.0
  0
LINE
  5
1F8
  8
0
 10
95.640532374725467
 20
105.3641956836879
 30
0.0
 11
95.640532374725396
 21
115.3391956836879
 31
0.0
1001
ACAD
1000
ASC_BOUNDS
1002
{
1070
    19
1002
}
  0
LINE
  5
1F9
  8
0
 10
97.140532374725524
 20
106.21930076127509
 30
0.0
 11
97.140532374725481
 21
115.33919568368781
 31
0.0
1001
ACAD
1000
ASC_BOUNDS
1002
{
1070
    19
1002
}
  0
LINE
  5
1FA
  8
2
 10
82.849125945982962
 20
109.5851306500161
 30
0.0
 11
82.849125945982962
 21
115.33919568368781
 31
0.0
  0
LINE
  5
1FB
  8
0
 10
82.140532374725467
 20
115.33919568368781
 30
0.0
 11
82.140532374725467
 21
101.33919568368781
 31
0.0
1001
ACAD
1000
ASC_BOUNDS
1002
{
1070
    19
1002
}
  0
LINE
  5
1FC
  8
0
 10
87.640532374725467
 20
102.33919568368781
 30
0.0
 11
87.640532374725467
 21
115.33919568368781
 31
0.0
  0
LINE
  5
1FD
  8
0
 10
86.140532374725467
 20
101.33919568368781
 30
0.0
 11
86.140532374725467
 21
129.3391956836879
 31
0.0
1001
ACAD
1000
ASC_BOUNDS
1002
{
1070
    19
1002
}
  0
ARC
  5
1FE
  8
2
 10
85.66832316427417
 20
115.3676967626638
 30
0.0
 40
6.4171391992806983
 50
332.81902481307748
 51
359.74552571559298
1001
ACAD
1000
ASC_BOUNDS
1002
{
1070
    19
1002
}
  0
LINE
  5
1FF
  8
2
 10
82.849125945982962
 20
109.5851306500161
 30
0.0
 11
91.376805499645968
 21
109.5851306500161
 31
0.0
1001
ACAD
1000
ASC_BOUNDS
1002
{
1070
    19
1002
}
  0
LINE
  5
200
  8
2
 10
82.849125945983005
 20
112.43633105199351
 30
0.0
 11
91.376805499645897
 21
112.43633105199351
 31
0.0
  0
LINE
  5
201
  8
0
 10
86.140532374725467
 20
102.33919568368781
 30
0.0
 11
87.640532374725467
 21
102.33919568368781
 31
0.0
  0
LINE
  5
202
  8
0
 10
86.140532374725467
 20
83.000000046754053
 30
0.0
 11
87.640532374725467
 21
83.000000046754053
 31
0.0
  0
LINE
  5
203
  8
1
 10
99.640532374725467
 20
70.000000046754053
 30
0.0
 11
79.640532374725481
 21
70.000000046754053
 31
0.0
  0
LINE
  5
204
  8
2
 10
82.849125945983005
 20
72.902864678448339
 30
0.0
 11
91.376805499645897
 21
72.902864678448339
 31
0.0
  0
LINE
  5
205
  8
2
 10
82.849125945982962
 20
75.754065080425789
 30
0.0
 11
91.376805499645968
 21
75.754065080425789
 31
0.0
1001
ACAD
1000
ASC_BOUNDS
1002
{
1070
    19
1002
}
  0
LINE
  5
206
  8
0
 10
82.140532374725467
 20
70.000000046754053
 30
0.0
 11
82.140532374725467
 21
84.000000046754053
 31
0.0
1001
ACAD
1000
ASC_BOUNDS
1002
{
1070
    19
1002
}
  0
LINE
  5
207
  8
2
 10
82.849125945982962
 20
75.754065080425789
 30
0.0
 11
82.849125945982962
 21
70.000000046754053
 31
0.0
  0
LINE
  5
208
  8
2
 10
82.849125945982962
 20
75.754065080425789
 30
0.0
 11
82.140532374725467
 21
76.689481996947165
 31
0.0
1001
ACAD
1000
ASC_BOUNDS
1002
{
1070
    19
1002
}
  0
LINE
  5
209
  8
0
 10
82.140532374725467
 20
84.000000046754053
 30
0.0
 11
86.140532374725467
 21
84.000000046754053
 31
0.0
1001
ACAD
1000
ASC_BOUNDS
1002
{
1070
    19
1002
}
  0
LINE
  5
20A
  8
0
 10
82.140532374725467
 20
101.33919568368781
 30
0.0
 11
86.140532374725467
 21
101.33919568368781
 31
0.0
1001
ACAD
1000
ASC_BOUNDS
1002
{
1070
    19
1002
}
  0
LINE
  5
20B
  8
2
 10
82.849125945982962
 20
109.5851306500161
 30
0.0
 11
82.140532374725467
 21
108.64971373349471
 31
0.0
1001
ACAD
1000
ASC_BOUNDS
1002
{
1070
    19
1002
}
  0
ARC
  5
20C
  8
0
 10
95.140532374725467
 20
79.975000046754005
 30
0.0
 40
0.5
 50
0.0
 51
90.0
1001
ACAD
1000
ASC_BOUNDS
1002
{
1070
    19
1002
}
  0
LINE
  5
20D
  8
0
 10
87.640532374725467
 20
83.000000046754053
 30
0.0
 11
87.640532374725467
 21
70.000000046754053
 31
0.0
  0
LINE
  5
20E
  8
0
 10
97.140532374725524
 20
79.119894969166793
 30
0.0
 11
97.140532374725481
 21
70.000000046754053
 31
0.0
1001
ACAD
1000
ASC_BOUNDS
1002
{
1070
    19
1002
}
  0
LINE
  5
20F
  8
0
 10
95.640532374725467
 20
79.975000046754005
 30
0.0
 11
95.640532374725396
 21
70.000000046753996
 31
0.0
1001
ACAD
1000
ASC_BOUNDS
1002
{
1070
    19
1002
}
  0
ARC
  5
210
  8
2
 10
90.428130495123227
 20
74.328464879437092
 30
0.0
 40
1.7124018796022249
 50
303.64204021625238
 51
56.357959783747582
1001
ACAD
1000
ASC_BOUNDS
1002
{
1070
    19
1002
}
  0
ARC
  5
211
  8
2
 10
85.66832316427417
 20
69.971498967778132
 30
0.0
 40
6.4171391992806983
 50
0.2544742844070136
 51
27.180975186922542
1001
ACAD
1000
ASC_BOUNDS
1002
{
1070
    19
1002
}
  0
LINE
  5
212
  8
3
 10
95.640532374725467
 20
79.319894969166782
 30
0.0
 11
87.640532374725467
 21
79.319894969166782
 31
0.0
  0
ARC
  5
213
  8
0
 10
96.940532374725535
 20
79.119894969166793
 30
0.0
 40
0.2
 50
0.0
 51
90.0
1001
ACAD
1000
ASC_BOUNDS
1002
{
1070
    19
1002
}
  0
LINE
  5
214
  8
0
 10
95.640532374725467
 20
79.319894969166782
 30
0.0
 11
96.940532374725535
 21
79.319894969166782
 31
0.0
1001
ACAD
1000
ASC_BOUNDS
1002
{
1070
    19
1002
}
  0
LINE
  5
215
  8
0
 10
87.64053237472541
 20
80.475000046754005
 30
0.0
 11
95.140532374725467
 21
80.475000046754005
 31
0.0
1001
ACAD
1000
ASC_BOUNDS
1002
{
1070
    19
1002
}
  0
LINE
  5
216
  8
0
 10
87.64053237472541
 20
104.8641956836879
 30
0.0
 11
95.140532374725467
 21
104.8641956836879
 31
0.0
1001
ACAD
1000
ASC_BOUNDS
1002
{
1070
    19
1002
}
  0
LINE
  5
217
  8
3
 10
95.640532374725467
 20
106.0193007612751
 30
0.0
 11
87.640532374725467
 21
106.0193007612751
 31
0.0
  0
ARC
  5
218
  8
0
 10
95.140532374725467
 20
105.3641956836879
 30
0.0
 40
0.5
 50
270.0
 51
0.0
1001
ACAD
1000
ASC_BOUNDS
1002
{
1070
    19
1002
}
  0
ARC
  5
219
  8
0
 10
96.940532374725535
 20
106.21930076127509
 30
0.0
 40
0.2
 50
270.0
 51
0.0
1001
ACAD
1000
ASC_BOUNDS
1002
{
1070
    19
1002
}
  0
LINE
  5
21A
  8
0
 10
95.640532374725467
 20
106.0193007612751
 30
0.0
 11
96.940532374725535
 21
106.0193007612751
 31
0.0
1001
ACAD
1000
ASC_BOUNDS
1002
{
1070
    19
1002
}
  0
ARC
  5
21B
  8
2
 10
90.428130495123227
 20
111.01073085100479
 30
0.0
 40
1.7124018796022249
 50
303.64204021625238
 51
56.357959783747582
1001
ACAD
1000
ASC_BOUNDS
1002
{
1070
    19
1002
}
  0
LINE
  5
21C
  8
0
 10
86.140532374725467
 20
128.3391956836879
 30
0.0
 11
87.640532374725467
 21
128.3391956836879
 31
0.0
  0
LINE
  5
21D
  8
2
 10
82.849125945982962
 20
121.0932607173596
 30
0.0
 11
91.376805499645968
 21
121.0932607173596
 31
0.0
1001
ACAD
1000
ASC_BOUNDS
1002
{
1070
    19
1002
}
  0
LINE
  5
21E
  8
2
 10
82.849125945983005
 20
118.2420603153821
 30
0.0
 11
91.376805499645897
 21
118.2420603153821
 31
0.0
  0
LINE
  5
21F
  8
1
 10
99.640532374725467
 20
115.33919568368781
 30
0.0
 11
79.640532374725481
 21
115.33919568368781
 31
0.0
  0
LINE
  5
220
  8
0
 10
82.140532374725467
 20
115.33919568368781
 30
0.0
 11
82.140532374725467
 21
129.3391956836879
 31
0.0
1001
ACAD
1000
ASC_BOUNDS
1002
{
1070
    19
1002
}
  0
LINE
  5
221
  8
2
 10
82.849125945982962
 20
121.0932607173596
 30
0.0
 11
82.849125945982962
 21
115.33919568368781
 31
0.0
  0
LINE
  5
222
  8
2
 10
82.849125945982962
 20
121.0932607173596
 30
0.0
 11
82.140532374725467
 21
122.0286776338809
 31
0.0
1001
ACAD
1000
ASC_BOUNDS
1002
{
1070
    19
1002
}
  0
LINE
  5
223
  8
0
 10
82.140532374725467
 20
129.3391956836879
 30
0.0
 11
86.140532374725467
 21
129.3391956836879
 31
0.0
1001
ACAD
1000
ASC_BOUNDS
1002
{
1070
    19
1002
}
  0
LINE
  5
224
  8
0
 10
97.140532374725524
 20
124.4590906061006
 30
0.0
 11
97.140532374725481
 21
115.33919568368781
 31
0.0
1001
ACAD
1000
ASC_BOUNDS
1002
{
1070
    19
1002
}
  0
LINE
  5
225
  8
0
 10
95.640532374725467
 20
125.3141956836878
 30
0.0
 11
95.640532374725396
 21
115.33919568368781
 31
0.0
1001
ACAD
1000
ASC_BOUNDS
1002
{
1070
    19
1002
}
  0
LINE
  5
226
  8
0
 10
87.640532374725467
 20
128.3391956836879
 30
0.0
 11
87.640532374725467
 21
115.33919568368781
 31
0.0
  0
ARC
  5
227
  8
2
 10
90.428130495123227
 20
119.6676605163709
 30
0.0
 40
1.7124018796022249
 50
303.64204021625238
 51
56.357959783747582
1001
ACAD
1000
ASC_BOUNDS
1002
{
1070
    19
1002
}
  0
ARC
  5
228
  8
2
 10
85.66832316427417
 20
115.3106946047119
 30
0.0
 40
6.4171391992806983
 50
0.2544742844070136
 51
27.180975186922542
1001
ACAD
1000
ASC_BOUNDS
1002
{
1070
    19
1002
}
  0
LINE
  5
229
  8
0
 10
87.64053237472541
 20
125.8141956836878
 30
0.0
 11
95.140532374725467
 21
125.8141956836878
 31
0.0
1001
ACAD
1000
ASC_BOUNDS
1002
{
1070
    19
1002
}
  0
LINE
  5
22A
  8
3
 10
95.640532374725467
 20
124.65909060610061
 30
0.0
 11
87.640532374725467
 21
124.65909060610061
 31
0.0
  0
ARC
  5
22B
  8
0
 10
95.140532374725467
 20
125.3141956836878
 30
0.0
 40
0.5
 50
0.0
 51
90.0
1001
ACAD
1000
ASC_BOUNDS
1002
{
1070
    19
1002
}
  0
ARC
  5
22C
  8
0
 10
96.940532374725535
 20
124.4590906061006
 30
0.0
 40
0.2
 50
0.0
 51
90.0
1001
ACAD
1000
ASC_BOUNDS
1002
{
1070
    19
1002
}
  0
LINE
  5
22D
  8
0
 10
95.640532374725467
 20
124.65909060610061
 30
0.0
 11
96.940532374725535
 21
124.65909060610061
 31
0.0
1001
ACAD
1000
ASC_BOUNDS
1002
{
1070
    19
1002
}
  0
CIRCLE
  5
22E
  8
0
 10
145.35474614496621
 20
70.000000000000057
 30
0.0
 40
14.000000046753989
  0
CIRCLE
  5
22F
  8
0
 10
145.35474614496621
 20
70.000000000000057
 30
0.0
 40
13.000000046753989
  0
CIRCLE
  5
230
  8
0
 10
145.35474614496621
 20
69.999999999996277
 30
0.0
 40
5.5162910900386057
  0
CIRCLE
  5
231
  8
0
 10
145.35474614496621
 20
69.999999999996277
 30
0.0
 40
6.25
  0
LINE
  5
232
  8
1
 10
145.35474614496621
 20
86.500000046754053
 30
0.0
 11
145.35474614496621
 21
53.499999953246061
 31
0.0
  0
CIRCLE
  5
233
  8
0
 10
145.35474614496621
 20
69.999999999996277
 30
0.0
 40
10.477499999999999
  0
CIRCLE
  5
234
  8
3
 10
145.35474614496621
 20
69.999999999996277
 30
0.0
 40
9.3155000000000001
  0
LINE
  5
241
  8
1
 10
161.8547461917201
 20
69.999999992246302
 30
0.0
 11
128.85474609821219
 21
70.000000007753812
 31
0.0
  0
TEXT
  5
37E
  8
0
 62
     3
 10
0.0
 20
0.0
 30
0.0
 40
10.0
  1
POSH-1/2
  7
STANDARD1
  0
ENDSEC
  0
EOF
