  0
SECTION
  2
HEADER
  9
$ACADVER
  1
AC1009
  9
$INSBASE
 10
0.0
 20
0.0
 30
0.0
  9
$EXTMIN
 10
0.0
 20
-2.960436562073669
 30
0.0
  9
$EXTMAX
 10
169.75530675091679
 20
133.41919377176231
 30
0.0
  9
$LIMMIN
 10
0.0
 20
0.0
  9
$LIMMAX
 10
375.0
 20
270.0
  9
$ORTHOMODE
 70
     1
  9
$REGENMODE
 70
     1
  9
$FILLMODE
 70
     1
  9
$QTEXTMODE
 70
     0
  9
$MIRRTEXT
 70
     0
  9
$DRAGMODE
 70
     2
  9
$LTSCALE
 40
10.0
  9
$OSMODE
 70
  3071
  9
$ATTMODE
 70
     1
  9
$TEXTSIZE
 40
0.2
  9
$TRACEWID
 40
0.05
  9
$TEXTSTYLE
  7
STANDARD
  9
$CLAYER
  8
0
  9
$CELTYPE
  6
BYLAYER
  9
$CECOLOR
 62
   256
  9
$DIMSCALE
 40
1.0
  9
$DIMASZ
 40
3.0
  9
$DIMEXO
 40
0.0625
  9
$DIMDLI
 40
0.38
  9
$DIMRND
 40
0.0
  9
$DIMDLE
 40
0.0
  9
$DIMEXE
 40
0.18
  9
$DIMTP
 40
0.0
  9
$DIMTM
 40
0.0
  9
$DIMTXT
 40
3.0
  9
$DIMCEN
 40
0.09
  9
$DIMTSZ
 40
0.0
  9
$DIMTOL
 70
     0
  9
$DIMLIM
 70
     0
  9
$DIMTIH
 70
     1
  9
$DIMTOH
 70
     1
  9
$DIMSE1
 70
     0
  9
$DIMSE2
 70
     0
  9
$DIMTAD
 70
     0
  9
$DIMZIN
 70
     0
  9
$DIMBLK
  1

  9
$DIMASO
 70
     1
  9
$DIMSHO
 70
     1
  9
$DIMPOST
  1

  9
$DIMAPOST
  1

  9
$DIMALT
 70
     0
  9
$DIMALTD
 70
     2
  9
$DIMALTF
 40
25.399999999999999
  9
$DIMLFAC
 40
1.0
  9
$DIMTOFL
 70
     0
  9
$DIMTVP
 40
0.0
  9
$DIMTIX
 70
     0
  9
$DIMSOXD
 70
     0
  9
$DIMSAH
 70
     0
  9
$DIMBLK1
  1

  9
$DIMBLK2
  1

  9
$DIMSTYLE
  2
STANDARD
  9
$DIMCLRD
 70
     0
  9
$DIMCLRE
 70
     0
  9
$DIMCLRT
 70
     0
  9
$DIMTFAC
 40
1.0
  9
$DIMGAP
 40
0.09
  9
$LUNITS
 70
     2
  9
$LUPREC
 70
     4
  9
$SKETCHINC
 40
0.1
  9
$FILLETRAD
 40
0.0
  9
$AUNITS
 70
     0
  9
$AUPREC
 70
     0
  9
$MENU
  1
E:\r13\win\SUPPORT\ACAD
  9
$ELEVATION
 40
0.0
  9
$PELEVATION
 40
0.0
  9
$THICKNESS
 40
0.0
  9
$LIMCHECK
 70
     0
  9
$BLIPMODE
 70
     0
  9
$CHAMFERA
 40
0.0
  9
$CHAMFERB
 40
0.0
  9
$SKPOLY
 70
     0
  9
$TDCREATE
 40
2451606.478217246
  9
$TDUPDATE
 40
2456597.7280134838
  9
$TDINDWG
 40
0.0002219097
  9
$TDUSRTIMER
 40
0.0002219097
  9
$USRTIMER
 70
     1
  9
$ANGBASE
 50
0.0
  9
$ANGDIR
 70
     0
  9
$PDMODE
 70
     0
  9
$PDSIZE
 40
0.0
  9
$PLINEWID
 40
0.0
  9
$COORDS
 70
     1
  9
$SPLFRAME
 70
     0
  9
$SPLINETYPE
 70
     6
  9
$SPLINESEGS
 70
     8
  9
$ATTDIA
 70
     0
  9
$ATTREQ
 70
     1
  9
$HANDLING
 70
     1
  9
$HANDSEED
  5
3C5
  9
$SURFTAB1
 70
     6
  9
$SURFTAB2
 70
     6
  9
$SURFTYPE
 70
     6
  9
$SURFU
 70
     6
  9
$SURFV
 70
     6
  9
$UCSNAME
  2

  9
$UCSORG
 10
0.0
 20
0.0
 30
0.0
  9
$UCSXDIR
 10
1.0
 20
0.0
 30
0.0
  9
$UCSYDIR
 10
0.0
 20
1.0
 30
0.0
  9
$PUCSNAME
  2

  9
$PUCSORG
 10
0.0
 20
0.0
 30
0.0
  9
$PUCSXDIR
 10
1.0
 20
0.0
 30
0.0
  9
$PUCSYDIR
 10
0.0
 20
1.0
 30
0.0
  9
$USERI1
 70
     3
  9
$USERI2
 70
     1
  9
$USERI3
 70
     1
  9
$USERI4
 70
     0
  9
$USERI5
 70
     0
  9
$USERR1
 40
1.0
  9
$USERR2
 40
3.0
  9
$USERR3
 40
3.0
  9
$USERR4
 40
3.0
  9
$USERR5
 40
10.0
  9
$WORLDVIEW
 70
     1
  9
$SHADEDGE
 70
     3
  9
$SHADEDIF
 70
    70
  9
$TILEMODE
 70
     1
  9
$MAXACTVP
 70
    16
  9
$PLIMCHECK
 70
     0
  9
$PEXTMIN
 10
1.0000000000000000E+020
 20
1.0000000000000000E+020
 30
1.0000000000000000E+020
  9
$PEXTMAX
 10
-1.0000000000000000E+020
 20
-1.0000000000000000E+020
 30
-1.0000000000000000E+020
  9
$PLIMMIN
 10
0.0
 20
0.0
  9
$PLIMMAX
 10
12.0
 20
9.0
  9
$UNITMODE
 70
     0
  9
$VISRETAIN
 70
     0
  9
$PLINEGEN
 70
     0
  9
$PSLTSCALE
 70
     0
  0
ENDSEC
  0
SECTION
  2
TABLES
  0
TABLE
  2
VPORT
 70
     1
  0
VPORT
  2
*ACTIVE
 70
     0
 10
0.0
 20
0.0
 11
1.0
 21
1.0
 12
187.4942783906524
 22
149.37525922376949
 13
0.0
 23
0.0
 14
10.0
 24
10.0
 15
10.0
 25
10.0
 16
0.0
 26
0.0
 36
1.0
 17
0.0
 27
0.0
 37
0.0
 40
308.52635987286669
 41
2.304913294797688
 42
50.0
 43
0.0
 44
0.0
 50
0.0
 51
0.0
 71
     0
 72
   100
 73
     1
 74
     0
 75
     0
 76
     0
 77
     0
 78
     0
  0
ENDTAB
  0
TABLE
  2
LTYPE
 70
     4
  0
LTYPE
  2
CONTINUOUS
 70
     0
  3
Solid Line
 72
    65
 73
     0
 40
0.0
  0
LTYPE
  2
CENTER
 70
     0
  3
____ _ ____ _ ____ _ ____ _ ____ _ ____ _ ____
 72
    65
 73
     4
 40
2.0
 49
1.25
 49
-0.25
 49
0.25
 49
-0.25
  0
LTYPE
  2
HIDDEN
 70
     0
  3
__ __ __ __ __ __ __ __ __ __ __ __ __ __ __ __
 72
    65
 73
     2
 40
0.375
 49
0.25
 49
-0.125
  0
LTYPE
  2
PHANTOM2
 70
     0
  3
___ _ _ ___ _ _ ___ _ _ ___ _ _
 72
    65
 73
     6
 40
1.25
 49
0.625
 49
-0.125
 49
0.125
 49
-0.125
 49
0.125
 49
-0.125
  0
ENDTAB
  0
TABLE
  2
LAYER
 70
     4
  0
LAYER
  2
0
 70
     0
 62
     7
  6
CONTINUOUS
  0
LAYER
  2
1
 70
     0
 62
     1
  6
CENTER
  0
LAYER
  2
3
 70
     0
 62
     3
  6
CONTINUOUS
  0
LAYER
  2
2
 70
     0
 62
     2
  6
HIDDEN
  0
ENDTAB
  0
TABLE
  2
STYLE
 70
     2
  0
STYLE
  2
STANDARD
 70
     0
 40
0.0
 41
1.0
 50
0.0
 71
     0
 42
0.2
  3
SIMPLEX
  4
BIGFONT
  0
STYLE
  2
STANDARD1
 70
     0
 40
0.0
 41
1.0
 50
0.0
 71
     0
 42
3.0
  3
txt
  4

  0
ENDTAB
  0
TABLE
  2
VIEW
 70
     0
  0
ENDTAB
  0
TABLE
  2
UCS
 70
     0
  0
ENDTAB
  0
TABLE
  2
APPID
 70
     3
  0
APPID
  2
ACAD
 70
     0
  0
APPID
  2
ACAD_MLEADERVER
 70
     0
  0
APPID
  2
ACAD_NAV_VCDISPLAY
 70
     0
  0
ENDTAB
  0
TABLE
  2
DIMSTYLE
 70
     1
  0
DIMSTYLE
  2
STANDARD
 70
     0
  3

  4

  5

  6

  7

 40
1.0
 41
0.18
 42
0.0625
 43
0.38
 44
0.18
 45
0.0
 46
0.0
 47
0.0
 48
0.0
140
0.18
141
0.09
142
0.0
143
25.399999999999999
144
1.0
145
0.0
146
1.0
147
0.09
 71
     0
 72
     0
 73
     1
 74
     1
 75
     0
 76
     0
 77
     0
 78
     0
170
     0
171
     2
172
     0
173
     0
174
     0
175
     0
176
     0
177
     0
178
     0
  0
ENDTAB
  0
ENDSEC
  0
SECTION
  2
BLOCKS
  0
BLOCK
  8
0
  2
$MODEL_SPACE
 70
     0
 10
0.0
 20
0.0
 30
0.0
  3
$MODEL_SPACE
  1

  0
ENDBLK
  5
251
  8
0
  0
BLOCK
 67
     1
  8
0
  2
$PAPER_SPACE
 70
     0
 10
0.0
 20
0.0
 30
0.0
  3
$PAPER_SPACE
  1

  0
ENDBLK
  5
24F
 67
     1
  8
0
  0
ENDSEC
  0
SECTION
  2
ENTITIES
  0
LINE
  5
1A6
  8
0
 10
38.068315122995301
 20
68.57953952334212
 30
0.0
 11
38.068315122995301
 21
75.507690792093328
 31
0.0
  0
LINE
  5
1A7
  8
0
 10
26.068405122995351
 20
75.507690792093328
 30
0.0
 11
26.068405122995351
 21
68.57953952334212
 31
0.0
  0
CIRCLE
  5
1A8
  8
0
 10
32.068360122995287
 20
72.043615157717667
 30
0.0
 40
6.9281512687512423
  0
LINE
  5
1A9
  8
1
 10
32.068360122995287
 20
53.543615157717667
 30
0.0
 11
32.068360122995287
 21
90.543615157717653
 31
0.0
  0
CIRCLE
  5
1AA
  8
0
 10
32.068360122995287
 20
72.043615157717667
 30
0.0
 40
16.0
  0
LINE
  5
1AB
  8
0
 10
89.499999999999972
 20
87.74361515771767
 30
0.0
 11
89.499999999999972
 21
72.043615157717667
 31
0.0
  0
LINE
  5
1AC
  8
0
 10
87.999999999999972
 20
88.04361515771761
 30
0.0
 11
87.999999999999972
 21
72.043615157717667
 31
0.0
1001
ACAD
1000
ASC_BOUNDS
1002
{
1070
    19
1002
}
  0
LINE
  5
1AD
  8
0
 10
98.499999999999972
 20
72.043615157717667
 30
0.0
 11
98.499999999999972
 21
85.263615157717638
 31
0.0
1001
ACAD
1000
ASC_BOUNDS
1002
{
1070
    19
1002
}
  0
LINE
  5
1AE
  8
2
 10
84.549999999999983
 20
65.115412100647333
 30
0.0
 11
84.549999999999983
 21
78.971818214788001
 31
0.0
  0
ARC
  5
1AF
  8
2
 10
85.112310614394261
 20
72.043615157717667
 30
0.0
 40
10.39230458560564
 50
340.52877936550942
 51
19.471220634490649
1001
ACAD
1000
ASC_BOUNDS
1002
{
1070
    19
1002
}
  0
LINE
  5
1B0
  8
0
 10
99.999999999999986
 20
72.043615157717667
 30
0.0
 11
99.999999999999986
 21
84.098615157717674
 31
0.0
1001
ACAD
1000
ASC_BOUNDS
1002
{
1070
    19
1002
}
  0
LINE
  5
1B1
  8
0
 10
83.499999999999972
 20
88.04361515771761
 30
0.0
 11
83.499999999999972
 21
72.043615157717667
 31
0.0
1001
ACAD
1000
ASC_BOUNDS
1002
{
1070
    19
1002
}
  0
LINE
  5
1B3
  8
1
 10
50.568360122995287
 20
72.043615157717667
 30
0.0
 11
13.568360122995291
 21
72.043615157717667
 31
0.0
  0
LINE
  5
1B4
  8
0
 10
26.068405122995351
 20
68.57953952334212
 30
0.0
 11
32.068360122995287
 21
65.115463888966403
 31
0.0
  0
LINE
  5
1B5
  8
0
 10
32.068360122995287
 20
65.115463888966403
 30
0.0
 11
38.068315122995301
 21
68.57953952334212
 31
0.0
  0
LINE
  5
1B6
  8
0
 10
98.499999999999986
 20
25.530704563129341
 30
0.0
 11
98.499999999999986
 21
38.750704563129311
 31
0.0
1001
ACAD
1000
ASC_BOUNDS
1002
{
1070
    19
1002
}
  0
LINE
  5
1B7
  8
0
 10
100.0
 20
25.530704563129341
 30
0.0
 11
100.0
 21
37.58570456312934
 31
0.0
1001
ACAD
1000
ASC_BOUNDS
1002
{
1070
    19
1002
}
  0
ARC
  5
1B8
  8
2
 10
85.112310614394275
 20
25.530704563129341
 30
0.0
 40
10.39230458560564
 50
340.52877936550942
 51
19.471220634490649
1001
ACAD
1000
ASC_BOUNDS
1002
{
1070
    19
1002
}
  0
LINE
  5
1B9
  8
0
 10
83.499999999999986
 20
41.53070456312927
 30
0.0
 11
83.499999999999986
 21
25.530704563129341
 31
0.0
1001
ACAD
1000
ASC_BOUNDS
1002
{
1070
    19
1002
}
  0
LINE
  5
1BA
  8
0
 10
87.999999999999986
 20
41.53070456312927
 30
0.0
 11
87.999999999999986
 21
25.530704563129341
 31
0.0
1001
ACAD
1000
ASC_BOUNDS
1002
{
1070
    19
1002
}
  0
LINE
  5
1BB
  8
0
 10
89.499999999999986
 20
41.230704563129329
 30
0.0
 11
89.499999999999986
 21
25.530704563129341
 31
0.0
  0
LINE
  5
1BC
  8
2
 10
84.549999999999997
 20
18.602501506058999
 30
0.0
 11
84.549999999999997
 21
32.458907620199668
 31
0.0
  0
LINE
  5
1BD
  8
2
 10
94.910269340578054
 20
22.066603034594142
 30
0.0
 11
84.549999999999997
 21
22.066603034594021
 31
0.0
  0
LINE
  5
1BE
  8
2
 10
94.910269340578054
 20
18.602501506058999
 30
0.0
 11
84.549999999999997
 21
18.602501506058999
 31
0.0
1001
ACAD
1000
ASC_BOUNDS
1002
{
1070
    19
1002
}
  0
LINE
  5
1BF
  8
3
 10
89.499999999999986
 20
13.47570456312932
 30
0.0
 11
98.499999999999986
 21
13.47570456312932
 31
0.0
  0
LINE
  5
1C0
  8
0
 10
98.499999999999986
 20
12.310704563129301
 30
0.0
 11
89.499999999999986
 21
12.310704563129351
 31
0.0
1001
ACAD
1000
ASC_BOUNDS
1002
{
1070
    19
1002
}
  0
LINE
  5
1C1
  8
1
 10
102.5
 20
25.530704563129351
 30
0.0
 11
80.999999999999986
 21
25.530704563129341
 31
0.0
  0
LINE
  5
1C2
  8
0
 10
87.999999999999986
 20
9.5307045631293903
 30
0.0
 11
87.999999999999986
 21
25.530704563129341
 31
0.0
1001
ACAD
1000
ASC_BOUNDS
1002
{
1070
    19
1002
}
  0
LINE
  5
1C3
  8
0
 10
89.499999999999986
 20
9.8307045631293306
 30
0.0
 11
89.499999999999986
 21
25.530704563129341
 31
0.0
  0
LINE
  5
1C4
  8
0
 10
83.499999999999986
 20
9.5307045631293903
 30
0.0
 11
83.499999999999986
 21
25.530704563129341
 31
0.0
1001
ACAD
1000
ASC_BOUNDS
1002
{
1070
    19
1002
}
  0
LINE
  5
1C5
  8
0
 10
87.999999999999986
 20
9.5307045631293903
 30
0.0
 11
83.499999999999986
 21
9.5307045631293903
 31
0.0
1001
ACAD
1000
ASC_BOUNDS
1002
{
1070
    19
1002
}
  0
LINE
  5
1C6
  8
0
 10
87.999999999999986
 20
9.8307045631293306
 30
0.0
 11
89.499999999999986
 21
9.8307045631293306
 31
0.0
  0
LINE
  5
1C7
  8
2
 10
84.549999999999997
 20
18.602501506058999
 30
0.0
 11
83.499999999999986
 21
17.552501506058992
 31
0.0
1001
ACAD
1000
ASC_BOUNDS
1002
{
1070
    19
1002
}
  0
LINE
  5
1C8
  8
0
 10
100.0
 20
25.530704563129341
 30
0.0
 11
100.0
 21
13.47570456312932
 31
0.0
1001
ACAD
1000
ASC_BOUNDS
1002
{
1070
    19
1002
}
  0
LINE
  5
1C9
  8
0
 10
98.499999999999986
 20
25.530704563129341
 30
0.0
 11
98.499999999999986
 21
12.310704563129301
 31
0.0
1001
ACAD
1000
ASC_BOUNDS
1002
{
1070
    19
1002
}
  0
LINE
  5
1CA
  8
0
 10
98.499999999999986
 20
13.47570456312932
 30
0.0
 11
100.0
 21
13.47570456312932
 31
0.0
1001
ACAD
1000
ASC_BOUNDS
1002
{
1070
    19
1002
}
  0
ARC
  5
1CB
  8
2
 10
92.683659356315275
 20
20.334552270326569
 30
0.0
 40
2.8209558436846289
 50
322.12112050828131
 51
37.878879491718678
1001
ACAD
1000
ASC_BOUNDS
1002
{
1070
    19
1002
}
  0
LINE
  5
1CC
  8
2
 10
94.910269340578054
 20
28.994806091664529
 30
0.0
 11
84.549999999999997
 21
28.994806091664529
 31
0.0
  0
LINE
  5
1CD
  8
2
 10
94.910269340578054
 20
32.458907620199668
 30
0.0
 11
84.549999999999997
 21
32.458907620199668
 31
0.0
1001
ACAD
1000
ASC_BOUNDS
1002
{
1070
    19
1002
}
  0
LINE
  5
1CE
  8
3
 10
89.499999999999986
 20
37.58570456312934
 30
0.0
 11
98.499999999999986
 21
37.58570456312934
 31
0.0
  0
LINE
  5
1CF
  8
0
 10
98.499999999999986
 20
38.750704563129311
 30
0.0
 11
89.499999999999986
 21
38.750704563129311
 31
0.0
1001
ACAD
1000
ASC_BOUNDS
1002
{
1070
    19
1002
}
  0
LINE
  5
1D0
  8
0
 10
98.499999999999972
 20
58.82361515771764
 30
0.0
 11
89.499999999999972
 21
58.82361515771769
 31
0.0
1001
ACAD
1000
ASC_BOUNDS
1002
{
1070
    19
1002
}
  0
LINE
  5
1D1
  8
3
 10
89.499999999999972
 20
59.988615157717661
 30
0.0
 11
98.499999999999972
 21
59.988615157717661
 31
0.0
  0
LINE
  5
1D2
  8
1
 10
102.4999999999999
 20
72.043615157717682
 30
0.0
 11
80.999999999999972
 21
72.043615157717667
 31
0.0
  0
LINE
  5
1D3
  8
2
 10
94.910269340578026
 20
68.579513629182472
 30
0.0
 11
84.549999999999983
 21
68.579513629182344
 31
0.0
  0
LINE
  5
1D4
  8
2
 10
94.910269340578026
 20
65.115412100647333
 30
0.0
 11
84.549999999999983
 21
65.115412100647333
 31
0.0
1001
ACAD
1000
ASC_BOUNDS
1002
{
1070
    19
1002
}
  0
LINE
  5
1D5
  8
2
 10
84.549999999999997
 20
32.458907620199668
 30
0.0
 11
83.499999999999986
 21
33.508907620199743
 31
0.0
1001
ACAD
1000
ASC_BOUNDS
1002
{
1070
    19
1002
}
  0
LINE
  5
1D6
  8
0
 10
87.999999999999986
 20
41.53070456312927
 30
0.0
 11
83.499999999999986
 21
41.53070456312927
 31
0.0
1001
ACAD
1000
ASC_BOUNDS
1002
{
1070
    19
1002
}
  0
LINE
  5
1D7
  8
0
 10
87.999999999999986
 20
41.230704563129329
 30
0.0
 11
89.499999999999986
 21
41.230704563129329
 31
0.0
  0
LINE
  5
1D8
  8
0
 10
89.499999999999972
 20
56.343615157717657
 30
0.0
 11
89.499999999999972
 21
72.043615157717667
 31
0.0
  0
LINE
  5
1D9
  8
0
 10
83.499999999999972
 20
56.043615157717717
 30
0.0
 11
83.499999999999972
 21
72.043615157717667
 31
0.0
1001
ACAD
1000
ASC_BOUNDS
1002
{
1070
    19
1002
}
  0
LINE
  5
1DA
  8
0
 10
87.999999999999972
 20
56.043615157717717
 30
0.0
 11
87.999999999999972
 21
72.043615157717667
 31
0.0
1001
ACAD
1000
ASC_BOUNDS
1002
{
1070
    19
1002
}
  0
LINE
  5
1DB
  8
0
 10
87.999999999999972
 20
56.043615157717717
 30
0.0
 11
83.499999999999972
 21
56.043615157717717
 31
0.0
1001
ACAD
1000
ASC_BOUNDS
1002
{
1070
    19
1002
}
  0
LINE
  5
1DC
  8
0
 10
87.999999999999972
 20
56.343615157717657
 30
0.0
 11
89.499999999999972
 21
56.343615157717657
 31
0.0
  0
LINE
  5
1DD
  8
2
 10
84.549999999999983
 20
65.115412100647333
 30
0.0
 11
83.499999999999972
 21
64.065412100647322
 31
0.0
1001
ACAD
1000
ASC_BOUNDS
1002
{
1070
    19
1002
}
  0
ARC
  5
1DE
  8
2
 10
92.683659356315275
 20
30.726856855932098
 30
0.0
 40
2.8209558436846289
 50
322.12112050828131
 51
37.878879491718678
1001
ACAD
1000
ASC_BOUNDS
1002
{
1070
    19
1002
}
  0
LINE
  5
1DF
  8
0
 10
98.499999999999986
 20
37.58570456312934
 30
0.0
 11
100.0
 21
37.58570456312934
 31
0.0
1001
ACAD
1000
ASC_BOUNDS
1002
{
1070
    19
1002
}
  0
LINE
  5
1E0
  8
0
 10
98.499999999999972
 20
72.043615157717667
 30
0.0
 11
98.499999999999972
 21
58.82361515771764
 31
0.0
1001
ACAD
1000
ASC_BOUNDS
1002
{
1070
    19
1002
}
  0
LINE
  5
1E1
  8
0
 10
99.999999999999986
 20
72.043615157717667
 30
0.0
 11
99.999999999999986
 21
59.988615157717661
 31
0.0
1001
ACAD
1000
ASC_BOUNDS
1002
{
1070
    19
1002
}
  0
LINE
  5
1E2
  8
0
 10
98.499999999999972
 20
59.988615157717661
 30
0.0
 11
99.999999999999986
 21
59.988615157717661
 31
0.0
1001
ACAD
1000
ASC_BOUNDS
1002
{
1070
    19
1002
}
  0
ARC
  5
1E3
  8
2
 10
92.683659356315246
 20
66.847462864914903
 30
0.0
 40
2.8209558436846289
 50
322.12112050828131
 51
37.878879491718678
1001
ACAD
1000
ASC_BOUNDS
1002
{
1070
    19
1002
}
  0
LINE
  5
1E4
  8
0
 10
32.068360122995287
 20
78.971766426468932
 30
0.0
 11
26.068405122995351
 21
75.507690792093328
 31
0.0
  0
LINE
  5
1E5
  8
0
 10
38.068315122995301
 20
75.507690792093328
 30
0.0
 11
32.068360122995287
 21
78.971766426468932
 31
0.0
  0
ARC
  5
1E6
  8
2
 10
92.683659356315232
 20
122.6153460645652
 30
0.0
 40
2.8209558436846289
 50
322.12112050828131
 51
37.878879491718678
1001
ACAD
1000
ASC_BOUNDS
1002
{
1070
    19
1002
}
  0
LINE
  5
1E7
  8
0
 10
98.499999999999957
 20
117.41919377176239
 30
0.0
 11
98.499999999999957
 21
130.63919377176239
 31
0.0
1001
ACAD
1000
ASC_BOUNDS
1002
{
1070
    19
1002
}
  0
LINE
  5
1E8
  8
0
 10
99.999999999999957
 20
117.41919377176239
 30
0.0
 11
99.999999999999957
 21
129.4741937717624
 31
0.0
1001
ACAD
1000
ASC_BOUNDS
1002
{
1070
    19
1002
}
  0
LINE
  5
1E9
  8
0
 10
83.499999999999957
 20
133.41919377176231
 30
0.0
 11
83.499999999999957
 21
117.41919377176239
 31
0.0
1001
ACAD
1000
ASC_BOUNDS
1002
{
1070
    19
1002
}
  0
LINE
  5
1EA
  8
0
 10
87.999999999999943
 20
133.41919377176231
 30
0.0
 11
87.999999999999943
 21
117.41919377176239
 31
0.0
1001
ACAD
1000
ASC_BOUNDS
1002
{
1070
    19
1002
}
  0
LINE
  5
1EB
  8
0
 10
89.499999999999943
 20
133.11919377176241
 30
0.0
 11
89.499999999999943
 21
117.41919377176239
 31
0.0
  0
LINE
  5
1EC
  8
2
 10
84.549999999999955
 20
110.4909907146921
 30
0.0
 11
84.549999999999955
 21
124.3473968288327
 31
0.0
  0
LINE
  5
1ED
  8
2
 10
94.910269340578012
 20
113.9550922432272
 30
0.0
 11
84.549999999999955
 21
113.9550922432271
 31
0.0
  0
LINE
  5
1EE
  8
2
 10
94.910269340578012
 20
110.4909907146921
 30
0.0
 11
84.549999999999955
 21
110.4909907146921
 31
0.0
1001
ACAD
1000
ASC_BOUNDS
1002
{
1070
    19
1002
}
  0
LINE
  5
1EF
  8
3
 10
89.499999999999943
 20
105.3641937717624
 30
0.0
 11
98.499999999999957
 21
105.3641937717624
 31
0.0
  0
LINE
  5
1F0
  8
0
 10
98.499999999999957
 20
104.1991937717624
 30
0.0
 11
89.499999999999943
 21
104.1991937717624
 31
0.0
1001
ACAD
1000
ASC_BOUNDS
1002
{
1070
    19
1002
}
  0
LINE
  5
1F1
  8
1
 10
102.4999999999999
 20
117.41919377176239
 30
0.0
 11
80.999999999999957
 21
117.41919377176239
 31
0.0
  0
LINE
  5
1F2
  8
2
 10
94.910269340578012
 20
120.8832953002976
 30
0.0
 11
84.549999999999955
 21
120.8832953002976
 31
0.0
  0
LINE
  5
1F3
  8
0
 10
98.499999999999972
 20
85.263615157717638
 30
0.0
 11
89.499999999999972
 21
85.263615157717638
 31
0.0
1001
ACAD
1000
ASC_BOUNDS
1002
{
1070
    19
1002
}
  0
LINE
  5
1F4
  8
3
 10
89.499999999999972
 20
84.098615157717674
 30
0.0
 11
98.499999999999972
 21
84.098615157717674
 31
0.0
  0
LINE
  5
1F5
  8
2
 10
94.910269340578026
 20
75.507716686252863
 30
0.0
 11
84.549999999999983
 21
75.507716686252863
 31
0.0
  0
LINE
  5
1F6
  8
2
 10
94.910269340578026
 20
78.971818214788001
 30
0.0
 11
84.549999999999983
 21
78.971818214788001
 31
0.0
1001
ACAD
1000
ASC_BOUNDS
1002
{
1070
    19
1002
}
  0
LINE
  5
1F7
  8
2
 10
84.549999999999983
 20
78.971818214788001
 30
0.0
 11
83.499999999999972
 21
80.021818214788055
 31
0.0
1001
ACAD
1000
ASC_BOUNDS
1002
{
1070
    19
1002
}
  0
LINE
  5
1F8
  8
0
 10
87.999999999999972
 20
88.04361515771761
 30
0.0
 11
83.499999999999972
 21
88.04361515771761
 31
0.0
1001
ACAD
1000
ASC_BOUNDS
1002
{
1070
    19
1002
}
  0
LINE
  5
1F9
  8
0
 10
87.999999999999972
 20
87.74361515771767
 30
0.0
 11
89.499999999999972
 21
87.74361515771767
 31
0.0
  0
LINE
  5
1FA
  8
2
 10
84.549999999999955
 20
110.4909907146921
 30
0.0
 11
83.499999999999957
 21
109.44099071469211
 31
0.0
1001
ACAD
1000
ASC_BOUNDS
1002
{
1070
    19
1002
}
  0
LINE
  5
1FB
  8
0
 10
87.999999999999943
 20
101.41919377176239
 30
0.0
 11
87.999999999999943
 21
117.41919377176239
 31
0.0
1001
ACAD
1000
ASC_BOUNDS
1002
{
1070
    19
1002
}
  0
LINE
  5
1FC
  8
0
 10
89.499999999999943
 20
101.71919377176241
 30
0.0
 11
89.499999999999943
 21
117.41919377176239
 31
0.0
  0
LINE
  5
1FD
  8
0
 10
83.499999999999957
 20
101.41919377176239
 30
0.0
 11
83.499999999999957
 21
117.41919377176239
 31
0.0
1001
ACAD
1000
ASC_BOUNDS
1002
{
1070
    19
1002
}
  0
LINE
  5
1FE
  8
0
 10
87.999999999999943
 20
101.41919377176239
 30
0.0
 11
83.499999999999957
 21
101.41919377176239
 31
0.0
1001
ACAD
1000
ASC_BOUNDS
1002
{
1070
    19
1002
}
  0
LINE
  5
1FF
  8
0
 10
87.999999999999943
 20
101.71919377176241
 30
0.0
 11
89.499999999999943
 21
101.71919377176241
 31
0.0
  0
ARC
  5
200
  8
2
 10
92.683659356315246
 20
77.239767450520432
 30
0.0
 40
2.8209558436846289
 50
322.12112050828131
 51
37.878879491718678
1001
ACAD
1000
ASC_BOUNDS
1002
{
1070
    19
1002
}
  0
LINE
  5
201
  8
0
 10
98.499999999999972
 20
84.098615157717674
 30
0.0
 11
99.999999999999986
 21
84.098615157717674
 31
0.0
1001
ACAD
1000
ASC_BOUNDS
1002
{
1070
    19
1002
}
  0
LINE
  5
202
  8
0
 10
99.999999999999957
 20
117.41919377176239
 30
0.0
 11
99.999999999999957
 21
105.3641937717624
 31
0.0
1001
ACAD
1000
ASC_BOUNDS
1002
{
1070
    19
1002
}
  0
LINE
  5
203
  8
0
 10
98.499999999999957
 20
117.41919377176239
 30
0.0
 11
98.499999999999957
 21
104.1991937717624
 31
0.0
1001
ACAD
1000
ASC_BOUNDS
1002
{
1070
    19
1002
}
  0
LINE
  5
204
  8
0
 10
98.499999999999957
 20
105.3641937717624
 30
0.0
 11
99.999999999999957
 21
105.3641937717624
 31
0.0
1001
ACAD
1000
ASC_BOUNDS
1002
{
1070
    19
1002
}
  0
ARC
  5
205
  8
2
 10
85.112310614394246
 20
117.41919377176239
 30
0.0
 40
10.39230458560564
 50
340.52877936550942
 51
19.471220634490649
1001
ACAD
1000
ASC_BOUNDS
1002
{
1070
    19
1002
}
  0
ARC
  5
206
  8
2
 10
92.683659356315232
 20
112.2230414789596
 30
0.0
 40
2.8209558436846289
 50
322.12112050828131
 51
37.878879491718678
1001
ACAD
1000
ASC_BOUNDS
1002
{
1070
    19
1002
}
  0
LINE
  5
207
  8
2
 10
94.910269340578012
 20
124.3473968288327
 30
0.0
 11
84.549999999999955
 21
124.3473968288327
 31
0.0
1001
ACAD
1000
ASC_BOUNDS
1002
{
1070
    19
1002
}
  0
LINE
  5
208
  8
3
 10
89.499999999999943
 20
129.4741937717624
 30
0.0
 11
98.499999999999957
 21
129.4741937717624
 31
0.0
  0
LINE
  5
209
  8
0
 10
98.499999999999957
 20
130.63919377176239
 30
0.0
 11
89.499999999999943
 21
130.63919377176239
 31
0.0
1001
ACAD
1000
ASC_BOUNDS
1002
{
1070
    19
1002
}
  0
LINE
  5
20A
  8
2
 10
84.549999999999955
 20
124.3473968288327
 30
0.0
 11
83.499999999999957
 21
125.3973968288328
 31
0.0
1001
ACAD
1000
ASC_BOUNDS
1002
{
1070
    19
1002
}
  0
LINE
  5
20B
  8
0
 10
87.999999999999943
 20
133.41919377176231
 30
0.0
 11
83.499999999999957
 21
133.41919377176231
 31
0.0
1001
ACAD
1000
ASC_BOUNDS
1002
{
1070
    19
1002
}
  0
LINE
  5
20C
  8
0
 10
87.999999999999943
 20
133.11919377176241
 30
0.0
 11
89.499999999999943
 21
133.11919377176241
 31
0.0
  0
LINE
  5
20D
  8
0
 10
98.499999999999957
 20
129.4741937717624
 30
0.0
 11
99.999999999999957
 21
129.4741937717624
 31
0.0
1001
ACAD
1000
ASC_BOUNDS
1002
{
1070
    19
1002
}
  0
CIRCLE
  5
20E
  8
0
 10
151.2553067011128
 20
72.043615107913638
 30
0.0
 40
16.000000049803969
  0
CIRCLE
  5
20F
  8
0
 10
151.2553067011128
 20
72.043615107913638
 30
0.0
 40
15.70000004980403
  0
CIRCLE
  5
210
  8
0
 10
151.2553067011209
 20
72.043615107908877
 30
0.0
 40
8.4114755314712966
  0
CIRCLE
  5
211
  8
0
 10
151.2553067011209
 20
72.043615107908877
 30
0.0
 40
9.25
  0
CIRCLE
  5
212
  8
0
 10
151.2553067011209
 20
72.043615107908877
 30
0.0
 40
13.220499999999999
  0
CIRCLE
  5
213
  8
3
 10
151.2553067011209
 20
72.043615107908877
 30
0.0
 40
12.0585
  0
LINE
  5
214
  8
1
 10
151.25530670111269
 20
90.54361515771761
 30
0.0
 11
151.2553067011128
 21
53.543615058109673
 31
0.0
  0
LINE
  5
221
  8
1
 10
169.75530675091679
 20
72.043615099220034
 30
0.0
 11
132.75530665130881
 21
72.043615116607228
 31
0.0
  0
TEXT
  5
331
  8
0
 62
     3
 10
0.0
 20
0.0
 30
0.0
 40
10.0
  1
POSH-3/4
  7
STANDARD1
  0
ENDSEC
  0
EOF
