  0
SECTION
  2
HEADER
  9
$ACADVER
  1
AC1009
  9
$INSBASE
 10
0.0
 20
0.0
 30
0.0
  9
$EXTMIN
 10
0.0
 20
-2.960436562073669
 30
0.0
  9
$EXTMAX
 10
182.53128066507881
 20
127.54963808447771
 30
0.0
  9
$LIMMIN
 10
0.0
 20
0.0
  9
$LIMMAX
 10
375.0
 20
270.0
  9
$ORTHOMODE
 70
     0
  9
$REGENMODE
 70
     1
  9
$FILLMODE
 70
     1
  9
$QTEXTMODE
 70
     0
  9
$MIRRTEXT
 70
     0
  9
$DRAGMODE
 70
     2
  9
$LTSCALE
 40
10.0
  9
$OSMODE
 70
  3071
  9
$ATTMODE
 70
     1
  9
$TEXTSIZE
 40
2.0
  9
$TRACEWID
 40
0.05
  9
$TEXTSTYLE
  7
STANDARD
  9
$CLAYER
  8
0
  9
$CELTYPE
  6
BYLAYER
  9
$CECOLOR
 62
   256
  9
$DIMSCALE
 40
1.0
  9
$DIMASZ
 40
2.5
  9
$DIMEXO
 40
2.0
  9
$DIMDLI
 40
0.38
  9
$DIMRND
 40
0.0
  9
$DIMDLE
 40
0.0
  9
$DIMEXE
 40
2.0
  9
$DIMTP
 40
0.0
  9
$DIMTM
 40
0.0
  9
$DIMTXT
 40
3.0
  9
$DIMCEN
 40
0.09
  9
$DIMTSZ
 40
0.0
  9
$DIMTOL
 70
     0
  9
$DIMLIM
 70
     0
  9
$DIMTIH
 70
     0
  9
$DIMTOH
 70
     0
  9
$DIMSE1
 70
     0
  9
$DIMSE2
 70
     0
  9
$DIMTAD
 70
     1
  9
$DIMZIN
 70
     0
  9
$DIMBLK
  1

  9
$DIMASO
 70
     1
  9
$DIMSHO
 70
     0
  9
$DIMPOST
  1

  9
$DIMAPOST
  1

  9
$DIMALT
 70
     0
  9
$DIMALTD
 70
     2
  9
$DIMALTF
 40
25.399999999999999
  9
$DIMLFAC
 40
1.0
  9
$DIMTOFL
 70
     0
  9
$DIMTVP
 40
1.6000000000000001
  9
$DIMTIX
 70
     1
  9
$DIMSOXD
 70
     0
  9
$DIMSAH
 70
     0
  9
$DIMBLK1
  1

  9
$DIMBLK2
  1

  9
$DIMSTYLE
  2
STANDARD
  9
$DIMCLRD
 70
     0
  9
$DIMCLRE
 70
     0
  9
$DIMCLRT
 70
     0
  9
$DIMTFAC
 40
1.0
  9
$DIMGAP
 40
0.09
  9
$LUNITS
 70
     2
  9
$LUPREC
 70
     4
  9
$SKETCHINC
 40
0.1
  9
$FILLETRAD
 40
2.5
  9
$AUNITS
 70
     0
  9
$AUPREC
 70
     0
  9
$MENU
  1
E:\r13\win\SUPPORT\ACAD
  9
$ELEVATION
 40
0.0
  9
$PELEVATION
 40
0.0
  9
$THICKNESS
 40
0.0
  9
$LIMCHECK
 70
     0
  9
$BLIPMODE
 70
     0
  9
$CHAMFERA
 40
0.0
  9
$CHAMFERB
 40
0.0
  9
$SKPOLY
 70
     0
  9
$TDCREATE
 40
2448650.5678784722
  9
$TDUPDATE
 40
2456597.72808235
  9
$TDINDWG
 40
0.025330081
  9
$TDUSRTIMER
 40
0.025330081
  9
$USRTIMER
 70
     1
  9
$ANGBASE
 50
0.0
  9
$ANGDIR
 70
     0
  9
$PDMODE
 70
     0
  9
$PDSIZE
 40
0.0
  9
$PLINEWID
 40
0.0
  9
$COORDS
 70
     1
  9
$SPLFRAME
 70
     0
  9
$SPLINETYPE
 70
     6
  9
$SPLINESEGS
 70
     8
  9
$ATTDIA
 70
     0
  9
$ATTREQ
 70
     1
  9
$HANDLING
 70
     1
  9
$HANDSEED
  5
183F
  9
$SURFTAB1
 70
     6
  9
$SURFTAB2
 70
     6
  9
$SURFTYPE
 70
     6
  9
$SURFU
 70
     6
  9
$SURFV
 70
     6
  9
$UCSNAME
  2

  9
$UCSORG
 10
0.0
 20
0.0
 30
0.0
  9
$UCSXDIR
 10
1.0
 20
0.0
 30
0.0
  9
$UCSYDIR
 10
0.0
 20
1.0
 30
0.0
  9
$PUCSNAME
  2

  9
$PUCSORG
 10
0.0
 20
0.0
 30
0.0
  9
$PUCSXDIR
 10
1.0
 20
0.0
 30
0.0
  9
$PUCSYDIR
 10
0.0
 20
1.0
 30
0.0
  9
$USERI1
 70
     0
  9
$USERI2
 70
     1
  9
$USERI3
 70
     1
  9
$USERI4
 70
     0
  9
$USERI5
 70
     0
  9
$USERR1
 40
0.0
  9
$USERR2
 40
0.0
  9
$USERR3
 40
0.0
  9
$USERR4
 40
0.0
  9
$USERR5
 40
0.0
  9
$WORLDVIEW
 70
     1
  9
$SHADEDGE
 70
     3
  9
$SHADEDIF
 70
    70
  9
$TILEMODE
 70
     1
  9
$MAXACTVP
 70
    16
  9
$PLIMCHECK
 70
     0
  9
$PEXTMIN
 10
1.0000000000000000E+020
 20
1.0000000000000000E+020
 30
1.0000000000000000E+020
  9
$PEXTMAX
 10
-1.0000000000000000E+020
 20
-1.0000000000000000E+020
 30
-1.0000000000000000E+020
  9
$PLIMMIN
 10
0.0
 20
0.0
  9
$PLIMMAX
 10
12.0
 20
9.0
  9
$UNITMODE
 70
     0
  9
$VISRETAIN
 70
     0
  9
$PLINEGEN
 70
     1
  9
$PSLTSCALE
 70
     0
  0
ENDSEC
  0
SECTION
  2
TABLES
  0
TABLE
  2
VPORT
 70
     1
  0
VPORT
  2
*ACTIVE
 70
     0
 10
0.0
 20
0.0
 11
1.0
 21
1.0
 12
187.4942783906524
 22
149.37525922376949
 13
0.0
 23
0.0
 14
10.0
 24
10.0
 15
10.0
 25
10.0
 16
0.0
 26
0.0
 36
1.0
 17
0.0
 27
0.0
 37
0.0
 40
308.52635987286669
 41
2.304913294797688
 42
50.0
 43
0.0
 44
0.0
 50
0.0
 51
0.0
 71
     0
 72
   500
 73
     1
 74
     0
 75
     0
 76
     0
 77
     0
 78
     2
  0
ENDTAB
  0
TABLE
  2
LTYPE
 70
     3
  0
LTYPE
  2
CONTINUOUS
 70
     0
  3
Solid Line
 72
    65
 73
     0
 40
0.0
  0
LTYPE
  2
CENTER
 70
     0
  3
____ _ ____ _ ____ _ ____ _ ____ _ ____ _ ____
 72
    65
 73
     4
 40
2.0
 49
1.25
 49
-0.25
 49
0.25
 49
-0.25
  0
LTYPE
  2
PHANTOM2
 70
     0
  3
___ _ _ ___ _ _ ___ _ _ ___ _ _
 72
    65
 73
     6
 40
1.25
 49
0.625
 49
-0.125
 49
0.125
 49
-0.125
 49
0.125
 49
-0.125
  0
ENDTAB
  0
TABLE
  2
LAYER
 70
     3
  0
LAYER
  2
0
 70
     0
 62
     7
  6
CONTINUOUS
  0
LAYER
  2
1
 70
     0
 62
     1
  6
CENTER
  0
LAYER
  2
3
 70
     0
 62
     3
  6
CONTINUOUS
  0
ENDTAB
  0
TABLE
  2
STYLE
 70
     2
  0
STYLE
  2
STANDARD
 70
     0
 40
0.0
 41
1.0
 50
0.0
 71
     0
 42
2.0
  3
TXT
  4
BIGFONT
  0
STYLE
  2
STANDARD1
 70
     0
 40
0.0
 41
1.0
 50
0.0
 71
     0
 42
3.0
  3
txt
  4

  0
ENDTAB
  0
TABLE
  2
VIEW
 70
     1
  0
VIEW
  2
ALL
 70
     0
 40
270.0
 10
220.99159663865549
 20
135.0
 41
0.0
 11
0.0
 21
0.0
 31
1.0
 12
0.0
 22
0.0
 32
0.0
 42
0.0
 43
0.0
 44
0.0
 50
0.0
 71
     0
  0
ENDTAB
  0
TABLE
  2
UCS
 70
     0
  0
ENDTAB
  0
TABLE
  2
APPID
 70
     3
  0
APPID
  2
ACAD
 70
     0
  0
APPID
  2
ACAD_MLEADERVER
 70
     0
  0
APPID
  2
ACAD_NAV_VCDISPLAY
 70
     0
  0
ENDTAB
  0
TABLE
  2
DIMSTYLE
 70
     1
  0
DIMSTYLE
  2
STANDARD
 70
     0
  3

  4

  5

  6

  7

 40
1.0
 41
0.18
 42
0.0625
 43
0.38
 44
0.18
 45
0.0
 46
0.0
 47
0.0
 48
0.0
140
0.18
141
0.09
142
0.0
143
25.399999999999999
144
1.0
145
0.0
146
1.0
147
0.09
 71
     0
 72
     0
 73
     1
 74
     1
 75
     0
 76
     0
 77
     0
 78
     0
170
     0
171
     2
172
     0
173
     0
174
     0
175
     0
176
     0
177
     0
178
     0
  0
ENDTAB
  0
ENDSEC
  0
SECTION
  2
BLOCKS
  0
BLOCK
  8
0
  2
$MODEL_SPACE
 70
     0
 10
0.0
 20
0.0
 30
0.0
  3
$MODEL_SPACE
  1

  0
ENDBLK
  5
217
  8
0
  0
BLOCK
 67
     1
  8
0
  2
$PAPER_SPACE
 70
     0
 10
0.0
 20
0.0
 30
0.0
  3
$PAPER_SPACE
  1

  0
ENDBLK
  5
215
 67
     1
  8
0
  0
ENDSEC
  0
SECTION
  2
ENTITIES
  0
CIRCLE
  5
1497
  8
0
 10
164.53128066507881
 20
109.54963808447771
 30
0.0
 40
8.3000000000000007
  0
CIRCLE
  5
1498
  8
0
 10
164.53128066507881
 20
109.54963808447771
 30
0.0
 40
10.477499999999949
  0
CIRCLE
  5
1499
  8
3
 10
164.53128066507881
 20
109.54963808447771
 30
0.0
 40
9.3154999999999148
  0
CIRCLE
  5
149A
  8
0
 10
164.53128066507881
 20
109.54963808447771
 30
0.0
 40
7.0
  0
LINE
  5
149B
  8
1
 10
164.53128066507881
 20
127.54963808447771
 30
0.0
 11
164.53128066507881
 21
91.549638084477735
 31
0.0
  0
LINE
  5
149C
  8
1
 10
146.53128066507881
 20
109.54963808447771
 30
0.0
 11
182.53128066507881
 21
109.54963808447771
 31
0.0
  0
CIRCLE
  5
149D
  8
0
 10
164.53128066507881
 20
109.54963808447771
 30
0.0
 40
13.0
  0
LINE
  5
149E
  8
3
 10
164.53128066507881
 20
116.54963808447771
 30
0.0
 11
164.53128066507881
 21
102.54963808447771
 31
0.0
  0
LINE
  5
149F
  8
3
 10
157.53128066507881
 20
109.54963808447771
 30
0.0
 11
170.03128066507881
 21
109.54963808447771
 31
0.0
  0
LINE
  5
14A0
  8
3
 10
168.90828772257879
 20
104.0868723729909
 30
0.0
 11
168.90828772257879
 21
115.0124037959644
 31
0.0
  0
LINE
  5
14A1
  8
3
 10
171.1594297094808
 20
111.80078007137971
 30
0.0
 11
162.2801386781768
 21
102.9214890400757
 31
0.0
  0
LINE
  5
14A2
  8
3
 10
171.44744101257169
 20
110.62978902197059
 30
0.0
 11
163.45112972758599
 21
102.6334777369848
 31
0.0
  0
LINE
  5
14A3
  8
3
 10
161.61327596007891
 20
103.186836143383
 30
0.0
 11
161.61327596007891
 21
115.91244002557229
 31
0.0
  0
LINE
  5
14A4
  8
3
 10
167.44928537007891
 20
103.186836143383
 30
0.0
 11
167.44928537007891
 21
115.91244002557229
 31
0.0
  0
LINE
  5
14A5
  8
3
 10
164.83278881078769
 20
102.5561344676865
 30
0.0
 11
171.5247842818701
 21
109.2481299387689
 31
0.0
  0
LINE
  5
14A6
  8
3
 10
160.1542736075788
 20
104.0868723729909
 30
0.0
 11
160.1542736075788
 21
115.0124037959643
 31
0.0
  0
LINE
  5
14A7
  8
3
 10
159.06851495359211
 20
113.9266451419777
 30
0.0
 11
169.99404637656559
 21
113.9266451419777
 31
0.0
  0
LINE
  5
14A8
  8
3
 10
158.16847872398421
 20
112.46764278947769
 30
0.0
 11
170.89408260617341
 21
112.46764278947759
 31
0.0
  0
LINE
  5
14A9
  8
3
 10
157.6850180251125
 20
111.0086404369777
 30
0.0
 11
171.37754330504521
 21
111.0086404369776
 31
0.0
  0
LINE
  5
14AA
  8
3
 10
157.53128066507881
 20
109.54963808447771
 30
0.0
 11
171.53128066507881
 21
109.54963808447771
 31
0.0
  0
LINE
  5
14AB
  8
3
 10
157.6850180251125
 20
108.0906357319777
 30
0.0
 11
171.37754330504521
 21
108.0906357319777
 31
0.0
  0
LINE
  5
14AC
  8
3
 10
158.16847872398421
 20
106.63163337947771
 30
0.0
 11
170.89408260617361
 21
106.63163337947771
 31
0.0
  0
LINE
  5
14AD
  8
3
 10
159.06851495359211
 20
105.1726310269777
 30
0.0
 11
169.99404637656559
 21
105.1726310269777
 31
0.0
  0
LINE
  5
14AE
  8
3
 10
158.9060846419404
 20
113.7158317551161
 30
0.0
 11
168.69747433571729
 21
103.92444206133931
 31
0.0
  0
LINE
  5
14AF
  8
3
 10
169.48102813338471
 20
104.59989061617181
 30
0.0
 11
159.58153319677311
 21
114.49938555278349
 31
0.0
  0
LINE
  5
14B0
  8
3
 10
160.3650869944405
 20
115.17483410761611
 30
0.0
 11
170.15647668821731
 21
105.3834444138392
 31
0.0
  0
LINE
  5
14B1
  8
3
 10
170.72011516422
 20
106.2788082903366
 30
0.0
 11
161.2604508709378
 21
115.7384725836188
 31
0.0
  0
LINE
  5
14B2
  8
3
 10
167.80211045921999
 20
115.7384725836188
 30
0.0
 11
158.3424461659377
 21
106.2788082903366
 31
0.0
  0
LINE
  5
14B3
  8
3
 10
168.69747433571729
 20
115.17483410761611
 30
0.0
 11
158.9060846419404
 21
105.3834444138393
 31
0.0
  0
LINE
  5
14B4
  8
3
 10
159.58153319677291
 20
104.59989061617181
 30
0.0
 11
169.48102813338471
 21
114.49938555278349
 31
0.0
  0
LINE
  5
14B5
  8
3
 10
170.1564766882172
 20
113.7158317551161
 30
0.0
 11
160.36508699444039
 21
103.92444206133931
 31
0.0
  0
LINE
  5
14B6
  8
3
 10
157.53777704828769
 20
109.2481299387688
 30
0.0
 11
164.22977251936999
 21
102.5561344676865
 31
0.0
  0
LINE
  5
14B7
  8
3
 10
165.61143160257171
 20
102.6334777369848
 30
0.0
 11
157.61512031758591
 21
110.62978902197059
 31
0.0
  0
LINE
  5
14B8
  8
3
 10
157.9031316206769
 20
111.80078007137971
 30
0.0
 11
166.7824226519808
 21
102.9214890400757
 31
0.0
  0
LINE
  5
14B9
  8
3
 10
167.80211045921999
 20
103.3608035853366
 30
0.0
 11
158.3424461659377
 21
112.8204678786188
 31
0.0
  0
LINE
  5
14BA
  8
3
 10
161.26045087093769
 20
103.3608035853366
 30
0.0
 11
170.72011516421989
 21
112.8204678786188
 31
0.0
  0
LINE
  5
14BB
  8
3
 10
164.2297725193699
 20
116.54314170126879
 30
0.0
 11
157.53777704828769
 21
109.8511462301865
 31
0.0
  0
LINE
  5
14BC
  8
3
 10
157.61512031758591
 20
108.4694871469847
 30
0.0
 11
165.61143160257171
 21
116.4657984319706
 31
0.0
  0
LINE
  5
14BD
  8
3
 10
157.90313162067679
 20
107.29849609757569
 30
0.0
 11
166.7824226519808
 21
116.1777871288797
 31
0.0
  0
LINE
  5
14BE
  8
3
 10
163.07227831257879
 20
102.7033754445112
 30
0.0
 11
163.07227831257879
 21
116.395900724444
 31
0.0
  0
LINE
  5
14BF
  8
3
 10
164.53128066507881
 20
102.54963808447771
 30
0.0
 11
164.53128066507881
 21
116.54963808447771
 31
0.0
  0
LINE
  5
14C0
  8
3
 10
165.99028301757889
 20
102.7033754445112
 30
0.0
 11
165.99028301757889
 21
116.395900724444
 31
0.0
  0
LINE
  5
14C1
  8
3
 10
171.5247842818701
 20
109.8511462301865
 30
0.0
 11
164.8327888107876
 21
116.54314170126879
 31
0.0
  0
LINE
  5
14C2
  8
3
 10
162.2801386781768
 20
116.1777871288796
 30
0.0
 11
171.1594297094808
 21
107.29849609757569
 31
0.0
  0
LINE
  5
14C3
  8
3
 10
163.45112972758599
 20
116.4657984319706
 30
0.0
 11
171.44744101257169
 21
108.4694871469847
 31
0.0
  0
LINE
  5
14C4
  8
3
 10
170.3672900750789
 20
105.68427986480501
 30
0.0
 11
170.3672900750789
 21
113.41499630415031
 31
0.0
  0
LINE
  5
14C5
  8
3
 10
158.69527125507889
 20
105.68427986480501
 30
0.0
 11
158.69527125507889
 21
113.41499630415031
 31
0.0
  0
LINE
  5
14C6
  8
3
 10
160.66592244540601
 20
103.7136286744777
 30
0.0
 11
168.3966388847517
 21
103.7136286744777
 31
0.0
  0
LINE
  5
14C7
  8
3
 10
160.76019309024409
 20
115.44700177539301
 30
0.0
 11
168.30236823991359
 21
115.44700177539301
 31
0.0
  0
LINE
  5
14C8
  8
3
 10
157.84303817634401
 20
107.4838664582124
 30
0.0
 11
162.46550903881359
 21
102.86139559574281
 31
0.0
  0
LINE
  5
14C9
  8
3
 10
171.2195231538137
 20
111.6154097107428
 30
0.0
 11
166.597052291344
 21
116.23788057321239
 31
0.0
  0
LINE
  5
14CA
  8
3
 10
166.59705229134411
 20
102.86139559574281
 30
0.0
 11
171.2195231538137
 21
107.4838664582125
 31
0.0
  0
LINE
  5
14CB
  8
3
 10
162.5237244701257
 20
116.2555845593688
 30
0.0
 11
157.8253341901877
 21
111.5571942794307
 31
0.0
  0
LINE
  5
14CC
  8
0
 10
105.85285784847829
 20
59.549638084477571
 30
0.0
 11
109.0312806650788
 21
59.549638084477571
 31
0.0
  0
ARC
  5
14CD
  8
0
 10
126.14515634465781
 20
54.049638084477692
 30
0.0
 40
21.024447157013359
 50
164.8349652611567
 51
195.1650347388433
  0
LINE
  5
14CE
  8
0
 10
105.12070919117311
 20
48.549638084477692
 30
0.0
 11
109.0312806650788
 21
48.549638084477692
 31
0.0
  0
ARC
  5
14CF
  8
0
 10
126.14515634465781
 20
65.049638084477692
 30
0.0
 40
21.024447157013359
 50
164.8349652611567
 51
195.1650347388433
  0
LINE
  5
14D0
  8
0
 10
105.12070919117311
 20
70.549638084477692
 30
0.0
 11
109.0312806650788
 21
70.549638084477692
 31
0.0
  0
LINE
  5
14D1
  8
0
 10
112.5312806650788
 20
72.549638084477706
 30
0.0
 11
112.5312806650788
 21
46.549638084477699
 31
0.0
  0
ARC
  5
14D2
  8
0
 10
133.03128066507881
 20
59.549638084477621
 30
0.0
 40
30.0
 50
158.4898117331125
 51
201.5101882668873
  0
LINE
  5
14D3
  8
0
 10
121.5312806650788
 20
50.234138084477671
 30
0.0
 11
121.5312806650788
 21
68.865138084477636
 31
0.0
  0
LINE
  5
14D4
  8
0
 10
111.0312806650788
 20
46.549638084477593
 30
0.0
 11
111.0312806650788
 21
72.549638084477593
 31
0.0
  0
LINE
  5
14D5
  8
0
 10
109.0312806650788
 20
46.549638084477593
 30
0.0
 11
109.0312806650788
 21
72.549638084477593
 31
0.0
  0
LINE
  5
14D6
  8
0
 10
119.33128066507879
 20
49.072138084477629
 30
0.0
 11
119.33128066507879
 21
70.02713808447767
 31
0.0
  0
LINE
  5
14D7
  8
1
 10
98.031280665078839
 20
59.549638084477692
 30
0.0
 11
126.5312806650787
 21
59.549638084477692
 31
0.0
  0
LINE
  5
14D8
  8
3
 10
112.5312806650788
 20
50.234138084477671
 30
0.0
 11
119.33128066507879
 21
50.234138084477671
 31
0.0
  0
LINE
  5
14D9
  8
0
 10
112.5312806650788
 20
49.072138084477629
 30
0.0
 11
119.33128066507879
 21
49.072138084477629
 31
0.0
  0
LINE
  5
14DA
  8
0
 10
119.33128066507879
 20
50.234138084477671
 30
0.0
 11
121.5312806650788
 21
50.234138084477671
 31
0.0
  0
LINE
  5
14DB
  8
0
 10
109.0312806650788
 20
46.549638084477593
 30
0.0
 11
112.5312806650788
 21
46.549638084477593
 31
0.0
  0
LINE
  5
14DC
  8
3
 10
112.5312806650788
 20
68.865138084477749
 30
0.0
 11
119.33128066507879
 21
68.865138084477636
 31
0.0
  0
LINE
  5
14DD
  8
0
 10
112.5312806650788
 20
70.02713808447767
 30
0.0
 11
119.33128066507879
 21
70.02713808447767
 31
0.0
  0
LINE
  5
14DE
  8
0
 10
119.33128066507879
 20
68.865138084477636
 30
0.0
 11
121.5312806650788
 21
68.865138084477636
 31
0.0
  0
LINE
  5
14DF
  8
0
 10
109.0312806650788
 20
72.549638084477593
 30
0.0
 11
112.5312806650788
 21
72.549638084477593
 31
0.0
  0
LINE
  5
166C
  8
3
 10
62.038836860032013
 20
116.2555845593688
 30
0.0
 11
66.737227139969946
 21
111.5571942794307
 31
0.0
  0
LINE
  5
166D
  8
3
 10
57.965509038813593
 20
102.86139559574281
 30
0.0
 11
53.343038176343953
 21
107.4838664582125
 31
0.0
  0
LINE
  5
166E
  8
3
 10
53.343038176343953
 20
111.6154097107428
 30
0.0
 11
57.965509038813707
 21
116.23788057321239
 31
0.0
  0
LINE
  5
166F
  8
3
 10
66.719523153813611
 20
107.4838664582124
 30
0.0
 11
62.097052291344077
 21
102.86139559574281
 31
0.0
  0
LINE
  5
1670
  8
3
 10
63.802368239913562
 20
115.44700177539301
 30
0.0
 11
56.260193090244002
 21
115.44700177539301
 31
0.0
  0
LINE
  5
1671
  8
3
 10
63.89663888475161
 20
103.7136286744777
 30
0.0
 11
56.165922445405947
 21
103.7136286744777
 31
0.0
  0
LINE
  5
1672
  8
3
 10
65.867290075078813
 20
105.68427986480501
 30
0.0
 11
65.867290075078813
 21
113.41499630415031
 31
0.0
  0
LINE
  5
1673
  8
3
 10
54.195271255078751
 20
105.68427986480501
 30
0.0
 11
54.195271255078751
 21
113.41499630415031
 31
0.0
  0
LINE
  5
1674
  8
3
 10
61.111431602571649
 20
116.4657984319706
 30
0.0
 11
53.115120317585927
 21
108.4694871469847
 31
0.0
  0
LINE
  5
1675
  8
3
 10
62.282422651980824
 20
116.1777871288796
 30
0.0
 11
53.403131620676838
 21
107.29849609757569
 31
0.0
  0
LINE
  5
1676
  8
3
 10
53.03777704828758
 20
109.8511462301865
 30
0.0
 11
59.729772519370037
 21
116.54314170126879
 31
0.0
  0
LINE
  5
1677
  8
3
 10
58.57227831257876
 20
102.7033754445112
 30
0.0
 11
58.57227831257876
 21
116.395900724444
 31
0.0
  0
LINE
  5
1678
  8
3
 10
60.031280665078832
 20
102.54963808447771
 30
0.0
 11
60.031280665078832
 21
116.54963808447771
 31
0.0
  0
LINE
  5
1679
  8
3
 10
61.490283017578797
 20
102.7033754445112
 30
0.0
 11
61.490283017578797
 21
116.395900724444
 31
0.0
  0
LINE
  5
167A
  8
3
 10
66.659429709480833
 20
107.29849609757569
 30
0.0
 11
57.780138678176847
 21
116.1777871288797
 31
0.0
  0
LINE
  5
167B
  8
3
 10
66.947441012571744
 20
108.4694871469847
 30
0.0
 11
58.951129727585908
 21
116.4657984319706
 31
0.0
  0
LINE
  5
167C
  8
3
 10
60.332788810787747
 20
116.54314170126879
 30
0.0
 11
67.024784281869984
 21
109.8511462301865
 31
0.0
  0
LINE
  5
167D
  8
3
 10
63.302110459219982
 20
103.3608035853366
 30
0.0
 11
53.842446165937751
 21
112.8204678786188
 31
0.0
  0
LINE
  5
167E
  8
3
 10
56.760450870937682
 20
103.3608035853366
 30
0.0
 11
66.220115164219905
 21
112.8204678786188
 31
0.0
  0
LINE
  5
167F
  8
3
 10
66.659429709480719
 20
111.80078007137971
 30
0.0
 11
57.780138678176847
 21
102.9214890400757
 31
0.0
  0
LINE
  5
1680
  8
3
 10
58.951129727585908
 20
102.6334777369848
 30
0.0
 11
66.947441012571744
 21
110.62978902197059
 31
0.0
  0
LINE
  5
1681
  8
3
 10
67.024784281869984
 20
109.2481299387688
 30
0.0
 11
60.332788810787633
 21
102.5561344676865
 31
0.0
  0
LINE
  5
1682
  8
3
 10
54.406084641940417
 20
113.7158317551161
 30
0.0
 11
64.197474335717274
 21
103.92444206133931
 31
0.0
  0
LINE
  5
1683
  8
3
 10
64.981028133384712
 20
104.59989061617181
 30
0.0
 11
55.081533196772973
 21
114.49938555278349
 31
0.0
  0
LINE
  5
1684
  8
3
 10
55.865086994440382
 20
115.17483410761611
 30
0.0
 11
65.656476688217253
 21
105.3834444138393
 31
0.0
  0
LINE
  5
1685
  8
3
 10
56.760450870937682
 20
115.7384725836188
 30
0.0
 11
66.220115164219905
 21
106.2788082903366
 31
0.0
  0
LINE
  5
1686
  8
3
 10
53.842446165937652
 20
106.2788082903366
 30
0.0
 11
63.302110459219882
 21
115.7384725836188
 31
0.0
  0
LINE
  5
1687
  8
3
 10
64.197474335717175
 20
115.17483410761611
 30
0.0
 11
54.406084641940311
 21
105.3834444138392
 31
0.0
  0
LINE
  5
1688
  8
3
 10
55.081533196772973
 20
104.59989061617181
 30
0.0
 11
64.981028133384584
 21
114.49938555278349
 31
0.0
  0
LINE
  5
1689
  8
3
 10
65.656476688217253
 20
113.7158317551161
 30
0.0
 11
55.865086994440382
 21
103.92444206133931
 31
0.0
  0
LINE
  5
168A
  8
3
 10
65.494046376565507
 20
105.1726310269777
 30
0.0
 11
54.568514953592057
 21
105.1726310269777
 31
0.0
  0
LINE
  5
168B
  8
3
 10
66.39408260617347
 20
106.63163337947771
 30
0.0
 11
53.668478723984087
 21
106.63163337947771
 31
0.0
  0
LINE
  5
168C
  8
3
 10
66.877543305045151
 20
108.0906357319777
 30
0.0
 11
53.185018025112413
 21
108.0906357319777
 31
0.0
  0
LINE
  5
168D
  8
3
 10
67.031280665078839
 20
109.54963808447771
 30
0.0
 11
53.031280665078839
 21
109.54963808447771
 31
0.0
  0
LINE
  5
168E
  8
3
 10
66.877543305045151
 20
111.0086404369777
 30
0.0
 11
53.185018025112413
 21
111.0086404369776
 31
0.0
  0
LINE
  5
168F
  8
3
 10
66.39408260617347
 20
112.46764278947769
 30
0.0
 11
53.668478723984201
 21
112.46764278947759
 31
0.0
  0
LINE
  5
1690
  8
3
 10
65.494046376565507
 20
113.9266451419777
 30
0.0
 11
54.568514953592057
 21
113.9266451419777
 31
0.0
  0
LINE
  5
1691
  8
3
 10
64.408287722578834
 20
104.0868723729909
 30
0.0
 11
64.408287722578834
 21
115.0124037959643
 31
0.0
  0
LINE
  5
1692
  8
3
 10
59.729772519369931
 20
102.5561344676865
 30
0.0
 11
53.03777704828758
 21
109.2481299387689
 31
0.0
  0
LINE
  5
1693
  8
3
 10
57.113275960078802
 20
103.186836143383
 30
0.0
 11
57.113275960078802
 21
115.91244002557229
 31
0.0
  0
LINE
  5
1694
  8
3
 10
62.949285370078762
 20
103.186836143383
 30
0.0
 11
62.949285370078762
 21
115.91244002557229
 31
0.0
  0
LINE
  5
1695
  8
3
 10
53.115120317585927
 20
110.62978902197059
 30
0.0
 11
61.111431602571649
 21
102.6334777369848
 31
0.0
  0
LINE
  5
1696
  8
3
 10
53.403131620676838
 20
111.80078007137971
 30
0.0
 11
62.282422651980824
 21
102.9214890400757
 31
0.0
  0
LINE
  5
1697
  8
3
 10
55.65427360757883
 20
104.0868723729909
 30
0.0
 11
55.65427360757883
 21
115.0124037959644
 31
0.0
  0
LINE
  5
1698
  8
3
 10
67.031280665078839
 20
109.54963808447771
 30
0.0
 11
54.531280665078839
 21
109.54963808447771
 31
0.0
  0
LINE
  5
1699
  8
3
 10
60.031280665078832
 20
116.54963808447771
 30
0.0
 11
60.031280665078832
 21
102.54963808447771
 31
0.0
  0
LINE
  5
169A
  8
0
 10
109.0312806650788
 20
122.54963808447761
 30
0.0
 11
112.5312806650788
 21
122.54963808447761
 31
0.0
  0
LINE
  5
169B
  8
0
 10
105.85285784847849
 20
122.2513440014834
 30
0.0
 11
109.0312806650788
 21
122.2513440014834
 31
0.0
  0
LINE
  5
169C
  8
0
 10
105.85285784847849
 20
115.90049104039601
 30
0.0
 11
109.0312806650788
 21
115.90049104039601
 31
0.0
  0
ARC
  5
169D
  8
0
 10
112.3729077935987
 20
119.0759175209389
 30
0.0
 40
7.2521986059540513
 50
156.45516137121399
 51
205.96723393232679
  0
LINE
  5
169E
  8
0
 10
119.33128066507879
 20
118.86513808447761
 30
0.0
 11
121.5312806650788
 21
118.86513808447761
 31
0.0
  0
LINE
  5
169F
  8
0
 10
112.5312806650788
 20
120.0271380844776
 30
0.0
 11
119.33128066507879
 21
120.0271380844776
 31
0.0
  0
LINE
  5
16A0
  8
3
 10
112.5312806650788
 20
118.86513808447771
 30
0.0
 11
119.33128066507879
 21
118.86513808447761
 31
0.0
  0
LINE
  5
16A1
  8
0
 10
105.85285784847849
 20
103.19878512855929
 30
0.0
 11
109.0312806650788
 21
103.19878512855929
 31
0.0
  0
LINE
  5
16A2
  8
0
 10
109.0312806650788
 20
96.549638084477579
 30
0.0
 11
112.5312806650788
 21
96.549638084477579
 31
0.0
  0
LINE
  5
16A3
  8
0
 10
105.85285784847849
 20
96.847932167471882
 30
0.0
 11
109.0312806650788
 21
96.847932167471882
 31
0.0
  0
ARC
  5
16A4
  8
0
 10
112.3729077935987
 20
100.0233586480165
 30
0.0
 40
7.2521986059540513
 50
154.03276606767301
 51
203.54483862878601
  0
LINE
  5
16A5
  8
0
 10
119.33128066507879
 20
100.23413808447761
 30
0.0
 11
121.5312806650788
 21
100.23413808447761
 31
0.0
  0
LINE
  5
16A6
  8
0
 10
112.5312806650788
 20
99.072138084477615
 30
0.0
 11
119.33128066507879
 21
99.072138084477615
 31
0.0
  0
LINE
  5
16A7
  8
3
 10
112.5312806650788
 20
100.23413808447761
 30
0.0
 11
119.33128066507879
 21
100.23413808447761
 31
0.0
  0
LINE
  5
16A8
  8
1
 10
98.031280665078839
 20
109.54963808447771
 30
0.0
 11
126.5312806650787
 21
109.54963808447771
 31
0.0
  0
LINE
  5
16A9
  8
0
 10
119.33128066507879
 20
99.072138084477615
 30
0.0
 11
119.33128066507879
 21
120.0271380844776
 31
0.0
  0
LINE
  5
16AA
  8
0
 10
109.0312806650788
 20
96.549638084477579
 30
0.0
 11
109.0312806650788
 21
122.54963808447761
 31
0.0
  0
LINE
  5
16AB
  8
0
 10
111.0312806650788
 20
96.549638084477579
 30
0.0
 11
111.0312806650788
 21
122.54963808447761
 31
0.0
  0
LINE
  5
16AC
  8
0
 10
121.5312806650788
 20
100.23413808447761
 30
0.0
 11
121.5312806650788
 21
118.86513808447761
 31
0.0
  0
ARC
  5
16AD
  8
0
 10
133.03128066507881
 20
109.54963808447761
 30
0.0
 40
30.0
 50
154.9511893879274
 51
205.0488106120724
  0
ARC
  5
16AE
  8
0
 10
133.03128057536341
 20
109.54963808447749
 30
0.0
 40
27.910571387718939
 50
166.84754369975309
 51
193.1524563002433
  0
LINE
  5
16AF
  8
0
 10
112.5312806650788
 20
122.54963808447771
 30
0.0
 11
112.5312806650788
 21
96.549638084477692
 31
0.0
  0
CIRCLE
  5
16B0
  8
0
 10
60.031280665078832
 20
109.54963808447771
 30
0.0
 40
13.0
  0
LINE
  5
16B1
  8
1
 10
78.031280665078839
 20
109.54963808447771
 30
0.0
 11
42.031280665078839
 21
109.54963808447771
 31
0.0
  0
LINE
  5
16B2
  8
1
 10
60.031280665078832
 20
127.54963808447771
 30
0.0
 11
60.031280665078832
 21
91.549638084477735
 31
0.0
  0
LINE
  5
16B3
  8
0
 10
71.031280656124054
 20
115.90049104039819
 30
0.0
 11
71.031280656124054
 21
103.19878511822721
 31
0.0
  0
LINE
  5
16B4
  8
0
 10
71.031280656114063
 20
103.19878512855929
 30
0.0
 11
60.031280656124068
 21
96.847932167471882
 31
0.0
  0
LINE
  5
16B5
  8
0
 10
60.031280665078043
 20
96.84793217264918
 30
0.0
 11
49.03128066507815
 21
103.1987851337328
 31
0.0
  0
LINE
  5
16B6
  8
0
 10
49.031280674032132
 20
103.1987851285655
 30
0.0
 11
49.031280674032132
 21
115.9004910507366
 31
0.0
  0
LINE
  5
16B7
  8
0
 10
49.031280674032132
 20
115.900491040397
 30
0.0
 11
60.031280674032018
 21
122.2513440014844
 31
0.0
  0
LINE
  5
16B8
  8
0
 10
60.031280665078043
 20
122.2513439963071
 30
0.0
 11
71.031280665078043
 21
115.9004910352234
 31
0.0
  0
CIRCLE
  5
16B9
  8
0
 10
60.031280665078832
 20
109.54963808447771
 30
0.0
 40
7.0
  0
TEXT
  5
17AA
  8
0
 62
     3
 10
0.0
 20
0.0
 30
0.0
 40
10.0
  1
PRE15
  7
STANDARD1
  0
ENDSEC
  0
EOF
