  0
SECTION
  2
HEADER
  9
$ACADVER
  1
AC1009
  9
$INSBASE
 10
0.0
 20
0.0
 30
0.0
  9
$EXTMIN
 10
0.0
 20
-2.960436562073669
 30
0.0
  9
$EXTMAX
 10
133.27224904261439
 20
96.920744965426479
 30
0.0
  9
$LIMMIN
 10
0.0
 20
0.0
  9
$LIMMAX
 10
375.0
 20
270.0
  9
$ORTHOMODE
 70
     0
  9
$REGENMODE
 70
     1
  9
$FILLMODE
 70
     1
  9
$QTEXTMODE
 70
     0
  9
$MIRRTEXT
 70
     0
  9
$DRAGMODE
 70
     2
  9
$LTSCALE
 40
10.0
  9
$OSMODE
 70
  3071
  9
$ATTMODE
 70
     1
  9
$TEXTSIZE
 40
2.0
  9
$TRACEWID
 40
0.05
  9
$TEXTSTYLE
  7
STANDARD
  9
$CLAYER
  8
0
  9
$CELTYPE
  6
BYLAYER
  9
$CECOLOR
 62
   256
  9
$DIMSCALE
 40
1.0
  9
$DIMASZ
 40
2.5
  9
$DIMEXO
 40
2.0
  9
$DIMDLI
 40
0.38
  9
$DIMRND
 40
0.0
  9
$DIMDLE
 40
0.0
  9
$DIMEXE
 40
2.0
  9
$DIMTP
 40
0.0
  9
$DIMTM
 40
0.0
  9
$DIMTXT
 40
3.0
  9
$DIMCEN
 40
0.09
  9
$DIMTSZ
 40
0.0
  9
$DIMTOL
 70
     0
  9
$DIMLIM
 70
     0
  9
$DIMTIH
 70
     0
  9
$DIMTOH
 70
     0
  9
$DIMSE1
 70
     0
  9
$DIMSE2
 70
     0
  9
$DIMTAD
 70
     1
  9
$DIMZIN
 70
     0
  9
$DIMBLK
  1

  9
$DIMASO
 70
     1
  9
$DIMSHO
 70
     0
  9
$DIMPOST
  1

  9
$DIMAPOST
  1

  9
$DIMALT
 70
     0
  9
$DIMALTD
 70
     2
  9
$DIMALTF
 40
25.399999999999999
  9
$DIMLFAC
 40
1.0
  9
$DIMTOFL
 70
     0
  9
$DIMTVP
 40
1.6000000000000001
  9
$DIMTIX
 70
     1
  9
$DIMSOXD
 70
     0
  9
$DIMSAH
 70
     0
  9
$DIMBLK1
  1

  9
$DIMBLK2
  1

  9
$DIMSTYLE
  2
STANDARD
  9
$DIMCLRD
 70
     0
  9
$DIMCLRE
 70
     0
  9
$DIMCLRT
 70
     0
  9
$DIMTFAC
 40
1.0
  9
$DIMGAP
 40
0.09
  9
$LUNITS
 70
     2
  9
$LUPREC
 70
     4
  9
$SKETCHINC
 40
0.1
  9
$FILLETRAD
 40
2.5
  9
$AUNITS
 70
     0
  9
$AUPREC
 70
     0
  9
$MENU
  1
E:\r13\win\SUPPORT\ACAD
  9
$ELEVATION
 40
0.0
  9
$PELEVATION
 40
0.0
  9
$THICKNESS
 40
0.0
  9
$LIMCHECK
 70
     0
  9
$BLIPMODE
 70
     0
  9
$CHAMFERA
 40
0.0
  9
$CHAMFERB
 40
0.0
  9
$SKPOLY
 70
     0
  9
$TDCREATE
 40
2448650.5678784722
  9
$TDUPDATE
 40
2456597.7281050012
  9
$TDINDWG
 40
0.0230624884
  9
$TDUSRTIMER
 40
0.0230624884
  9
$USRTIMER
 70
     1
  9
$ANGBASE
 50
0.0
  9
$ANGDIR
 70
     0
  9
$PDMODE
 70
     0
  9
$PDSIZE
 40
0.0
  9
$PLINEWID
 40
0.0
  9
$COORDS
 70
     1
  9
$SPLFRAME
 70
     0
  9
$SPLINETYPE
 70
     6
  9
$SPLINESEGS
 70
     8
  9
$ATTDIA
 70
     0
  9
$ATTREQ
 70
     1
  9
$HANDLING
 70
     1
  9
$HANDSEED
  5
C8F
  9
$SURFTAB1
 70
     6
  9
$SURFTAB2
 70
     6
  9
$SURFTYPE
 70
     6
  9
$SURFU
 70
     6
  9
$SURFV
 70
     6
  9
$UCSNAME
  2

  9
$UCSORG
 10
0.0
 20
0.0
 30
0.0
  9
$UCSXDIR
 10
1.0
 20
0.0
 30
0.0
  9
$UCSYDIR
 10
0.0
 20
1.0
 30
0.0
  9
$PUCSNAME
  2

  9
$PUCSORG
 10
0.0
 20
0.0
 30
0.0
  9
$PUCSXDIR
 10
1.0
 20
0.0
 30
0.0
  9
$PUCSYDIR
 10
0.0
 20
1.0
 30
0.0
  9
$USERI1
 70
     0
  9
$USERI2
 70
     1
  9
$USERI3
 70
     1
  9
$USERI4
 70
     0
  9
$USERI5
 70
     0
  9
$USERR1
 40
0.0
  9
$USERR2
 40
0.0
  9
$USERR3
 40
0.0
  9
$USERR4
 40
0.0
  9
$USERR5
 40
0.0
  9
$WORLDVIEW
 70
     1
  9
$SHADEDGE
 70
     3
  9
$SHADEDIF
 70
    70
  9
$TILEMODE
 70
     1
  9
$MAXACTVP
 70
    16
  9
$PLIMCHECK
 70
     0
  9
$PEXTMIN
 10
1.0000000000000000E+020
 20
1.0000000000000000E+020
 30
1.0000000000000000E+020
  9
$PEXTMAX
 10
-1.0000000000000000E+020
 20
-1.0000000000000000E+020
 30
-1.0000000000000000E+020
  9
$PLIMMIN
 10
0.0
 20
0.0
  9
$PLIMMAX
 10
12.0
 20
9.0
  9
$UNITMODE
 70
     0
  9
$VISRETAIN
 70
     0
  9
$PLINEGEN
 70
     1
  9
$PSLTSCALE
 70
     0
  0
ENDSEC
  0
SECTION
  2
TABLES
  0
TABLE
  2
VPORT
 70
     1
  0
VPORT
  2
*ACTIVE
 70
     0
 10
0.0
 20
0.0
 11
1.0
 21
1.0
 12
187.4942783906524
 22
149.37525922376949
 13
0.0
 23
0.0
 14
10.0
 24
10.0
 15
10.0
 25
10.0
 16
0.0
 26
0.0
 36
1.0
 17
0.0
 27
0.0
 37
0.0
 40
308.52635987286669
 41
2.304913294797688
 42
50.0
 43
0.0
 44
0.0
 50
0.0
 51
0.0
 71
     0
 72
   500
 73
     1
 74
     0
 75
     0
 76
     0
 77
     0
 78
     2
  0
ENDTAB
  0
TABLE
  2
LTYPE
 70
     3
  0
LTYPE
  2
CONTINUOUS
 70
     0
  3
Solid Line
 72
    65
 73
     0
 40
0.0
  0
LTYPE
  2
CENTER
 70
     0
  3
____ _ ____ _ ____ _ ____ _ ____ _ ____ _ ____
 72
    65
 73
     4
 40
2.0
 49
1.25
 49
-0.25
 49
0.25
 49
-0.25
  0
LTYPE
  2
PHANTOM2
 70
     0
  3
___ _ _ ___ _ _ ___ _ _ ___ _ _
 72
    65
 73
     6
 40
1.25
 49
0.625
 49
-0.125
 49
0.125
 49
-0.125
 49
0.125
 49
-0.125
  0
ENDTAB
  0
TABLE
  2
LAYER
 70
     3
  0
LAYER
  2
0
 70
     0
 62
     7
  6
CONTINUOUS
  0
LAYER
  2
1
 70
     0
 62
     1
  6
CENTER
  0
LAYER
  2
3
 70
     0
 62
     3
  6
CONTINUOUS
  0
ENDTAB
  0
TABLE
  2
STYLE
 70
     2
  0
STYLE
  2
STANDARD
 70
     0
 40
0.0
 41
1.0
 50
0.0
 71
     0
 42
2.0
  3
TXT
  4
BIGFONT
  0
STYLE
  2
STANDARD1
 70
     0
 40
0.0
 41
1.0
 50
0.0
 71
     0
 42
3.0
  3
txt
  4

  0
ENDTAB
  0
TABLE
  2
VIEW
 70
     1
  0
VIEW
  2
ALL
 70
     0
 40
270.0
 10
220.99159663865549
 20
135.0
 41
0.0
 11
0.0
 21
0.0
 31
1.0
 12
0.0
 22
0.0
 32
0.0
 42
0.0
 43
0.0
 44
0.0
 50
0.0
 71
     0
  0
ENDTAB
  0
TABLE
  2
UCS
 70
     0
  0
ENDTAB
  0
TABLE
  2
APPID
 70
     3
  0
APPID
  2
ACAD
 70
     0
  0
APPID
  2
ACAD_MLEADERVER
 70
     0
  0
APPID
  2
ACAD_NAV_VCDISPLAY
 70
     0
  0
ENDTAB
  0
TABLE
  2
DIMSTYLE
 70
     1
  0
DIMSTYLE
  2
STANDARD
 70
     0
  3

  4

  5

  6

  7

 40
1.0
 41
0.18
 42
0.0625
 43
0.38
 44
0.18
 45
0.0
 46
0.0
 47
0.0
 48
0.0
140
0.18
141
0.09
142
0.0
143
25.399999999999999
144
1.0
145
0.0
146
1.0
147
0.09
 71
     0
 72
     0
 73
     1
 74
     1
 75
     0
 76
     0
 77
     0
 78
     0
170
     0
171
     2
172
     0
173
     0
174
     0
175
     0
176
     0
177
     0
178
     0
  0
ENDTAB
  0
ENDSEC
  0
SECTION
  2
BLOCKS
  0
BLOCK
  8
0
  2
$MODEL_SPACE
 70
     0
 10
0.0
 20
0.0
 30
0.0
  3
$MODEL_SPACE
  1

  0
ENDBLK
  5
217
  8
0
  0
BLOCK
 67
     1
  8
0
  2
$PAPER_SPACE
 70
     0
 10
0.0
 20
0.0
 30
0.0
  3
$PAPER_SPACE
  1

  0
ENDBLK
  5
215
 67
     1
  8
0
  0
ENDSEC
  0
SECTION
  2
ENTITIES
  0
CIRCLE
  5
86A
  8
0
 10
121.6078079970499
 20
85.420744965426422
 30
0.0
 40
5.1500000000000004
  0
CIRCLE
  5
86B
  8
0
 10
121.6078079970499
 20
85.420744965426422
 30
0.0
 40
6.5785000000000053
  0
CIRCLE
  5
86C
  8
3
 10
121.6078079970499
 20
85.420744965426422
 30
0.0
 40
5.7225000000000099
  0
LINE
  5
86D
  8
3
 10
123.2568570126747
 20
89.607705359801685
 30
0.0
 11
125.79476839142519
 21
87.069793981051191
 31
0.0
  0
LINE
  5
86E
  8
3
 10
121.48645172385331
 20
89.919108296123056
 30
0.0
 11
126.10617132774649
 21
85.299388692229783
 31
0.0
  0
LINE
  5
86F
  8
3
 10
123.06681034955
 20
81.163831513710576
 30
0.0
 11
123.06681034955
 21
89.677658417142254
 31
0.0
  0
LINE
  5
870
  8
3
 10
121.6078079970499
 20
80.920744965426408
 30
0.0
 11
121.6078079970499
 21
89.920744965426422
 31
0.0
  0
LINE
  5
871
  8
3
 10
120.14880564455
 20
81.163831513710534
 30
0.0
 11
120.14880564455
 21
89.677658417142297
 31
0.0
  0
LINE
  5
872
  8
3
 10
117.1094446663534
 20
85.299388692229783
 30
0.0
 11
121.7291642702466
 21
89.919108296123056
 31
0.0
  0
LINE
  5
873
  8
3
 10
117.4208476026747
 20
87.069793981051134
 30
0.0
 11
119.95875898142521
 21
89.607705359801685
 31
0.0
  0
LINE
  5
874
  8
3
 10
120.2390352284699
 20
81.133967491846349
 30
0.0
 11
125.89458547063001
 21
86.789517734006495
 31
0.0
  0
LINE
  5
875
  8
3
 10
122.97658076563
 20
81.133967491846349
 30
0.0
 11
117.3210305234699
 21
86.789517734006552
 31
0.0
  0
LINE
  5
876
  8
3
 10
117.1094446663534
 20
85.542101238623033
 30
0.0
 11
121.7291642702465
 21
80.922381634729788
 31
0.0
  0
LINE
  5
877
  8
3
 10
119.95875898142531
 20
81.233784571051089
 30
0.0
 11
117.4208476026746
 21
83.771695949801767
 31
0.0
  0
LINE
  5
878
  8
3
 10
125.43453826296221
 20
87.788472878838604
 30
0.0
 11
119.24008008363769
 21
81.594014699514219
 31
0.0
  0
LINE
  5
879
  8
3
 10
118.4258274817105
 20
82.238764450086975
 30
0.0
 11
124.78978851238941
 21
88.602725480765855
 31
0.0
  0
LINE
  5
87A
  8
3
 10
123.9755359104622
 20
89.247475231338626
 30
0.0
 11
117.7810777311377
 21
83.053017052014241
 31
0.0
  0
LINE
  5
87B
  8
3
 10
122.97658076563
 20
89.707522439006482
 30
0.0
 11
117.3210305234699
 21
84.051972196846364
 31
0.0
  0
LINE
  5
87C
  8
3
 10
125.89458547063001
 20
84.051972196846364
 30
0.0
 11
120.2390352284699
 21
89.707522439006482
 31
0.0
  0
LINE
  5
87D
  8
3
 10
119.24008008363769
 20
89.247475231338683
 30
0.0
 11
125.43453826296221
 21
83.053017052014241
 31
0.0
  0
LINE
  5
87E
  8
3
 10
124.78978851238941
 20
82.238764450086975
 30
0.0
 11
118.4258274817105
 21
88.602725480765855
 31
0.0
  0
LINE
  5
87F
  8
3
 10
117.7810777311377
 20
87.788472878838661
 30
0.0
 11
123.9755359104622
 21
81.594014699514219
 31
0.0
  0
LINE
  5
880
  8
3
 10
118.1821330939691
 20
82.502740260426435
 30
0.0
 11
125.03348290013081
 21
82.502740260426435
 31
0.0
  0
LINE
  5
881
  8
3
 10
117.3508945453341
 20
83.961742612926415
 30
0.0
 11
125.86472144876581
 21
83.961742612926415
 31
0.0
  0
LINE
  5
882
  8
3
 10
117.10780799705
 20
85.420744965426422
 30
0.0
 11
126.1078079970499
 21
85.420744965426422
 31
0.0
  0
LINE
  5
883
  8
3
 10
117.3508945453341
 20
86.879747317926444
 30
0.0
 11
125.86472144876581
 21
86.879747317926444
 31
0.0
  0
LINE
  5
884
  8
3
 10
118.1821330939691
 20
88.338749670426466
 30
0.0
 11
125.03348290013081
 21
88.338749670426466
 31
0.0
  0
LINE
  5
885
  8
3
 10
117.23080093954989
 20
84.375848215218468
 30
0.0
 11
117.23080093954989
 21
86.465641715634376
 31
0.0
  0
LINE
  5
886
  8
3
 10
124.5258127020499
 20
81.995070062345576
 30
0.0
 11
124.5258127020499
 21
88.846419868507269
 31
0.0
  0
LINE
  5
887
  8
3
 10
118.68980329205
 20
81.995070062345576
 30
0.0
 11
118.68980329205
 21
88.846419868507269
 31
0.0
  0
LINE
  5
888
  8
3
 10
125.79476839142519
 20
83.771695949801654
 30
0.0
 11
123.2568570126747
 21
81.233784571051174
 31
0.0
  0
LINE
  5
889
  8
3
 10
126.10617132774649
 20
85.542101238623033
 30
0.0
 11
121.48645172385341
 21
80.922381634729788
 31
0.0
  0
LINE
  5
88A
  8
3
 10
125.98481505455
 20
84.375848215218468
 30
0.0
 11
125.98481505455
 21
86.465641715634376
 31
0.0
  0
CIRCLE
  5
88B
  8
0
 10
121.6078079970499
 20
85.420744965426422
 30
0.0
 40
9.0
  0
LINE
  5
88C
  8
1
 10
110.10780799705
 20
85.420744965426422
 30
0.0
 11
133.27224904261439
 21
85.420744965426422
 31
0.0
  0
LINE
  5
88D
  8
1
 10
121.6078079970499
 20
96.920744965426479
 30
0.0
 11
121.6078079970499
 21
73.697885413642325
 31
0.0
  0
CIRCLE
  5
88E
  8
0
 10
121.6078079970499
 20
85.420744965426422
 30
0.0
 40
4.5
  0
ARC
  5
88F
  8
0
 10
93.276832696449915
 20
41.670744965426117
 30
0.0
 40
20.664478870800568
 50
169.54455715160569
 51
190.45544284839241
  0
LINE
  5
890
  8
0
 10
72.955460031155837
 20
45.420744965426273
 30
0.0
 11
76.30780799705002
 21
45.420744965426273
 31
0.0
  0
ARC
  5
891
  8
0
 10
93.276832696449915
 20
49.170744965426721
 30
0.0
 40
20.664478870800568
 50
169.54455715160751
 51
190.45544284839411
  0
LINE
  5
892
  8
0
 10
72.612353827315076
 20
37.920744965426422
 30
0.0
 11
76.307807997050134
 21
37.920744965426422
 31
0.0
  0
LINE
  5
893
  8
0
 10
72.612353827315076
 20
52.920744965426422
 30
0.0
 11
76.307807997050077
 21
52.920744965426422
 31
0.0
  0
LINE
  5
894
  8
0
 10
76.30780799705002
 20
54.420744965426422
 30
0.0
 11
79.107807997049974
 21
54.420744965426422
 31
0.0
  0
LINE
  5
895
  8
0
 10
87.107507577510944
 20
51.143244965426447
 30
0.0
 11
87.607807997050074
 21
51.143244965426447
 31
0.0
  0
LINE
  5
896
  8
3
 10
79.107807997050031
 20
51.143244965426447
 30
0.0
 11
87.107507577510944
 21
51.143244965426447
 31
0.0
  0
LINE
  5
897
  8
0
 10
79.107807997050031
 20
51.999244965426442
 30
0.0
 11
87.107507577510944
 21
51.999244965426442
 31
0.0
  0
LINE
  5
898
  8
0
 10
76.307807997050077
 20
36.420744965426373
 30
0.0
 11
79.107807997050031
 21
36.420744965426373
 31
0.0
  0
LINE
  5
899
  8
0
 10
87.107507577510944
 20
39.698244965426277
 30
0.0
 11
87.607807997050074
 21
39.698244965426277
 31
0.0
  0
LINE
  5
89A
  8
0
 10
79.107807997050031
 20
38.842244965426353
 30
0.0
 11
87.107507577510944
 21
38.842244965426289
 31
0.0
  0
LINE
  5
89B
  8
3
 10
79.107807997050031
 20
39.698244965426341
 30
0.0
 11
87.107507577510944
 21
39.698244965426277
 31
0.0
  0
LINE
  5
89C
  8
1
 10
69.107807997050145
 20
45.420744965426422
 30
0.0
 11
90.107807997050074
 21
45.420744965426422
 31
0.0
  0
LINE
  5
89D
  8
0
 10
87.107507577510944
 20
38.842244965426289
 30
0.0
 11
87.107507577510944
 21
51.999244965426442
 31
0.0
  0
LINE
  5
89E
  8
0
 10
76.307807997050077
 20
36.420744965426373
 30
0.0
 11
76.30780799705002
 21
54.420744965426422
 31
0.0
  0
LINE
  5
89F
  8
0
 10
77.607807997050145
 20
36.420744965426373
 30
0.0
 11
77.607807997050088
 21
54.420744965426422
 31
0.0
  0
LINE
  5
8A0
  8
0
 10
87.607807997050074
 20
39.698244965426277
 30
0.0
 11
87.607807997050074
 21
51.143244965426447
 31
0.0
  0
ARC
  5
8A1
  8
0
 10
100.1078079970501
 20
45.420744965426422
 30
0.0
 40
28.5
 50
164.74247670954381
 51
195.25752329045619
  0
LINE
  5
8A2
  8
0
 10
79.107807997050031
 20
54.420744965426422
 30
0.0
 11
79.107807997050031
 21
36.420744965426373
 31
0.0
  0
CIRCLE
  5
A22
  8
0
 10
37.607807997050202
 20
85.420744965426422
 30
0.0
 40
4.5
  0
LINE
  5
A23
  8
0
 10
37.607807997051509
 20
94.080998996219364
 30
0.0
 11
45.107807997051509
 21
89.750871977298686
 31
0.0
  0
LINE
  5
A24
  8
0
 10
30.107808003156489
 20
89.750871980826105
 30
0.0
 11
37.607808003156492
 21
94.080998999749326
 31
0.0
  0
LINE
  5
A25
  8
0
 10
30.107808003156489
 20
81.090617950031898
 30
0.0
 11
30.107808003156489
 21
89.750871987875826
 31
0.0
  0
LINE
  5
A26
  8
0
 10
37.607807997051509
 20
76.76049093463439
 30
0.0
 11
30.107807997051509
 21
81.090617953555054
 31
0.0
  0
LINE
  5
A27
  8
0
 10
45.107807990939712
 20
81.090617950027635
 30
0.0
 11
37.607807990946533
 21
76.760490931104414
 31
0.0
  0
LINE
  5
A28
  8
0
 10
45.107807990946533
 20
89.750871980826943
 30
0.0
 11
45.107807990946533
 21
81.090617942983044
 31
0.0
  0
LINE
  5
A29
  8
1
 10
37.607807997050202
 20
96.920744965426479
 30
0.0
 11
37.607807997050202
 21
73.697885413642325
 31
0.0
  0
LINE
  5
A2A
  8
1
 10
49.107807997050152
 20
85.420744965426422
 30
0.0
 11
25.9433669514857
 21
85.420744965426422
 31
0.0
  0
CIRCLE
  5
A2B
  8
0
 10
37.607807997050202
 20
85.420744965426422
 30
0.0
 40
9.0
  0
LINE
  5
A2C
  8
0
 10
79.107807997050031
 20
94.420744965426437
 30
0.0
 11
79.107807997050074
 21
76.420744965426366
 31
0.0
  0
ARC
  5
A2D
  8
0
 10
100.1078079079453
 20
85.420744965426366
 30
0.0
 40
27.495454082295961
 50
170.9390418873439
 51
189.06095811265411
  0
ARC
  5
A2E
  8
0
 10
100.1078079970501
 20
85.420744965426422
 30
0.0
 40
28.5
 50
162.3098931256211
 51
197.69010687437731
  0
LINE
  5
A2F
  8
0
 10
87.607807997050074
 20
79.698244965426284
 30
0.0
 11
87.607807997050074
 21
91.143244965426447
 31
0.0
  0
LINE
  5
A30
  8
0
 10
77.607807997050145
 20
76.420744965426366
 30
0.0
 11
77.607807997050031
 21
94.420744965426437
 31
0.0
  0
LINE
  5
A31
  8
0
 10
76.307807997050077
 20
76.420744965426366
 30
0.0
 11
76.30780799705002
 21
94.420744965426437
 31
0.0
  0
LINE
  5
A32
  8
0
 10
87.107507577510944
 20
78.842244965426275
 30
0.0
 11
87.107507577510944
 21
91.999244965426442
 31
0.0
  0
LINE
  5
A33
  8
1
 10
69.107807997050145
 20
85.420744965426422
 30
0.0
 11
90.107807997050074
 21
85.420744965426422
 31
0.0
  0
LINE
  5
A34
  8
3
 10
79.107807997050031
 20
79.698244965426341
 30
0.0
 11
87.107507577510944
 21
79.698244965426284
 31
0.0
  0
LINE
  5
A35
  8
0
 10
79.107807997050031
 20
78.842244965426346
 30
0.0
 11
87.107507577510944
 21
78.842244965426275
 31
0.0
  0
LINE
  5
A36
  8
0
 10
87.107507577510944
 20
79.698244965426284
 30
0.0
 11
87.607807997050074
 21
79.698244965426284
 31
0.0
  0
ARC
  5
A37
  8
0
 10
79.614882184429234
 20
78.925554440567623
 30
0.0
 40
7.002528358780256
 50
161.98999207117961
 51
198.01000792881311
  0
LINE
  5
A38
  8
0
 10
72.955460031155781
 20
76.760490931104414
 30
0.0
 11
76.307807997050077
 21
76.760490931104414
 31
0.0
  0
LINE
  5
A39
  8
0
 10
76.307807997050077
 20
76.420744965426366
 30
0.0
 11
79.107807997050074
 21
76.420744965426366
 31
0.0
  0
LINE
  5
A3A
  8
0
 10
72.955460031155781
 20
81.090617950031614
 30
0.0
 11
76.307807997050077
 21
81.090617950031614
 31
0.0
  0
LINE
  5
A3B
  8
0
 10
79.107807997050031
 20
91.999244965426442
 30
0.0
 11
87.107507577510944
 21
91.999244965426442
 31
0.0
  0
LINE
  5
A3C
  8
3
 10
79.107807997050031
 20
91.143244965426447
 30
0.0
 11
87.107507577510944
 21
91.143244965426447
 31
0.0
  0
LINE
  5
A3D
  8
0
 10
87.107507577510944
 20
91.143244965426447
 30
0.0
 11
87.607807997050074
 21
91.143244965426447
 31
0.0
  0
LINE
  5
A3E
  8
0
 10
72.955460031155781
 20
94.080998999748431
 30
0.0
 11
76.307807997050077
 21
94.080998999748374
 31
0.0
  0
LINE
  5
A3F
  8
0
 10
72.955460031155781
 20
89.750871980821216
 30
0.0
 11
76.307807997050077
 21
89.750871980821159
 31
0.0
  0
LINE
  5
A40
  8
0
 10
76.30780799705002
 20
94.420744965426437
 30
0.0
 11
79.107807997049974
 21
94.420744965426437
 31
0.0
  0
ARC
  5
A41
  8
0
 10
79.614882184429234
 20
91.915935490285165
 30
0.0
 40
7.002528358780256
 50
161.9899920711847
 51
198.01000792882039
  0
LINE
  5
A42
  8
3
 10
33.230800939550193
 20
84.375848215218468
 30
0.0
 11
33.230800939550193
 21
86.465641715634376
 31
0.0
  0
LINE
  5
A43
  8
3
 10
33.109444666353617
 20
85.542101238623033
 30
0.0
 11
37.72916427024677
 21
80.922381634729788
 31
0.0
  0
LINE
  5
A44
  8
3
 10
33.420847602674939
 20
83.771695949801654
 30
0.0
 11
35.958758981425433
 21
81.233784571051174
 31
0.0
  0
LINE
  5
A45
  8
3
 10
40.525812702050189
 20
81.995070062345576
 30
0.0
 11
40.525812702050189
 21
88.846419868507269
 31
0.0
  0
LINE
  5
A46
  8
3
 10
34.689803292050222
 20
81.995070062345576
 30
0.0
 11
34.689803292050222
 21
88.846419868507269
 31
0.0
  0
LINE
  5
A47
  8
3
 10
41.984815054550211
 20
84.375848215218468
 30
0.0
 11
41.984815054550211
 21
86.465641715634376
 31
0.0
  0
LINE
  5
A48
  8
3
 10
41.033482900131041
 20
88.338749670426466
 30
0.0
 11
34.182133093969362
 21
88.338749670426466
 31
0.0
  0
LINE
  5
A49
  8
3
 10
41.86472144876609
 20
86.879747317926444
 30
0.0
 11
33.35089454533437
 21
86.879747317926444
 31
0.0
  0
LINE
  5
A4A
  8
3
 10
42.107807997050202
 20
85.420744965426422
 30
0.0
 11
33.107807997050202
 21
85.420744965426422
 31
0.0
  0
LINE
  5
A4B
  8
3
 10
41.864721448766034
 20
83.961742612926415
 30
0.0
 11
33.35089454533437
 21
83.961742612926415
 31
0.0
  0
LINE
  5
A4C
  8
3
 10
41.033482900131041
 20
82.502740260426435
 30
0.0
 11
34.182133093969362
 21
82.502740260426435
 31
0.0
  0
LINE
  5
A4D
  8
3
 10
41.434538262962398
 20
87.788472878838661
 30
0.0
 11
35.24008008363797
 21
81.594014699514219
 31
0.0
  0
LINE
  5
A4E
  8
3
 10
34.425827481710769
 20
82.238764450086975
 30
0.0
 11
40.789788512389691
 21
88.602725480765855
 31
0.0
  0
LINE
  5
A4F
  8
3
 10
39.97553591046244
 20
89.247475231338683
 30
0.0
 11
33.781077731137941
 21
83.053017052014241
 31
0.0
  0
LINE
  5
A50
  8
3
 10
33.321030523470142
 20
84.051972196846364
 30
0.0
 11
38.976580765630281
 21
89.707522439006482
 31
0.0
  0
LINE
  5
A51
  8
3
 10
36.239035228470129
 20
89.707522439006482
 30
0.0
 11
41.894585470630261
 21
84.051972196846364
 31
0.0
  0
LINE
  5
A52
  8
3
 10
35.24008008363797
 20
89.247475231338626
 30
0.0
 11
41.434538262962398
 21
83.053017052014241
 31
0.0
  0
LINE
  5
A53
  8
3
 10
40.789788512389627
 20
82.238764450086975
 30
0.0
 11
34.425827481710719
 21
88.602725480765855
 31
0.0
  0
LINE
  5
A54
  8
3
 10
33.781077731137998
 20
87.788472878838604
 30
0.0
 11
39.97553591046244
 21
81.594014699514219
 31
0.0
  0
LINE
  5
A55
  8
3
 10
39.256857012674857
 20
81.233784571051089
 30
0.0
 11
41.794768391425521
 21
83.771695949801767
 31
0.0
  0
LINE
  5
A56
  8
3
 10
42.106171327746779
 20
85.542101238623033
 30
0.0
 11
37.486451723853627
 21
80.922381634729788
 31
0.0
  0
LINE
  5
A57
  8
3
 10
36.239035228470129
 20
81.133967491846349
 30
0.0
 11
41.894585470630261
 21
86.789517734006552
 31
0.0
  0
LINE
  5
A58
  8
3
 10
38.976580765630281
 20
81.133967491846349
 30
0.0
 11
33.321030523470142
 21
86.789517734006495
 31
0.0
  0
LINE
  5
A59
  8
3
 10
41.794768391425457
 20
87.069793981051134
 30
0.0
 11
39.256857012674921
 21
89.607705359801685
 31
0.0
  0
LINE
  5
A5A
  8
3
 10
42.106171327746779
 20
85.299388692229783
 30
0.0
 11
37.486451723853577
 21
89.919108296123056
 31
0.0
  0
LINE
  5
A5B
  8
3
 10
39.066810349550167
 20
81.163831513710534
 30
0.0
 11
39.066810349550167
 21
89.677658417142297
 31
0.0
  0
LINE
  5
A5C
  8
3
 10
37.607807997050202
 20
80.920744965426408
 30
0.0
 11
37.607807997050202
 21
89.920744965426422
 31
0.0
  0
LINE
  5
A5D
  8
3
 10
36.14880564455018
 20
81.163831513710576
 30
0.0
 11
36.14880564455018
 21
89.677658417142254
 31
0.0
  0
LINE
  5
A5E
  8
3
 10
37.729164270246827
 20
89.919108296123056
 30
0.0
 11
33.109444666353617
 21
85.299388692229783
 31
0.0
  0
LINE
  5
A5F
  8
3
 10
35.958758981425433
 20
89.607705359801685
 30
0.0
 11
33.420847602674939
 21
87.069793981051191
 31
0.0
  0
TEXT
  5
BFA
  8
0
 62
     3
 10
0.0
 20
0.0
 30
0.0
 40
10.0
  1
PRE9
  7
STANDARD1
  0
ENDSEC
  0
EOF
