  0
SECTION
  2
HEADER
  9
$ACADVER
  1
AC1009
  9
$INSBASE
 10
0.0
 20
0.0
 30
0.0
  9
$EXTMIN
 10
-0.0000000000613909
 20
-2.960436562073669
 30
0.0
  9
$EXTMAX
 10
621.99999999993861
 20
271.0
 30
0.0
  9
$LIMMIN
 10
0.0
 20
0.0
  9
$LIMMAX
 10
750.0
 20
540.0
  9
$ORTHOMODE
 70
     1
  9
$REGENMODE
 70
     1
  9
$FILLMODE
 70
     1
  9
$QTEXTMODE
 70
     0
  9
$MIRRTEXT
 70
     0
  9
$DRAGMODE
 70
     2
  9
$LTSCALE
 40
20.0
  9
$OSMODE
 70
    37
  9
$ATTMODE
 70
     1
  9
$TEXTSIZE
 40
4.000000000000048
  9
$TRACEWID
 40
0.05
  9
$TEXTSTYLE
  7
STANDARD
  9
$CLAYER
  8
0
  9
$CELTYPE
  6
BYLAYER
  9
$CECOLOR
 62
   256
  9
$DIMSCALE
 40
2.0
  9
$DIMASZ
 40
3.0
  9
$DIMEXO
 40
2.0
  9
$DIMDLI
 40
0.38
  9
$DIMRND
 40
0.0
  9
$DIMDLE
 40
0.0
  9
$DIMEXE
 40
2.0
  9
$DIMTP
 40
0.0
  9
$DIMTM
 40
0.0
  9
$DIMTXT
 40
3.2000000000000002
  9
$DIMCEN
 40
0.0
  9
$DIMTSZ
 40
0.0
  9
$DIMTOL
 70
     0
  9
$DIMLIM
 70
     0
  9
$DIMTIH
 70
     0
  9
$DIMTOH
 70
     0
  9
$DIMSE1
 70
     0
  9
$DIMSE2
 70
     0
  9
$DIMTAD
 70
     1
  9
$DIMZIN
 70
     0
  9
$DIMBLK
  1

  9
$DIMASO
 70
     1
  9
$DIMSHO
 70
     0
  9
$DIMPOST
  1

  9
$DIMAPOST
  1

  9
$DIMALT
 70
     0
  9
$DIMALTD
 70
     2
  9
$DIMALTF
 40
25.399999999999999
  9
$DIMLFAC
 40
1.0
  9
$DIMTOFL
 70
     1
  9
$DIMTVP
 40
1.6000000000000001
  9
$DIMTIX
 70
     1
  9
$DIMSOXD
 70
     0
  9
$DIMSAH
 70
     0
  9
$DIMBLK1
  1

  9
$DIMBLK2
  1

  9
$DIMSTYLE
  2
STANDARD
  9
$DIMCLRD
 70
     0
  9
$DIMCLRE
 70
     0
  9
$DIMCLRT
 70
     0
  9
$DIMTFAC
 40
1.0
  9
$DIMGAP
 40
0.09
  9
$LUNITS
 70
     2
  9
$LUPREC
 70
     4
  9
$SKETCHINC
 40
0.1
  9
$FILLETRAD
 40
0.0
  9
$AUNITS
 70
     1
  9
$AUPREC
 70
     4
  9
$MENU
  1
E:\r13\win\SUPPORT\ACAD
  9
$ELEVATION
 40
0.0
  9
$PELEVATION
 40
0.0
  9
$THICKNESS
 40
0.0
  9
$LIMCHECK
 70
     0
  9
$BLIPMODE
 70
     0
  9
$CHAMFERA
 40
0.0
  9
$CHAMFERB
 40
0.0
  9
$SKPOLY
 70
     0
  9
$TDCREATE
 40
2449839.7810069448
  9
$TDUPDATE
 40
2457637.5664337622
  9
$TDINDWG
 40
0.2922931366
  9
$TDUSRTIMER
 40
0.2922931366
  9
$USRTIMER
 70
     1
  9
$ANGBASE
 50
0.0
  9
$ANGDIR
 70
     0
  9
$PDMODE
 70
     0
  9
$PDSIZE
 40
0.0
  9
$PLINEWID
 40
0.0
  9
$COORDS
 70
     1
  9
$SPLFRAME
 70
     0
  9
$SPLINETYPE
 70
     6
  9
$SPLINESEGS
 70
     8
  9
$ATTDIA
 70
     0
  9
$ATTREQ
 70
     1
  9
$HANDLING
 70
     1
  9
$HANDSEED
  5
10A6
  9
$SURFTAB1
 70
     6
  9
$SURFTAB2
 70
     6
  9
$SURFTYPE
 70
     6
  9
$SURFU
 70
     6
  9
$SURFV
 70
     6
  9
$UCSNAME
  2

  9
$UCSORG
 10
0.0
 20
0.0
 30
0.0
  9
$UCSXDIR
 10
1.0
 20
0.0
 30
0.0
  9
$UCSYDIR
 10
0.0
 20
1.0
 30
0.0
  9
$PUCSNAME
  2

  9
$PUCSORG
 10
0.0
 20
0.0
 30
0.0
  9
$PUCSXDIR
 10
1.0
 20
0.0
 30
0.0
  9
$PUCSYDIR
 10
0.0
 20
1.0
 30
0.0
  9
$USERI1
 70
     0
  9
$USERI2
 70
     1
  9
$USERI3
 70
     1
  9
$USERI4
 70
     0
  9
$USERI5
 70
     0
  9
$USERR1
 40
0.0
  9
$USERR2
 40
0.0
  9
$USERR3
 40
0.0
  9
$USERR4
 40
0.0
  9
$USERR5
 40
0.0
  9
$WORLDVIEW
 70
     1
  9
$SHADEDGE
 70
     3
  9
$SHADEDIF
 70
    70
  9
$TILEMODE
 70
     1
  9
$MAXACTVP
 70
    16
  9
$PLIMCHECK
 70
     0
  9
$PEXTMIN
 10
1.0000000000000000E+020
 20
1.0000000000000000E+020
 30
1.0000000000000000E+020
  9
$PEXTMAX
 10
-1.0000000000000000E+020
 20
-1.0000000000000000E+020
 30
-1.0000000000000000E+020
  9
$PLIMMIN
 10
0.0
 20
0.0
  9
$PLIMMAX
 10
12.0
 20
9.0
  9
$UNITMODE
 70
     0
  9
$VISRETAIN
 70
     0
  9
$PLINEGEN
 70
     0
  9
$PSLTSCALE
 70
     0
  0
ENDSEC
  0
SECTION
  2
TABLES
  0
TABLE
  2
VPORT
 70
     1
  0
VPORT
  2
*ACTIVE
 70
     0
 10
0.0
 20
0.0
 11
1.0
 21
1.0
 12
373.2827519358583
 22
134.01856855774929
 13
0.0
 23
0.0
 14
20.0
 24
20.0
 15
20.0
 25
20.0
 16
0.0
 26
0.0
 36
1.0
 17
0.0
 27
0.0
 37
0.0
 40
421.62725347395138
 41
1.368715083798882
 42
50.0
 43
0.0
 44
0.0
 50
0.0
 51
0.0
 71
     0
 72
   500
 73
     1
 74
     0
 75
     0
 76
     0
 77
     0
 78
     2
  0
ENDTAB
  0
TABLE
  2
LTYPE
 70
     3
  0
LTYPE
  2
CONTINUOUS
 70
     0
  3
Solid Line
 72
    65
 73
     0
 40
0.0
  0
LTYPE
  2
CENTER
 70
     0
  3
____ _ ____ _ ____ _ ____ _ ____ _ ____ _ ____
 72
    65
 73
     4
 40
2.0
 49
1.25
 49
-0.25
 49
0.25
 49
-0.25
  0
LTYPE
  2
PHANTOM2
 70
     0
  3
___ _ _ ___ _ _ ___ _ _ ___ _ _
 72
    65
 73
     6
 40
1.25
 49
0.625
 49
-0.125
 49
0.125
 49
-0.125
 49
0.125
 49
-0.125
  0
ENDTAB
  0
TABLE
  2
LAYER
 70
     2
  0
LAYER
  2
0
 70
     0
 62
     7
  6
CONTINUOUS
  0
LAYER
  2
1
 70
     0
 62
     1
  6
CENTER
  0
ENDTAB
  0
TABLE
  2
STYLE
 70
     2
  0
STYLE
  2
STANDARD
 70
     0
 40
0.0
 41
1.0
 50
0.0
 71
     0
 42
4.000000000000048
  3
TXT
  4
BIGFONT
  0
STYLE
  2
STANDARD1
 70
     0
 40
0.0
 41
1.0
 50
0.0
 71
     0
 42
3.0
  3
txt
  4

  0
ENDTAB
  0
TABLE
  2
VIEW
 70
     1
  0
VIEW
  2
ALL
 70
     0
 40
540.0
 10
441.98319327731087
 20
270.0
 41
0.0
 11
0.0
 21
0.0
 31
1.0
 12
0.0
 22
0.0
 32
0.0
 42
0.0
 43
0.0
 44
0.0
 50
0.0
 71
     0
  0
ENDTAB
  0
TABLE
  2
UCS
 70
     0
  0
ENDTAB
  0
TABLE
  2
APPID
 70
     5
  0
APPID
  2
ACAD
 70
     0
  0
APPID
  2
ACAD_MLEADERVER
 70
     0
  0
APPID
  2
ACAD_EXEMPT_FROM_CAD_STANDARDS
 70
     0
  0
APPID
  2
ACAD_NAV_VCDISPLAY
 70
     0
  0
APPID
  2
ACAD_PSEXT
 70
     0
  0
ENDTAB
  0
TABLE
  2
DIMSTYLE
 70
     2
  0
DIMSTYLE
  2
STANDARD
 70
     0
  3

  4

  5

  6

  7

 40
1.0
 41
0.18
 42
0.0625
 43
0.38
 44
0.18
 45
0.0
 46
0.0
 47
0.0
 48
0.0
140
0.18
141
0.09
142
0.0
143
25.399999999999999
144
1.0
145
0.0
146
1.0
147
0.09
 71
     0
 72
     0
 73
     1
 74
     1
 75
     0
 76
     0
 77
     0
 78
     0
170
     0
171
     2
172
     0
173
     0
174
     0
175
     0
176
     0
177
     0
178
     0
  0
DIMSTYLE
  2
ISO-25
 70
     0
  3

  4

  5

  6

  7

 40
1.0
 41
2.5
 42
0.625
 43
3.75
 44
1.25
 45
0.0
 46
0.0
 47
0.0
 48
0.0
140
2.5
141
2.5
142
0.0
143
0.0393700787
144
1.0
145
0.0
146
1.0
147
0.625
 71
     0
 72
     0
 73
     0
 74
     0
 75
     0
 76
     0
 77
     1
 78
     8
170
     0
171
     3
172
     1
173
     0
174
     0
175
     0
176
     0
177
     0
178
     0
  0
ENDTAB
  0
ENDSEC
  0
SECTION
  2
BLOCKS
  0
BLOCK
  8
0
  2
$MODEL_SPACE
 70
     0
 10
0.0
 20
0.0
 30
0.0
  3
$MODEL_SPACE
  1

  0
ENDBLK
  5
193
  8
0
  0
BLOCK
 67
     1
  8
0
  2
$PAPER_SPACE
 70
     0
 10
0.0
 20
0.0
 30
0.0
  3
$PAPER_SPACE
  1

  0
ENDBLK
  5
191
 67
     1
  8
0
  0
BLOCK
  8
0
  2
SW_CENTERMARKSYMBOL_0
 70
     0
 10
0.0
 20
0.0
 30
0.0
  3
SW_CENTERMARKSYMBOL_0
  1

  0
LINE
  5
31B
  8
0
  6
CONTINUOUS
 62
     0
 10
0.0
 20
0.0
 30
0.0
 11
0.0
 21
2.0
 31
0.0
  0
LINE
  5
31C
  8
0
  6
CONTINUOUS
 62
     0
 10
0.0
 20
0.0
 30
0.0
 11
-2.0
 21
0.0
 31
0.0
  0
LINE
  5
31D
  8
0
  6
CONTINUOUS
 62
     0
 10
0.0
 20
0.0
 30
0.0
 11
0.0
 21
-2.0
 31
0.0
  0
LINE
  5
31E
  8
0
  6
CONTINUOUS
 62
     0
 10
0.0
 20
0.0
 30
0.0
 11
2.0
 21
0.0
 31
0.0
  0
LINE
  5
31F
  8
0
  6
CONTINUOUS
 62
     0
 10
0.0
 20
4.0
 30
0.0
 11
0.0
 21
20.800000000000001
 31
0.0
  0
LINE
  5
320
  8
0
  6
CONTINUOUS
 62
     0
 10
-4.0
 20
0.0
 30
0.0
 11
-20.800000000000001
 21
0.0
 31
0.0
  0
LINE
  5
321
  8
0
  6
CONTINUOUS
 62
     0
 10
0.0
 20
-4.0
 30
0.0
 11
0.0
 21
-20.800000000000001
 31
0.0
  0
LINE
  5
322
  8
0
  6
CONTINUOUS
 62
     0
 10
4.0
 20
0.0
 30
0.0
 11
20.800000000000001
 21
0.0
 31
0.0
  0
ENDBLK
  5
323
  8
0
  0
BLOCK
  8
0
  2
SW_CENTERMARKSYMBOL_1
 70
     0
 10
0.0
 20
0.0
 30
0.0
  3
SW_CENTERMARKSYMBOL_1
  1

  0
LINE
  5
326
  8
0
  6
CONTINUOUS
 62
     0
 10
0.0
 20
0.0
 30
0.0
 11
0.0
 21
2.0
 31
0.0
  0
LINE
  5
327
  8
0
  6
CONTINUOUS
 62
     0
 10
0.0
 20
0.0
 30
0.0
 11
-2.0
 21
0.0
 31
0.0
  0
LINE
  5
328
  8
0
  6
CONTINUOUS
 62
     0
 10
0.0
 20
0.0
 30
0.0
 11
0.0
 21
-2.0
 31
0.0
  0
LINE
  5
329
  8
0
  6
CONTINUOUS
 62
     0
 10
0.0
 20
0.0
 30
0.0
 11
2.0
 21
0.0
 31
0.0
  0
LINE
  5
32A
  8
0
  6
CONTINUOUS
 62
     0
 10
0.0
 20
4.0
 30
0.0
 11
0.0
 21
20.800000000000001
 31
0.0
  0
LINE
  5
32B
  8
0
  6
CONTINUOUS
 62
     0
 10
-4.0
 20
0.0
 30
0.0
 11
-20.800000000000001
 21
0.0
 31
0.0
  0
LINE
  5
32C
  8
0
  6
CONTINUOUS
 62
     0
 10
0.0
 20
-4.0
 30
0.0
 11
0.0
 21
-20.800000000000001
 31
0.0
  0
LINE
  5
32D
  8
0
  6
CONTINUOUS
 62
     0
 10
4.0
 20
0.0
 30
0.0
 11
20.800000000000001
 21
0.0
 31
0.0
  0
ENDBLK
  5
32E
  8
0
  0
BLOCK
  8
0
  2
SW_CENTERMARKSYMBOL_2
 70
     0
 10
0.0
 20
0.0
 30
0.0
  3
SW_CENTERMARKSYMBOL_2
  1

  0
LINE
  5
331
  8
0
  6
CONTINUOUS
 62
     0
 10
0.0
 20
0.0
 30
0.0
 11
0.0
 21
2.0
 31
0.0
  0
LINE
  5
332
  8
0
  6
CONTINUOUS
 62
     0
 10
0.0
 20
0.0
 30
0.0
 11
-2.0
 21
0.0
 31
0.0
  0
LINE
  5
333
  8
0
  6
CONTINUOUS
 62
     0
 10
0.0
 20
0.0
 30
0.0
 11
0.0
 21
-2.0
 31
0.0
  0
LINE
  5
334
  8
0
  6
CONTINUOUS
 62
     0
 10
0.0
 20
0.0
 30
0.0
 11
2.0
 21
0.0
 31
0.0
  0
LINE
  5
335
  8
0
  6
CONTINUOUS
 62
     0
 10
0.0
 20
4.0
 30
0.0
 11
0.0
 21
11.75
 31
0.0
  0
LINE
  5
336
  8
0
  6
CONTINUOUS
 62
     0
 10
-4.0
 20
0.0
 30
0.0
 11
-11.75
 21
0.0
 31
0.0
  0
LINE
  5
337
  8
0
  6
CONTINUOUS
 62
     0
 10
0.0
 20
-4.0
 30
0.0
 11
0.0
 21
-11.75
 31
0.0
  0
LINE
  5
338
  8
0
  6
CONTINUOUS
 62
     0
 10
4.0
 20
0.0
 30
0.0
 11
11.75
 21
0.0
 31
0.0
  0
ENDBLK
  5
339
  8
0
  0
ENDSEC
  0
SECTION
  2
ENTITIES
  0
TEXT
  5
27D
  8
0
 62
     3
 10
0.0
 20
0.0
 30
0.0
 40
10.0
  1
PSN100F
  7
STANDARD1
  0
LINE
  5
C64
  8
0
 10
87.699999999938655
 20
258.75
 30
0.0
 11
62.158053254838592
 21
256.65400055340001
 31
0.0
  0
LINE
  5
C65
  8
0
 10
62.158053254838592
 20
239.34599944659999
 30
0.0
 11
87.699999999938655
 21
237.25
 31
0.0
  0
LINE
  5
C66
  8
0
 10
87.699999999938655
 20
237.25
 30
0.0
 11
113.8744732727385
 21
237.25
 31
0.0
  0
LINE
  5
C67
  8
0
 10
113.8744732727385
 20
258.75
 30
0.0
 11
87.699999999938655
 21
258.75
 31
0.0
  0
ARC
  5
C68
  8
0
 10
113.8744732727385
 20
256.60000000000002
 30
0.0
 40
2.1500000000000128
 50
19.471217558501049
 51
90.0
  0
ARC
  5
C69
  8
0
 10
113.8744732727385
 20
239.40000000000009
 30
0.0
 40
2.1500000000000341
 50
270.0
 51
340.52878244149889
  0
ARC
  5
C6A
  8
0
 10
89.549999999938677
 20
248.0
 30
0.0
 40
27.949999999999712
 50
340.52877960209889
 51
19.471220397900989
  0
ARC
  5
C6B
  8
0
 10
62.216666666538572
 20
255.93973479109999
 30
0.0
 40
0.7166666666666913
 50
94.691241439199018
 51
180.0
  0
ARC
  5
C6C
  8
0
 10
62.216666666538572
 20
240.06026520890001
 30
0.0
 40
0.7166666666666631
 50
180.0
 51
265.30875856080098
  0
LINE
  5
C6D
  8
0
 10
60.999999999938609
 20
240.47499999999999
 30
0.0
 11
61.499999999938609
 21
240.47499999999999
 31
0.0
  0
LINE
  5
C6E
  8
0
 10
61.499999999938609
 20
255.52500000000001
 30
0.0
 11
60.999999999938609
 21
255.52500000000001
 31
0.0
  0
LINE
  5
C6F
  8
0
 10
36.299802003638547
 20
160.999996544
 30
0.0
 11
58.40039599253862
 21
161.38576384699999
 31
0.0
  0
LINE
  5
C70
  8
0
 10
58.40039599253862
 20
260.61423615299998
 30
0.0
 11
36.299802003638547
 21
261.000003456
 31
0.0
  0
LINE
  5
C71
  8
0
 10
36.299802003638547
 20
261.000003456
 30
0.0
 11
34.999999999938609
 21
259.72269158440002
 31
0.0
  0
LINE
  5
C72
  8
0
 10
34.999999999938609
 20
162.2773084156
 30
0.0
 11
36.299802003638547
 21
160.999996544
 31
0.0
  0
LINE
  5
C73
  8
0
 10
58.40039599253862
 20
161.38576384699999
 30
0.0
 11
60.999999999938609
 21
164.03114010370001
 31
0.0
  0
LINE
  5
C74
  8
0
 10
60.999999999938609
 20
257.96885989629999
 30
0.0
 11
58.40039599253862
 21
260.61423615299998
 31
0.0
  0
ARC
  5
C75
  8
0
 10
33.500813088638672
 20
188.90000000000001
 30
0.0
 40
2.6000000000000218
 50
54.787515802097751
 51
90.0
  0
ARC
  5
C76
  8
0
 10
33.500813088638672
 20
233.09999999999999
 30
0.0
 40
2.6000000000000218
 50
270.0
 51
305.2124841979022
  0
LINE
  5
C77
  8
0
 10
33.500813088638672
 20
230.5
 30
0.0
 11
21.999999999938609
 21
230.50000000000011
 31
0.0
  0
LINE
  5
C78
  8
0
 10
21.999999999938609
 20
191.5
 30
0.0
 11
33.500813088638672
 21
191.5
 31
0.0
  0
LINE
  5
C79
  8
0
 10
21.999999999938609
 20
223.0
 30
0.0
 11
10.59999999993863
 21
223.0
 31
0.0
  0
LINE
  5
C7A
  8
0
 10
10.59999999993863
 20
199.0
 30
0.0
 11
21.999999999938609
 21
199.0
 31
0.0
  0
LINE
  5
C7B
  8
0
 10
10.59999999993863
 20
223.0
 30
0.0
 11
9.9999999999386091
 21
222.40000000000009
 31
0.0
  0
LINE
  5
C7C
  8
0
 10
9.9999999999386091
 20
199.60000000000011
 30
0.0
 11
10.59999999993863
 21
199.0
 31
0.0
  0
LINE
  5
C7D
  8
0
 10
87.699999999938655
 20
258.75
 30
0.0
 11
87.699999999938655
 21
237.25
 31
0.0
  0
LINE
  5
C7E
  8
0
 10
61.499999999938609
 20
255.93973479109999
 30
0.0
 11
61.499999999938609
 21
240.06026520890001
 31
0.0
  0
LINE
  5
C7F
  8
0
 10
36.299802003638547
 20
261.000003456
 30
0.0
 11
36.299802003638547
 21
160.999996544
 31
0.0
  0
LINE
  5
C80
  8
0
 10
58.40039599253862
 20
161.38576384699999
 30
0.0
 11
58.40039599253862
 21
260.61423615299998
 31
0.0
  0
LINE
  5
C81
  8
0
 10
34.999999999938609
 20
259.72269158440002
 30
0.0
 11
34.999999999938609
 21
162.2773084156
 31
0.0
  0
LINE
  5
C82
  8
0
 10
60.999999999938609
 20
164.03114010370001
 30
0.0
 11
60.999999999938609
 21
257.96885989629999
 31
0.0
  0
LINE
  5
C83
  8
0
 10
21.999999999938609
 20
230.50000000000011
 30
0.0
 11
21.999999999938609
 21
191.5
 31
0.0
  0
LINE
  5
C84
  8
0
 10
10.59999999993863
 20
223.0
 30
0.0
 11
10.59999999993863
 21
199.0
 31
0.0
  0
LINE
  5
C85
  8
0
 10
9.9999999999386091
 20
222.40000000000009
 30
0.0
 11
9.9999999999386091
 21
199.60000000000011
 31
0.0
  0
LINE
  5
C87
  8
0
 10
113.8744732727385
 20
237.25
 30
0.0
 11
113.8744732727385
 21
258.75
 31
0.0
  0
LINE
  5
C89
  8
0
 10
33.500813088638672
 20
191.5
 30
0.0
 11
33.500813088638672
 21
230.5
 31
0.0
  0
LINE
  5
C8A
  8
0
 10
200.24999999995001
 20
87.700000000000045
 30
0.0
 11
202.34599944665001
 21
62.158053254899983
 31
0.0
  0
LINE
  5
C8B
  8
0
 10
219.65400055334999
 20
62.158053254899983
 30
0.0
 11
221.74999999995001
 21
87.700000000000045
 31
0.0
  0
LINE
  5
C8C
  8
0
 10
221.74999999995001
 20
87.700000000000045
 30
0.0
 11
221.74999999995009
 21
113.8744732728
 31
0.0
  0
LINE
  5
C8D
  8
0
 10
200.24999999995009
 20
113.8744732728
 30
0.0
 11
200.24999999995001
 21
87.700000000000045
 31
0.0
  0
ARC
  5
C8E
  8
0
 10
202.39999999995001
 20
113.8744732728
 30
0.0
 40
2.1500000000000341
 50
109.4712175585036
 51
180.0
  0
ARC
  5
C8F
  8
0
 10
219.59999999995009
 20
113.8744732728
 30
0.0
 40
2.1500000000000341
 50
0.0
 51
70.528782441496418
  0
ARC
  5
C91
  8
0
 10
210.99999999992599
 20
89.550000000091686
 30
0.0
 40
27.949999999905309
 50
70.52877960200567
 51
109.4712203979183
  0
ARC
  5
C92
  8
0
 10
203.06026520885001
 20
62.21666666660002
 30
0.0
 40
0.7166666666666631
 50
184.69124143919899
 51
270.0
  0
ARC
  5
C93
  8
0
 10
218.9397347911499
 20
62.216666666599963
 30
0.0
 40
0.7166666666666631
 50
270.0
 51
355.30875856080098
  0
LINE
  5
C94
  8
0
 10
218.5249999999501
 20
61.0
 30
0.0
 11
218.5249999999501
 21
61.5
 31
0.0
  0
LINE
  5
C95
  8
0
 10
203.47499999995
 20
61.5
 30
0.0
 11
203.47499999995
 21
61.0
 31
0.0
  0
LINE
  5
C96
  8
0
 10
261.00000345605008
 20
36.299802003699988
 30
0.0
 11
260.6142361529499
 21
58.400395992600011
 31
0.0
  0
LINE
  5
C97
  8
0
 10
161.38576384695
 20
58.400395992600011
 30
0.0
 11
160.99999654395
 21
36.299802003699988
 31
0.0
  0
LINE
  5
C98
  8
0
 10
160.99999654395
 20
36.299802003699988
 30
0.0
 11
162.27730841555001
 21
35.0
 31
0.0
  0
LINE
  5
C99
  8
0
 10
259.72269158435012
 20
35.0
 30
0.0
 11
261.00000345605008
 21
36.299802003699988
 31
0.0
  0
LINE
  5
C9A
  8
0
 10
260.6142361529499
 20
58.400395992600011
 30
0.0
 11
257.96885989625002
 21
61.0
 31
0.0
  0
LINE
  5
C9B
  8
0
 10
164.03114010374989
 20
61.0
 30
0.0
 11
161.38576384695
 21
58.400395992600011
 31
0.0
  0
ARC
  5
C9C
  8
0
 10
233.09999999995
 20
33.500813088699999
 30
0.0
 40
2.599999999999965
 50
144.7875158021005
 51
180.0
  0
ARC
  5
C9D
  8
0
 10
188.89999999995001
 20
33.500813088699999
 30
0.0
 40
2.600000000000005
 50
0.0
 51
35.212484197899478
  0
LINE
  5
C9E
  8
0
 10
191.49999999994989
 20
33.500813088699999
 30
0.0
 11
191.49999999994989
 21
22.0
 31
0.0
  0
LINE
  5
C9F
  8
0
 10
230.49999999995001
 20
22.0
 30
0.0
 11
230.49999999995001
 21
33.500813088699999
 31
0.0
  0
LINE
  5
CA0
  8
0
 10
198.99999999994989
 20
22.0
 30
0.0
 11
198.99999999994989
 21
10.600000000000019
 31
0.0
  0
LINE
  5
CA1
  8
0
 10
222.99999999995001
 20
10.600000000000019
 30
0.0
 11
222.99999999995001
 21
22.0
 31
0.0
  0
LINE
  5
CA2
  8
0
 10
198.99999999994989
 20
10.600000000000019
 30
0.0
 11
199.59999999995
 21
10.0
 31
0.0
  0
LINE
  5
CA3
  8
0
 10
222.3999999999501
 20
10.0
 30
0.0
 11
222.99999999995001
 21
10.600000000000019
 31
0.0
  0
LINE
  5
CA4
  8
0
 10
200.24999999995001
 20
87.700000000000045
 30
0.0
 11
221.74999999995001
 21
87.700000000000045
 31
0.0
  0
LINE
  5
CA5
  8
0
 10
203.06026520885001
 20
61.5
 30
0.0
 11
218.9397347911499
 21
61.5
 31
0.0
  0
LINE
  5
CA7
  8
0
 10
160.99999654395
 20
36.299802003699988
 30
0.0
 11
261.00000345605019
 21
36.299802003700052
 31
0.0
  0
LINE
  5
CA8
  8
0
 10
260.61423615295013
 20
58.400395992600011
 30
0.0
 11
161.38576384695
 21
58.400395992600011
 31
0.0
  0
LINE
  5
CAA
  8
0
 10
162.27730841555001
 20
35.0
 30
0.0
 11
259.72269158435012
 21
35.0
 31
0.0
  0
LINE
  5
CAB
  8
0
 10
257.96885989625002
 20
61.0
 30
0.0
 11
164.03114010374989
 21
61.0
 31
0.0
  0
LINE
  5
CAC
  8
0
 10
191.49999999994989
 20
22.0
 30
0.0
 11
230.49999999995001
 21
22.0
 31
0.0
  0
LINE
  5
CAE
  8
0
 10
198.99999999994989
 20
10.600000000000019
 30
0.0
 11
222.99999999994989
 21
10.600000000000019
 31
0.0
  0
LINE
  5
CAF
  8
0
 10
199.59999999995
 20
10.0
 30
0.0
 11
222.3999999999501
 21
10.0
 31
0.0
  0
LINE
  5
CB1
  8
0
 10
221.74999999995001
 20
113.8744732728
 30
0.0
 11
200.24999999995001
 21
113.8744732728
 31
0.0
  0
LINE
  5
CB3
  8
0
 10
230.49999999995001
 20
33.500813088699999
 30
0.0
 11
191.49999999994989
 21
33.500813088699999
 31
0.0
  0
CIRCLE
  5
CB6
  8
0
 10
210.99999999993861
 20
248.0
 30
0.0
 40
10.75
  0
ARC
  5
CB8
  8
0
 10
210.99999999993861
 20
211.0
 30
0.0
 40
46.968859896273017
 50
95.531371419601186
 51
84.468628580379146
  0
ARC
  5
CBA
  8
0
 10
210.99999999993861
 20
211.0
 30
0.0
 40
31.339133784469642
 50
105.423324648597
 51
74.576675351402983
  0
LINE
  5
CBB
  8
0
 10
202.99999999993861
 20
240.81929669182739
 30
0.0
 11
202.99999999993861
 21
238.33960880410001
 31
0.0
  0
ARC
  5
CBC
  8
0
 10
210.99999999993861
 20
211.0
 30
0.0
 40
28.693757527732711
 50
106.1889731152999
 51
73.811026884700055
  0
LINE
  5
CBD
  8
0
 10
218.99999999993861
 20
238.33960880410001
 30
0.0
 11
218.99999999993861
 21
240.81929669182739
 31
0.0
  0
CIRCLE
  5
CBE
  8
0
 10
210.99999999993861
 20
211.0
 30
0.0
 40
50.000003456038222
  0
POLYLINE
  5
CBF
  8
0
 66
     1
 10
0.0
 20
0.0
 30
0.0
 70
   128
  0
VERTEX
  5
1096
  8
0
 10
202.99999999993861
 20
238.33960880410001
 30
0.0
  0
VERTEX
  5
1097
  8
0
 10
204.9642902547387
 20
238.83926036080001
 30
0.0
  0
VERTEX
  5
1098
  8
0
 10
205.2707566602387
 20
238.90394202109999
 30
0.0
  0
SEQEND
  5
1099
  8
0
  0
POLYLINE
  5
CC0
  8
0
 66
     1
 10
0.0
 20
0.0
 30
0.0
 70
   128
  0
VERTEX
  5
109A
  8
0
 10
216.7292433395387
 20
238.90394202109999
 30
0.0
  0
VERTEX
  5
109B
  8
0
 10
217.03570974503859
 20
238.83926036080001
 30
0.0
  0
VERTEX
  5
109C
  8
0
 10
218.99999999993861
 20
238.33960880410001
 30
0.0
  0
SEQEND
  5
109D
  8
0
  0
CIRCLE
  5
CC3
  8
0
 10
210.99999999993861
 20
211.0
 30
0.0
 40
17.500000000000028
  0
ARC
  5
CC5
  8
0
 10
210.99999999993861
 20
211.0
 30
0.0
 40
26.999999999999989
 50
97.155860549906606
 51
82.844139450099959
  0
LINE
  5
CCB
  8
0
 10
556.4999999999385
 20
211.7999999999999
 30
0.0
 11
558.59599944663842
 21
237.34194674509999
 31
0.0
  0
ARC
  5
CCC
  8
0
 10
558.64999999993836
 20
185.62552672719991
 30
0.0
 40
2.150000000000023
 50
180.0
 51
250.52878244149639
  0
LINE
  5
CCD
  8
0
 10
556.4999999999385
 20
185.62552672719991
 30
0.0
 11
556.4999999999385
 21
211.7999999999999
 31
0.0
  0
ARC
  5
CCF
  8
0
 10
559.31026520883847
 20
237.28333333329999
 30
0.0
 40
0.7166666666666642
 50
90.0
 51
175.30875856080101
  0
LINE
  5
CD0
  8
0
 10
559.72499999993852
 20
238.0
 30
0.0
 11
559.72499999993852
 21
238.5
 31
0.0
  0
LINE
  5
CD1
  8
0
 10
585.70019799623844
 20
160.99999654399991
 30
0.0
 11
563.59960400733848
 21
161.38576384699979
 31
0.0
  0
LINE
  5
CD2
  8
0
 10
563.59960400733848
 20
260.61423615299998
 30
0.0
 11
585.70019799623844
 21
261.000003456
 31
0.0
  0
LINE
  5
CD3
  8
0
 10
585.70019799623844
 20
261.000003456
 30
0.0
 11
586.99999999993861
 21
259.72269158440002
 31
0.0
  0
LINE
  5
CD4
  8
0
 10
586.99999999993861
 20
162.27730841559989
 30
0.0
 11
585.70019799623844
 21
160.99999654399991
 31
0.0
  0
LINE
  5
CD5
  8
0
 10
563.59960400733848
 20
161.38576384699979
 30
0.0
 11
560.99999999993861
 21
164.0311401036999
 31
0.0
  0
LINE
  5
CD6
  8
0
 10
560.99999999993861
 20
257.96885989629999
 30
0.0
 11
563.59960400733848
 21
260.61423615299998
 31
0.0
  0
ARC
  5
CD7
  8
0
 10
588.49918691123855
 20
188.89999999999989
 30
0.0
 40
2.6000000000000361
 50
90.0
 51
125.21248419790329
  0
ARC
  5
CD8
  8
0
 10
588.49918691123855
 20
233.09999999999991
 30
0.0
 40
2.5999999999999961
 50
234.78751580209669
 51
270.0
  0
LINE
  5
CD9
  8
0
 10
588.49918691123855
 20
230.5
 30
0.0
 11
599.99999999993861
 21
230.5
 31
0.0
  0
LINE
  5
CDA
  8
0
 10
599.99999999993861
 20
191.5
 30
0.0
 11
588.49918691123855
 21
191.5
 31
0.0
  0
LINE
  5
CDB
  8
0
 10
599.99999999993861
 20
223.0
 30
0.0
 11
611.39999999993847
 21
223.0
 31
0.0
  0
LINE
  5
CDC
  8
0
 10
611.39999999993847
 20
199.0
 30
0.0
 11
599.99999999993861
 21
199.0
 31
0.0
  0
LINE
  5
CDD
  8
0
 10
611.39999999993847
 20
223.0
 30
0.0
 11
611.99999999993861
 21
222.40000000000001
 31
0.0
  0
LINE
  5
CDE
  8
0
 10
611.99999999993861
 20
199.59999999999991
 30
0.0
 11
611.39999999993847
 21
199.0
 31
0.0
  0
LINE
  5
CDF
  8
0
 10
556.4999999999385
 20
211.7999999999999
 30
0.0
 11
560.99999999993861
 21
211.7999999999999
 31
0.0
  0
LINE
  5
CE0
  8
0
 10
559.31026520883847
 20
238.0
 30
0.0
 11
560.99999999993861
 21
238.0
 31
0.0
  0
LINE
  5
CE1
  8
0
 10
559.72499999993852
 20
238.5
 30
0.0
 11
560.99999999993861
 21
238.5
 31
0.0
  0
LINE
  5
CE2
  8
0
 10
585.70019799623844
 20
261.000003456
 30
0.0
 11
585.70019799623844
 21
160.99999654399991
 31
0.0
  0
LINE
  5
CE3
  8
0
 10
563.59960400733848
 20
161.38576384699979
 30
0.0
 11
563.59960400733848
 21
260.61423615299998
 31
0.0
  0
LINE
  5
CE4
  8
0
 10
586.99999999993861
 20
259.72269158440002
 30
0.0
 11
586.99999999993861
 21
162.27730841559989
 31
0.0
  0
LINE
  5
CE5
  8
0
 10
560.99999999993861
 20
164.0311401036999
 30
0.0
 11
560.99999999993861
 21
257.96885989629999
 31
0.0
  0
LINE
  5
CE6
  8
0
 10
599.99999999993861
 20
230.5
 30
0.0
 11
599.99999999993861
 21
191.5
 31
0.0
  0
LINE
  5
CE7
  8
0
 10
611.39999999993847
 20
223.0
 30
0.0
 11
611.39999999993847
 21
199.0
 31
0.0
  0
LINE
  5
CE8
  8
0
 10
611.99999999993861
 20
222.40000000000001
 30
0.0
 11
611.99999999993861
 21
199.59999999999991
 31
0.0
  0
LINE
  5
CEA
  8
0
 10
560.99999999993861
 20
185.62552672719991
 30
0.0
 11
556.4999999999385
 21
185.62552672719991
 31
0.0
  0
LINE
  5
CEC
  8
0
 10
588.49918691123855
 20
191.5
 30
0.0
 11
588.49918691123855
 21
230.5
 31
0.0
  0
LINE
  5
CED
  8
0
 10
421.74999999993861
 20
211.7999999999999
 30
0.0
 11
419.65400055333851
 21
237.34194674509999
 31
0.0
  0
LINE
  5
CEE
  8
0
 10
402.3459994465386
 20
237.34194674509999
 30
0.0
 11
400.2499999999385
 21
211.7999999999999
 31
0.0
  0
LINE
  5
CEF
  8
0
 10
400.2499999999385
 20
211.7999999999999
 30
0.0
 11
400.2499999999385
 21
185.62552672719991
 31
0.0
  0
LINE
  5
CF0
  8
0
 10
421.74999999993861
 20
185.62552672719991
 30
0.0
 11
421.74999999993861
 21
211.7999999999999
 31
0.0
  0
ARC
  5
CF1
  8
0
 10
419.59999999993852
 20
185.62552672719991
 30
0.0
 40
2.1500000000000341
 50
317.5959251238225
 51
0.0
  0
ARC
  5
CF2
  8
0
 10
402.3999999999387
 20
185.62552672719991
 30
0.0
 40
2.1500000000000821
 50
180.0
 51
222.4040748761775
  0
ARC
  5
CF3
  8
0
 10
418.93973479103852
 20
237.28333333329999
 30
0.0
 40
0.7166666666666927
 50
4.6912414391990227
 51
90.0
  0
ARC
  5
CF4
  8
0
 10
403.06026520883859
 20
237.28333333329999
 30
0.0
 40
0.7166666666666403
 50
90.0
 51
175.30875856080101
  0
LINE
  5
CF5
  8
0
 10
403.47499999993852
 20
238.5
 30
0.0
 11
403.47499999993852
 21
238.0
 31
0.0
  0
LINE
  5
CF6
  8
0
 10
418.5249999999387
 20
238.0
 30
0.0
 11
418.5249999999387
 21
238.5
 31
0.0
  0
LINE
  5
CF7
  8
0
 10
416.37499999993861
 20
238.5
 30
0.0
 11
416.04917687063858
 21
241.59999999999991
 31
0.0
  0
LINE
  5
CF8
  8
0
 10
405.95082312923859
 20
241.59999999999991
 30
0.0
 11
405.6249999999385
 21
238.5
 31
0.0
  0
LINE
  5
CFB
  8
0
 10
410.99999999993861
 20
211.7999999999999
 30
0.0
 11
400.2499999999385
 21
211.7999999999999
 31
0.0
  0
LINE
  5
CFC
  8
0
 10
421.74999999993861
 20
211.7999999999999
 30
0.0
 11
410.99999999993861
 21
211.7999999999999
 31
0.0
  0
LINE
  5
CFD
  8
0
 10
418.93973479103852
 20
237.99999999996669
 30
0.0
 11
403.06026520883859
 21
238.0
 31
0.0
  0
LINE
  5
CFF
  8
0
 10
418.5249999999387
 20
238.5
 30
0.0
 11
403.47499999993852
 21
238.5
 31
0.0
  0
LINE
  5
D00
  8
0
 10
416.04917687063858
 20
241.59999999999991
 30
0.0
 11
405.95082312923859
 21
241.59999999999991
 31
0.0
  0
ARC
  5
D04
  8
0
 10
410.99999999993861
 20
248.0
 30
0.0
 40
5.3750000000009051
 50
300.0
 51
239.99999999999909
  0
ARC
  5
D06
  8
0
 10
410.99999999993861
 20
248.0
 30
0.0
 40
7.420000000000007
 50
300.39773275671968
 51
239.60226724328021
  0
ARC
  5
D10
  8
0
 10
410.99999999993861
 20
248.0
 30
0.0
 40
5.0491768706740974
 50
302.15861817130173
 51
237.8413818286983
  0
LINE
  5
D16
  8
0
 10
413.04249999993863
 20
252.27452112189999
 30
0.0
 11
408.95749999993859
 21
252.27452112189999
 31
0.0
  0
ARC
  5
D17
  8
0
 10
408.95749999993859
 20
251.62952112190001
 30
0.0
 40
0.6450000000000105
 50
90.0
 51
180.0
  0
ARC
  5
D18
  8
0
 10
413.04249999993863
 20
251.62952112190001
 30
0.0
 40
0.6450000000000105
 50
0.0
 51
90.0
  0
LINE
  5
D19
  8
0
 10
408.31249999993861
 20
251.62952112190001
 30
0.0
 11
408.31249999993861
 21
241.59999999999991
 31
0.0
  0
LINE
  5
D1A
  8
0
 10
413.68749999993832
 20
241.59999999999991
 30
0.0
 11
413.68749999993861
 21
251.62952112190001
 31
0.0
  0
CIRCLE
  5
D1C
  8
0
 10
410.99999999993861
 20
211.0
 30
0.0
 40
46.968859896273003
  0
LINE
  5
D1D
  8
0
 10
418.9999999999385
 20
241.30084662780001
 30
0.0
 11
418.9999999999385
 21
248.0
 31
0.0
  0
ARC
  5
D1E
  8
0
 10
410.99999999993861
 20
248.0
 30
0.0
 40
8.0000000000000249
 50
306.86989764584479
 51
233.13010235415521
  0
LINE
  5
D1F
  8
0
 10
402.99999999993861
 20
248.0
 30
0.0
 11
402.99999999993861
 21
241.30084662780001
 31
0.0
  0
ARC
  5
D20
  8
0
 10
410.99999999993861
 20
211.0
 30
0.0
 40
31.33913378446961
 50
104.7896966686986
 51
75.210303331301361
  0
LINE
  5
D21
  8
0
 10
402.99999999993861
 20
241.30084662780001
 30
0.0
 11
402.99999999993861
 21
238.5559743261
 31
0.0
  0
ARC
  5
D22
  8
0
 10
410.99999999993861
 20
211.0
 30
0.0
 40
28.693757527732689
 50
106.1889731152999
 51
252.73924310604301
  0
ARC
  5
D23
  8
0
 10
410.99999999993861
 20
211.0
 30
0.0
 40
28.693757527732679
 50
287.26075689395691
 51
73.811026884700055
  0
LINE
  5
D24
  8
0
 10
418.9999999999385
 20
238.5559743261
 30
0.0
 11
418.9999999999385
 21
241.30084662780001
 31
0.0
  0
CIRCLE
  5
D25
  8
0
 10
410.99999999993861
 20
211.0
 30
0.0
 40
50.000003456038307
  0
LINE
  5
D26
  8
0
 10
402.99999999993861
 20
238.33960880410001
 30
0.0
 11
403.47499999993852
 21
238.47414392779999
 31
0.0
  0
POLYLINE
  5
D27
  8
0
 66
     1
 10
0.0
 20
0.0
 30
0.0
 70
   128
  0
VERTEX
  5
109E
  8
0
 10
403.57004646283838
 20
238.5
 30
0.0
  0
VERTEX
  5
109F
  8
0
 10
404.96429025473861
 20
238.8392603607999
 30
0.0
  0
VERTEX
  5
10A0
  8
0
 10
405.67587734463859
 20
238.98406560020001
 30
0.0
  0
SEQEND
  5
10A1
  8
0
  0
POLYLINE
  5
D28
  8
0
 66
     1
 10
0.0
 20
0.0
 30
0.0
 70
   128
  0
VERTEX
  5
10A2
  8
0
 10
416.32412265523851
 20
238.98406560020001
 30
0.0
  0
VERTEX
  5
10A3
  8
0
 10
417.03570974513849
 20
238.8392603607999
 30
0.0
  0
VERTEX
  5
10A4
  8
0
 10
418.42995353703873
 20
238.5
 30
0.0
  0
SEQEND
  5
10A5
  8
0
  0
LINE
  5
D29
  8
0
 10
418.5249999999387
 20
238.47414392779999
 30
0.0
 11
418.9999999999385
 21
238.33960880410001
 31
0.0
  0
LINE
  5
D2A
  8
0
 10
402.99999999993861
 20
238.5559743261
 30
0.0
 11
402.99999999993861
 21
238.33960880410001
 31
0.0
  0
LINE
  5
D2B
  8
0
 10
418.9999999999385
 20
238.33960880410001
 30
0.0
 11
418.9999999999385
 21
238.5559743261
 31
0.0
  0
ARC
  5
D2D
  8
0
 10
410.99999999993861
 20
211.0
 30
0.0
 40
17.500000000000021
 50
123.3309467562032
 51
232.09996266460169
  0
ARC
  5
D2E
  8
0
 10
410.99999999993861
 20
211.0
 30
0.0
 40
17.500000000000011
 50
307.90003733539828
 51
56.669053243758711
  0
ARC
  5
D32
  8
0
 10
410.99999999993861
 20
211.0
 30
0.0
 40
27.000000000000039
 50
180.0
 51
246.53753878750001
  0
ARC
  5
D33
  8
0
 10
410.99999999993861
 20
211.0
 30
0.0
 40
27.000000000000011
 50
293.46246121249999
 51
71.160715251596642
  0
ARC
  5
D35
  8
0
 10
410.99999999993861
 20
211.0
 30
0.0
 40
27.0
 50
108.8392847484033
 51
180.0
  0
LINE
  5
D38
  8
0
 10
410.99999999993861
 20
185.62552672719991
 30
0.0
 11
421.74999999993861
 21
185.62552672719991
 31
0.0
  0
LINE
  5
D39
  8
0
 10
400.2499999999385
 20
185.62552672719991
 30
0.0
 11
410.99999999993861
 21
185.62552672719991
 31
0.0
  0
LINE
  5
D3A
  8
0
 10
402.4859633525283
 20
183.59848724929819
 30
0.0
 11
419.5140366473488
 21
183.59848724929819
 31
0.0
  0
LINE
  5
D42
  8
0
 10
461.0000034560498
 20
36.299802003699988
 30
0.0
 11
460.61423615295001
 21
58.40039599260006
 31
0.0
  0
LINE
  5
D43
  8
0
 10
361.38576384694989
 20
58.40039599260006
 30
0.0
 11
360.99999654394992
 21
36.299802003699988
 31
0.0
  0
LINE
  5
D44
  8
0
 10
360.99999654394992
 20
36.299802003699988
 30
0.0
 11
362.2773084155499
 21
35.000000000000057
 31
0.0
  0
LINE
  5
D45
  8
0
 10
459.72269158434977
 20
35.000000000000057
 30
0.0
 11
461.0000034560498
 21
36.299802003699988
 31
0.0
  0
LINE
  5
D46
  8
0
 10
460.61423615295001
 20
58.40039599260006
 30
0.0
 11
457.96885989625002
 21
61.00000000000005
 31
0.0
  0
LINE
  5
D47
  8
0
 10
364.03114010365022
 20
61.00000000000005
 30
0.0
 11
361.38576384694989
 21
58.40039599260006
 31
0.0
  0
ARC
  5
D48
  8
0
 10
433.09999999994977
 20
33.500813088699999
 30
0.0
 40
2.600000000000021
 50
144.7875158021005
 51
180.0
  0
ARC
  5
D49
  8
0
 10
388.89999999995013
 20
33.500813088699999
 30
0.0
 40
2.600000000000021
 50
0.0
 51
35.212484197899478
  0
LINE
  5
D4A
  8
0
 10
391.49999999994998
 20
33.500813088699999
 30
0.0
 11
391.49999999994998
 21
22.0
 31
0.0
  0
LINE
  5
D4B
  8
0
 10
430.49999999994992
 20
22.0
 30
0.0
 11
430.49999999994992
 21
33.500813088699999
 31
0.0
  0
LINE
  5
D4C
  8
0
 10
398.99999999994998
 20
10.600000000000019
 30
0.0
 11
399.59999999994989
 21
10.0
 31
0.0
  0
LINE
  5
D4D
  8
0
 10
422.39999999995013
 20
10.0
 30
0.0
 11
422.99999999994992
 21
10.600000000000019
 31
0.0
  0
LINE
  5
D4E
  8
0
 10
398.99999999994998
 20
22.0
 30
0.0
 11
398.99999999994998
 21
10.600000000000019
 31
0.0
  0
LINE
  5
D4F
  8
0
 10
422.99999999994992
 20
10.600000000000019
 30
0.0
 11
422.99999999994992
 21
22.0
 31
0.0
  0
ARC
  5
D51
  8
0
 10
410.99999999994998
 20
54.75000000000005
 30
0.0
 40
10.75
 50
35.548744002870691
 51
144.45125599709951
  0
LINE
  5
D53
  8
0
 10
360.99999654394992
 20
36.299802003699988
 30
0.0
 11
461.0000034560498
 21
36.299802003699988
 31
0.0
  0
LINE
  5
D54
  8
0
 10
460.61423615294979
 20
58.40039599260006
 30
0.0
 11
361.38576384694989
 21
58.40039599260006
 31
0.0
  0
LINE
  5
D56
  8
0
 10
362.2773084155499
 20
35.000000000000057
 30
0.0
 11
459.72269158434977
 21
35.000000000000057
 31
0.0
  0
LINE
  5
D57
  8
0
 10
457.96885989625002
 20
61.00000000000005
 30
0.0
 11
364.03114010365022
 21
61.00000000000005
 31
0.0
  0
LINE
  5
D58
  8
0
 10
391.49999999994998
 20
22.0
 30
0.0
 11
430.49999999994992
 21
22.0
 31
0.0
  0
LINE
  5
D59
  8
0
 10
399.59999999994989
 20
10.0
 30
0.0
 11
422.39999999995013
 21
10.0
 31
0.0
  0
LINE
  5
D5B
  8
0
 10
398.99999999994998
 20
10.600000000000019
 30
0.0
 11
422.99999999994992
 21
10.599999999999961
 31
0.0
  0
LINE
  5
D5E
  8
0
 10
430.49999999994992
 20
33.500813088699999
 30
0.0
 11
391.49999999994998
 21
33.500813088699999
 31
0.0
  0
ARC
  5
D60
  8
0
 10
411.0099999999386
 20
247.42773943904999
 30
0.0
 40
3.64500000000002
 50
42.656634614396822
 51
90.0
  0
ARC
  5
D61
  8
0
 10
410.9899999999385
 20
247.42773943904999
 30
0.0
 40
3.645000000000008
 50
90.0
 51
137.3622430578948
  0
LINE
  5
D62
  8
0
 10
411.0099999999386
 20
251.07273943905
 30
0.0
 11
410.9899999999385
 21
251.07273943905
 31
0.0
  0
LINE
  5
D63
  8
0
 10
413.68749999993861
 20
247.42773943904999
 30
0.0
 11
408.31249999993861
 21
247.42773943904999
 31
0.0
  0
LINE
  5
E50
  8
1
 10
470.99999999993861
 20
211.0
 30
0.0
 11
350.99999999993861
 21
211.0
 31
0.0
  0
LINE
  5
E51
  8
1
 10
410.99999999993861
 20
271.0
 30
0.0
 11
410.99999999993861
 21
151.0
 31
0.0
  0
LINE
  5
E52
  8
1
 10
210.99999999993861
 20
271.0
 30
0.0
 11
210.99999999993861
 21
151.0
 31
0.0
  0
LINE
  5
E53
  8
1
 10
270.99999999993861
 20
211.0
 30
0.0
 11
150.99999999993861
 21
211.0
 31
0.0
  0
LINE
  5
E55
  8
1
 10
190.24999999993861
 20
248.0
 30
0.0
 11
231.74999999993861
 21
248.0
 31
0.0
  0
LINE
  5
E57
  8
1
 10
392.99999999993861
 20
248.0
 30
0.0
 11
428.99999999993861
 21
248.0
 31
0.0
  0
LINE
  5
E5A
  8
1
 10
550.99999999993861
 20
211.0
 30
0.0
 11
621.99999999993861
 21
210.99999999999989
 31
0.0
  0
LINE
  5
E5B
  8
1
 10
550.99999999993861
 20
248.0
 30
0.0
 11
596.99999999993861
 21
248.0
 31
0.0
  0
LINE
  5
E60
  8
1
 10
410.99999999995009
 20
75.500000000000057
 30
0.0
 11
410.99999999994998
 21
0.0
 31
0.0
  0
LINE
  5
E63
  8
1
 10
390.24999999994998
 20
54.75000000000005
 30
0.0
 11
431.74999999994992
 21
54.75000000000005
 31
0.0
  0
LINE
  5
E66
  8
1
 10
210.9999999999261
 20
127.499999999997
 30
0.0
 11
210.99999999995001
 21
0.0
 31
0.0
  0
LINE
  5
E69
  8
1
 10
192.99999999993969
 20
54.75000000000005
 30
0.0
 11
228.99999999993969
 21
54.75000000000005
 31
0.0
  0
LINE
  5
E6C
  8
1
 10
-0.0000000000613909
 20
211.00000000000011
 30
0.0
 11
70.999999999938609
 21
211.0
 31
0.0
  0
LINE
  5
E6F
  8
1
 10
127.4999999999383
 20
248.0
 30
0.0
 11
24.999999999938609
 21
248.0
 31
0.0
  0
ARC
  5
E70
  8
0
 10
567.24999999994805
 20
209.9500000000134
 30
0.0
 40
27.949999999999712
 50
250.52877960210239
 51
257.07863400543351
  0
LINE
  5
E72
  8
1
 10
567.24999999994805
 20
172.0000000000137
 30
0.0
 11
567.24999999994805
 21
258.0
 31
0.0
  0
LINE
  5
E9B
  8
1
 10
54.749999999929059
 20
238.0
 30
0.0
 11
54.749999999929059
 21
258.0
 31
0.0
  0
CIRCLE
  5
FC5
  8
0
 10
210.99999999993861
 20
211.0
 30
0.0
 40
11.0
  0
ARC
  5
FC6
  8
0
 10
410.99999999993861
 20
211.0
 30
0.0
 40
11.0
 50
163.81512480487521
 51
192.23875576794231
  0
ARC
  5
FC7
  8
0
 10
410.99999999993861
 20
211.0
 30
0.0
 40
11.0
 50
347.76124423205772
 51
16.184875195126669
  0
ENDSEC
  0
EOF
