  0
SECTION
  2
HEADER
  9
$ACADVER
  1
AC1009
  9
$INSBASE
 10
0.0
 20
0.0
 30
0.0
  9
$EXTMIN
 10
0.0
 20
-2.960436562073669
 30
0.0
  9
$EXTMAX
 10
737.09133749959335
 20
655.77513417249781
 30
0.0
  9
$LIMMIN
 10
0.0
 20
0.0
  9
$LIMMAX
 10
1125.0
 20
810.0
  9
$ORTHOMODE
 70
     1
  9
$REGENMODE
 70
     1
  9
$FILLMODE
 70
     1
  9
$QTEXTMODE
 70
     0
  9
$MIRRTEXT
 70
     0
  9
$DRAGMODE
 70
     2
  9
$LTSCALE
 40
30.0
  9
$OSMODE
 70
    37
  9
$ATTMODE
 70
     1
  9
$TEXTSIZE
 40
0.2
  9
$TRACEWID
 40
0.05
  9
$TEXTSTYLE
  7
STANDARD
  9
$CLAYER
  8
0
  9
$CELTYPE
  6
BYLAYER
  9
$CECOLOR
 62
   256
  9
$DIMSCALE
 40
3.0
  9
$DIMASZ
 40
3.0
  9
$DIMEXO
 40
2.0
  9
$DIMDLI
 40
0.3799999999999999
  9
$DIMRND
 40
0.0
  9
$DIMDLE
 40
0.0
  9
$DIMEXE
 40
2.0
  9
$DIMTP
 40
0.0
  9
$DIMTM
 40
0.0
  9
$DIMTXT
 40
3.2000000000000002
  9
$DIMCEN
 40
0.09
  9
$DIMTSZ
 40
0.0
  9
$DIMTOL
 70
     0
  9
$DIMLIM
 70
     0
  9
$DIMTIH
 70
     0
  9
$DIMTOH
 70
     0
  9
$DIMSE1
 70
     0
  9
$DIMSE2
 70
     0
  9
$DIMTAD
 70
     1
  9
$DIMZIN
 70
     0
  9
$DIMBLK
  1

  9
$DIMASO
 70
     1
  9
$DIMSHO
 70
     0
  9
$DIMPOST
  1

  9
$DIMAPOST
  1

  9
$DIMALT
 70
     0
  9
$DIMALTD
 70
     2
  9
$DIMALTF
 40
25.399999999999999
  9
$DIMLFAC
 40
1.0
  9
$DIMTOFL
 70
     0
  9
$DIMTVP
 40
1.6000000000000001
  9
$DIMTIX
 70
     1
  9
$DIMSOXD
 70
     0
  9
$DIMSAH
 70
     0
  9
$DIMBLK1
  1

  9
$DIMBLK2
  1

  9
$DIMSTYLE
  2
STANDARD
  9
$DIMCLRD
 70
     0
  9
$DIMCLRE
 70
     0
  9
$DIMCLRT
 70
     0
  9
$DIMTFAC
 40
1.0
  9
$DIMGAP
 40
0.09
  9
$LUNITS
 70
     2
  9
$LUPREC
 70
     4
  9
$SKETCHINC
 40
0.1
  9
$FILLETRAD
 40
1.25
  9
$AUNITS
 70
     0
  9
$AUPREC
 70
     0
  9
$MENU
  1
E:\r13\win\SUPPORT\ACAD
  9
$ELEVATION
 40
0.0
  9
$PELEVATION
 40
0.0
  9
$THICKNESS
 40
0.0
  9
$LIMCHECK
 70
     0
  9
$BLIPMODE
 70
     0
  9
$CHAMFERA
 40
0.0
  9
$CHAMFERB
 40
0.0
  9
$SKPOLY
 70
     0
  9
$TDCREATE
 40
2449839.7806365741
  9
$TDUPDATE
 40
2457637.5655810768
  9
$TDINDWG
 40
0.0326890625
  9
$TDUSRTIMER
 40
0.0326890625
  9
$USRTIMER
 70
     1
  9
$ANGBASE
 50
0.0
  9
$ANGDIR
 70
     0
  9
$PDMODE
 70
     0
  9
$PDSIZE
 40
0.0
  9
$PLINEWID
 40
0.0
  9
$COORDS
 70
     1
  9
$SPLFRAME
 70
     0
  9
$SPLINETYPE
 70
     6
  9
$SPLINESEGS
 70
     8
  9
$ATTDIA
 70
     0
  9
$ATTREQ
 70
     1
  9
$HANDLING
 70
     1
  9
$HANDSEED
  5
8C2
  9
$SURFTAB1
 70
     6
  9
$SURFTAB2
 70
     6
  9
$SURFTYPE
 70
     6
  9
$SURFU
 70
     6
  9
$SURFV
 70
     6
  9
$UCSNAME
  2

  9
$UCSORG
 10
0.0
 20
0.0
 30
0.0
  9
$UCSXDIR
 10
1.0
 20
0.0
 30
0.0
  9
$UCSYDIR
 10
0.0
 20
1.0
 30
0.0
  9
$PUCSNAME
  2

  9
$PUCSORG
 10
0.0
 20
0.0
 30
0.0
  9
$PUCSXDIR
 10
1.0
 20
0.0
 30
0.0
  9
$PUCSYDIR
 10
0.0
 20
1.0
 30
0.0
  9
$USERI1
 70
     0
  9
$USERI2
 70
     1
  9
$USERI3
 70
     1
  9
$USERI4
 70
     0
  9
$USERI5
 70
     0
  9
$USERR1
 40
0.0
  9
$USERR2
 40
0.0
  9
$USERR3
 40
0.0
  9
$USERR4
 40
0.0
  9
$USERR5
 40
0.0
  9
$WORLDVIEW
 70
     1
  9
$SHADEDGE
 70
     3
  9
$SHADEDIF
 70
    70
  9
$TILEMODE
 70
     1
  9
$MAXACTVP
 70
    16
  9
$PLIMCHECK
 70
     0
  9
$PEXTMIN
 10
1.0000000000000000E+020
 20
1.0000000000000000E+020
 30
1.0000000000000000E+020
  9
$PEXTMAX
 10
-1.0000000000000000E+020
 20
-1.0000000000000000E+020
 30
-1.0000000000000000E+020
  9
$PLIMMIN
 10
0.0
 20
0.0
  9
$PLIMMAX
 10
12.0
 20
9.0
  9
$UNITMODE
 70
     0
  9
$VISRETAIN
 70
     0
  9
$PLINEGEN
 70
     0
  9
$PSLTSCALE
 70
     0
  0
ENDSEC
  0
SECTION
  2
TABLES
  0
TABLE
  2
VPORT
 70
     1
  0
VPORT
  2
*ACTIVE
 70
     0
 10
0.0
 20
0.0
 11
1.0
 21
1.0
 12
452.22088361255982
 22
326.42057065260838
 13
0.0
 23
0.0
 14
30.0
 24
30.0
 15
30.0
 25
30.0
 16
0.0
 26
0.0
 36
1.0
 17
0.0
 27
0.0
 37
0.0
 40
566.26747231440686
 41
1.368715083798882
 42
50.0
 43
0.0
 44
0.0
 50
0.0
 51
0.0
 71
     0
 72
   500
 73
     1
 74
     0
 75
     0
 76
     0
 77
     0
 78
     2
  0
ENDTAB
  0
TABLE
  2
LTYPE
 70
     4
  0
LTYPE
  2
CONTINUOUS
 70
     0
  3
Solid Line
 72
    65
 73
     0
 40
0.0
  0
LTYPE
  2
CENTER
 70
     0
  3
____ _ ____ _ ____ _ ____ _ ____ _ ____ _ ____
 72
    65
 73
     4
 40
2.0
 49
1.25
 49
-0.25
 49
0.25
 49
-0.25
  0
LTYPE
  2
PHANTOM2
 70
     0
  3
___ _ _ ___ _ _ ___ _ _ ___ _ _
 72
    65
 73
     6
 40
1.25
 49
0.625
 49
-0.125
 49
0.125
 49
-0.125
 49
0.125
 49
-0.125
  0
LTYPE
  2
HIDDEN
 70
     0
  3
_ _ _ _ _ _ _ _ _ _ _ _ _ _ _ _ _ _ _ _ _ _ _
 72
    65
 73
     2
 40
0.375
 49
0.25
 49
-0.125
  0
ENDTAB
  0
TABLE
  2
LAYER
 70
     2
  0
LAYER
  2
0
 70
     0
 62
     7
  6
CONTINUOUS
  0
LAYER
  2
1
 70
     0
 62
     1
  6
CENTER
  0
ENDTAB
  0
TABLE
  2
STYLE
 70
     2
  0
STYLE
  2
STANDARD
 70
     0
 40
0.0
 41
1.0
 50
0.0
 71
     0
 42
0.2
  3
TXT
  4
BIGFONT
  0
STYLE
  2
STANDARD1
 70
     0
 40
0.0
 41
1.0
 50
0.0
 71
     0
 42
3.0
  3
txt
  4

  0
ENDTAB
  0
TABLE
  2
VIEW
 70
     1
  0
VIEW
  2
ALL
 70
     0
 40
810.0
 10
662.97478991596643
 20
405.0
 41
0.0
 11
0.0
 21
0.0
 31
1.0
 12
0.0
 22
0.0
 32
0.0
 42
0.0
 43
0.0
 44
0.0
 50
0.0
 71
     0
  0
ENDTAB
  0
TABLE
  2
UCS
 70
     0
  0
ENDTAB
  0
TABLE
  2
APPID
 70
     4
  0
APPID
  2
ACAD
 70
     0
  0
APPID
  2
ACAD_MLEADERVER
 70
     0
  0
APPID
  2
ACAD_EXEMPT_FROM_CAD_STANDARDS
 70
     0
  0
APPID
  2
ACAD_NAV_VCDISPLAY
 70
     0
  0
ENDTAB
  0
TABLE
  2
DIMSTYLE
 70
     2
  0
DIMSTYLE
  2
STANDARD
 70
     0
  3

  4

  5

  6

  7

 40
1.0
 41
0.18
 42
0.0625
 43
0.38
 44
0.18
 45
0.0
 46
0.0
 47
0.0
 48
0.0
140
0.18
141
0.09
142
0.0
143
25.399999999999999
144
1.0
145
0.0
146
1.0
147
0.09
 71
     0
 72
     0
 73
     1
 74
     1
 75
     0
 76
     0
 77
     0
 78
     0
170
     0
171
     2
172
     0
173
     0
174
     0
175
     0
176
     0
177
     0
178
     0
  0
DIMSTYLE
  2
ISO-25
 70
     0
  3

  4

  5

  6

  7

 40
1.0
 41
2.5
 42
0.625
 43
3.75
 44
1.25
 45
0.0
 46
0.0
 47
0.0
 48
0.0
140
2.5
141
2.5
142
0.0
143
0.0393700787
144
1.0
145
0.0
146
1.0
147
0.625
 71
     0
 72
     0
 73
     0
 74
     0
 75
     0
 76
     0
 77
     1
 78
     8
170
     0
171
     3
172
     1
173
     0
174
     0
175
     0
176
     0
177
     0
178
     0
  0
ENDTAB
  0
ENDSEC
  0
SECTION
  2
BLOCKS
  0
BLOCK
  8
0
  2
$MODEL_SPACE
 70
     0
 10
0.0
 20
0.0
 30
0.0
  3
$MODEL_SPACE
  1

  0
ENDBLK
  5
14C
  8
0
  0
BLOCK
 67
     1
  8
0
  2
$PAPER_SPACE
 70
     0
 10
0.0
 20
0.0
 30
0.0
  3
$PAPER_SPACE
  1

  0
ENDBLK
  5
14A
 67
     1
  8
0
  0
ENDSEC
  0
SECTION
  2
ENTITIES
  0
TEXT
  5
2A8
  8
0
 62
     3
 10
0.0
 20
0.0
 30
0.0
 40
10.0
  1
PSN250
  7
STANDARD1
  0
CIRCLE
  5
740
  8
0
 10
287.80945943065848
 20
622.27512938721384
 30
0.0
 40
14.0
  0
CIRCLE
  5
741
  8
0
 10
287.80945943065848
 20
516.27512938721384
 30
0.0
 40
120.303036779455
  0
CIRCLE
  5
742
  8
0
 10
287.80945943065848
 20
516.27512938721384
 30
0.0
 40
87.003366188120097
  0
CIRCLE
  5
743
  8
0
 10
287.80945943065848
 20
516.27512938721384
 30
0.0
 40
83.340537524945915
  0
CIRCLE
  5
744
  8
0
 10
287.80945943065848
 20
516.27512938721384
 30
0.0
 40
124.50000478528401
  0
CIRCLE
  5
745
  8
0
 10
287.80945943065848
 20
516.27512938721384
 30
0.0
 40
54.999999999999972
  0
CIRCLE
  5
746
  8
0
 10
287.80945943065848
 20
516.27512938721384
 30
0.0
 40
33.0
  0
LINE
  5
747
  8
0
 10
615.79133749959351
 20
608.27512938716382
 30
0.0
 11
645.79133749959351
 21
611.27512938716382
 31
0.0
  0
LINE
  5
748
  8
0
 10
645.79133749959351
 20
633.27512938716382
 30
0.0
 11
615.79133749959351
 21
636.27512938716382
 31
0.0
  0
LINE
  5
749
  8
0
 10
615.79133749959351
 20
636.27512938716382
 30
0.0
 11
559.03994266909353
 21
636.27512938716382
 31
0.0
  0
LINE
  5
74A
  8
0
 10
559.03994266909353
 20
608.27512938716382
 30
0.0
 11
615.79133749959351
 21
608.27512938716382
 31
0.0
  0
ARC
  5
74B
  8
0
 10
559.03994266909353
 20
609.67512938716379
 30
0.0
 40
1.400000000000017
 50
194.0136155638001
 51
270.0
  0
ARC
  5
74C
  8
0
 10
559.03994266909353
 20
634.87512938716372
 30
0.0
 40
1.4000000000000239
 50
90.0
 51
165.98638443619981
  0
ARC
  5
74D
  8
0
 10
609.52467083289343
 20
622.27512938716382
 30
0.0
 40
53.433333333331063
 50
165.98638443619981
 51
194.0136155638001
  0
LINE
  5
74E
  8
0
 10
646.09133749959335
 20
628.77512938716382
 30
0.0
 11
645.79133749959351
 21
628.77512938716382
 31
0.0
  0
LINE
  5
74F
  8
0
 10
645.79133749959351
 20
615.77512938716382
 30
0.0
 11
646.09133749959335
 21
615.77512938716382
 31
0.0
  0
LINE
  5
750
  8
0
 10
680.29161164829338
 20
391.77512460196368
 30
0.0
 11
682.09133749959335
 21
393.54371027036382
 31
0.0
  0
LINE
  5
751
  8
0
 10
682.09133749959335
 20
639.00654850406374
 30
0.0
 11
680.29161164829338
 21
640.77513417246382
 31
0.0
  0
LINE
  5
752
  8
0
 10
680.29161164829338
 20
640.77513417246382
 30
0.0
 11
649.69078920219329
 21
640.24099482986378
 31
0.0
  0
LINE
  5
753
  8
0
 10
649.69078920219329
 20
392.30926394456378
 30
0.0
 11
680.29161164829338
 21
391.77512460196368
 31
0.0
  0
LINE
  5
754
  8
0
 10
649.69078920219329
 20
640.24099482986378
 30
0.0
 11
646.09133749959335
 21
636.57816616666378
 31
0.0
  0
LINE
  5
755
  8
0
 10
646.09133749959335
 20
395.97209260776378
 30
0.0
 11
649.69078920219329
 21
392.30926394456378
 31
0.0
  0
LINE
  5
756
  8
0
 10
682.09133749959335
 20
453.42329712986373
 30
0.0
 11
691.79750226239344
 21
480.09076564516357
 31
0.0
  0
LINE
  5
757
  8
0
 10
691.79750226239344
 20
552.45949312926371
 30
0.0
 11
682.09133749959335
 21
579.12696164456372
 31
0.0
  0
ARC
  5
758
  8
0
 10
693.48894897979346
 20
553.07512938716366
 30
0.0
 40
1.8000000000000109
 50
199.9999999999944
 51
270.0
  0
ARC
  5
759
  8
0
 10
693.48894897979346
 20
479.47512938716369
 30
0.0
 40
1.8000000000000109
 50
90.0
 51
160.00000000000551
  0
LINE
  5
75A
  8
0
 10
693.48894897979346
 20
481.2751293871637
 30
0.0
 11
707.09133749959335
 21
481.2751293871637
 31
0.0
  0
LINE
  5
75B
  8
0
 10
707.09133749959335
 20
551.27512938716359
 30
0.0
 11
693.48894897979346
 21
551.27512938716359
 31
0.0
  0
LINE
  5
75C
  8
0
 10
721.34133749959335
 20
491.77512938716382
 30
0.0
 11
722.09133749959346
 21
492.5251293871637
 31
0.0
  0
LINE
  5
75D
  8
0
 10
722.09133749959346
 20
540.02512938716382
 30
0.0
 11
721.34133749959335
 21
540.7751293871637
 31
0.0
  0
LINE
  5
75E
  8
0
 10
707.09133749959335
 20
491.77512938716382
 30
0.0
 11
721.34133749959335
 21
491.77512938716382
 31
0.0
  0
LINE
  5
75F
  8
0
 10
721.34133749959335
 20
540.7751293871637
 30
0.0
 11
707.09133749959335
 21
540.7751293871637
 31
0.0
  0
LINE
  5
760
  8
0
 10
615.79133749959351
 20
608.27512938716382
 30
0.0
 11
615.79133749959351
 21
636.27512938716382
 31
0.0
  0
LINE
  5
761
  8
0
 10
645.79133749959351
 20
611.27512938716382
 30
0.0
 11
645.79133749959351
 21
633.27512938716382
 31
0.0
  0
LINE
  5
762
  8
0
 10
682.09133749959335
 20
393.54371027036382
 30
0.0
 11
682.09133749959335
 21
639.00654850406374
 31
0.0
  0
LINE
  5
763
  8
0
 10
680.29161164829316
 20
640.77513417246394
 30
0.0
 11
680.29161164829338
 21
391.77512460196368
 31
0.0
  0
LINE
  5
764
  8
0
 10
649.69078920219329
 20
640.24099482986378
 30
0.0
 11
649.69078920219329
 21
392.30926394456378
 31
0.0
  0
LINE
  5
765
  8
0
 10
646.09133749959369
 20
636.57816616666378
 30
0.0
 11
646.09133749959335
 21
395.97209260776378
 31
0.0
  0
LINE
  5
766
  8
0
 10
707.09133749959335
 20
481.2751293871637
 30
0.0
 11
707.09133749959335
 21
551.27512938716359
 31
0.0
  0
LINE
  5
767
  8
0
 10
722.09133749959346
 20
492.5251293871637
 30
0.0
 11
722.09133749959346
 21
540.02512938716382
 31
0.0
  0
LINE
  5
768
  8
0
 10
721.34133749959335
 20
491.77512938716382
 30
0.0
 11
721.34133749959335
 21
540.77512938716347
 31
0.0
  0
LINE
  5
769
  8
0
 10
559.03994266909353
 20
636.27512938716382
 30
0.0
 11
559.03994266909353
 21
608.27512938716382
 31
0.0
  0
LINE
  5
76A
  8
0
 10
693.48894897979346
 20
551.27512938716359
 30
0.0
 11
693.48894897979346
 21
481.2751293871637
 31
0.0
  0
LINE
  5
76B
  8
0
 10
273.80945943060851
 20
248.4432513182785
 30
0.0
 11
276.80945943060851
 21
218.4432513182785
 31
0.0
  0
LINE
  5
76C
  8
0
 10
298.80945943060851
 20
218.4432513182785
 30
0.0
 11
301.80945943060851
 21
248.4432513182785
 31
0.0
  0
LINE
  5
76D
  8
0
 10
301.80945943060851
 20
248.4432513182785
 30
0.0
 11
301.80945943060851
 21
305.19464614877847
 31
0.0
  0
LINE
  5
76E
  8
0
 10
273.80945943060851
 20
305.19464614877847
 30
0.0
 11
273.80945943060851
 21
248.4432513182785
 31
0.0
  0
ARC
  5
76F
  8
0
 10
275.2094594306086
 20
305.19464614877847
 30
0.0
 40
1.4000000000000781
 50
104.01361556379931
 51
180.0
  0
ARC
  5
770
  8
0
 10
300.40945943060859
 20
305.19464614877847
 30
0.0
 40
1.4000000000000721
 50
0.0
 51
75.986384436200709
  0
ARC
  5
771
  8
0
 10
287.80945943060851
 20
254.70991798497849
 30
0.0
 40
53.433333333331127
 50
75.986384436200709
 51
104.01361556379931
  0
LINE
  5
772
  8
0
 10
294.30945943060851
 20
218.1432513182784
 30
0.0
 11
294.30945943060851
 21
218.4432513182785
 31
0.0
  0
LINE
  5
773
  8
0
 10
281.30945943060851
 20
218.4432513182785
 30
0.0
 11
281.30945943060851
 21
218.1432513182784
 31
0.0
  0
LINE
  5
774
  8
0
 10
163.30945464530851
 20
183.9429771695784
 30
0.0
 11
165.07804031380849
 21
182.1432513182784
 31
0.0
  0
LINE
  5
775
  8
0
 10
410.5408785475085
 20
182.1432513182784
 30
0.0
 11
412.30946421590852
 21
183.9429771695784
 31
0.0
  0
LINE
  5
776
  8
0
 10
412.30946421590852
 20
183.9429771695784
 30
0.0
 11
411.77532487330859
 21
214.5437996157784
 31
0.0
  0
LINE
  5
777
  8
0
 10
163.84359398800871
 20
214.5437996157784
 30
0.0
 11
163.30945464530851
 21
183.9429771695784
 31
0.0
  0
LINE
  5
778
  8
0
 10
411.77532487330859
 20
214.5437996157784
 30
0.0
 11
408.11249621010842
 21
218.1432513182784
 31
0.0
  0
LINE
  5
779
  8
0
 10
167.5064226512086
 20
218.1432513182784
 30
0.0
 11
163.84359398800871
 21
214.5437996157784
 31
0.0
  0
LINE
  5
77A
  8
0
 10
224.95762717330859
 20
182.1432513182784
 30
0.0
 11
251.62509568860861
 21
172.43708655547829
 31
0.0
  0
LINE
  5
77B
  8
0
 10
323.9938231726087
 20
172.43708655547829
 30
0.0
 11
350.66129168800848
 21
182.1432513182784
 31
0.0
  0
ARC
  5
77C
  8
0
 10
324.60945943060869
 20
170.74563983807849
 30
0.0
 40
1.8000000000000109
 50
110.0000000000035
 51
180.0
  0
ARC
  5
77D
  8
0
 10
251.00945943060859
 20
170.74563983807849
 30
0.0
 40
1.7999999999999821
 50
0.0
 51
69.999999999996504
  0
LINE
  5
77E
  8
0
 10
252.80945943060851
 20
170.74563983807849
 30
0.0
 11
252.80945943060851
 21
157.1432513182784
 31
0.0
  0
LINE
  5
77F
  8
0
 10
322.80945943060851
 20
157.1432513182784
 30
0.0
 11
322.80945943060851
 21
170.74563983807849
 31
0.0
  0
LINE
  5
780
  8
0
 10
263.30945943060851
 20
142.8932513182784
 30
0.0
 11
264.05945943060851
 21
142.1432513182784
 31
0.0
  0
LINE
  5
781
  8
0
 10
311.55945943060851
 20
142.1432513182784
 30
0.0
 11
312.30945943060851
 21
142.8932513182784
 31
0.0
  0
LINE
  5
782
  8
0
 10
263.30945943060851
 20
157.1432513182784
 30
0.0
 11
263.30945943060851
 21
142.8932513182784
 31
0.0
  0
LINE
  5
783
  8
0
 10
312.30945943060851
 20
142.8932513182784
 30
0.0
 11
312.30945943060851
 21
157.1432513182784
 31
0.0
  0
LINE
  5
784
  8
0
 10
273.80945943060851
 20
248.4432513182785
 30
0.0
 11
301.80945943060868
 21
248.4432513182785
 31
0.0
  0
LINE
  5
785
  8
0
 10
276.80945943060851
 20
218.4432513182785
 30
0.0
 11
298.80945943060851
 21
218.4432513182785
 31
0.0
  0
LINE
  5
786
  8
0
 10
165.07804031380849
 20
182.1432513182784
 30
0.0
 11
410.5408785475085
 21
182.1432513182784
 31
0.0
  0
LINE
  5
787
  8
0
 10
412.30946421590852
 20
183.9429771695784
 30
0.0
 11
163.30945464530851
 21
183.9429771695784
 31
0.0
  0
LINE
  5
788
  8
0
 10
411.77532487330859
 20
214.5437996157784
 30
0.0
 11
163.84359398800871
 21
214.5437996157784
 31
0.0
  0
LINE
  5
789
  8
0
 10
408.11249621010842
 20
218.1432513182784
 30
0.0
 11
167.5064226512086
 21
218.1432513182784
 31
0.0
  0
LINE
  5
78A
  8
0
 10
252.80945943060851
 20
157.1432513182784
 30
0.0
 11
322.80945943060851
 21
157.1432513182784
 31
0.0
  0
LINE
  5
78B
  8
0
 10
264.05945943060851
 20
142.1432513182784
 30
0.0
 11
311.55945943060851
 21
142.1432513182784
 31
0.0
  0
LINE
  5
78C
  8
0
 10
263.30945943060851
 20
142.8932513182784
 30
0.0
 11
312.30945943060851
 21
142.8932513182784
 31
0.0
  0
LINE
  5
78D
  8
0
 10
301.80945943060851
 20
305.19464614877847
 30
0.0
 11
273.80945943060851
 21
305.19464614877847
 31
0.0
  0
LINE
  5
78E
  8
0
 10
322.80945943060851
 20
170.74563983807849
 30
0.0
 11
252.80945943060851
 21
170.74563983807849
 31
0.0
  0
CIRCLE
  5
78F
  8
0
 10
287.80945943065848
 20
516.27512938721384
 30
0.0
 40
20.0
  0
LINE
  5
799
  8
1
 10
148.30945464537439
 20
516.27512938721384
 30
0.0
 11
427.30946421594263
 21
516.27512938721384
 31
0.0
  0
LINE
  5
79A
  8
1
 10
287.80945943065848
 20
655.77513417249781
 30
0.0
 11
287.80945943065848
 21
376.77512460192992
 31
0.0
  0
LINE
  5
79B
  8
1
 10
258.80945943065859
 20
622.27512938721384
 30
0.0
 11
316.80945943065848
 21
622.27512938721384
 31
0.0
  0
LINE
  5
79C
  8
1
 10
541.09133749959335
 20
622.27512938721384
 30
0.0
 11
697.09133749959346
 21
622.27512938721384
 31
0.0
  0
LINE
  5
79D
  8
1
 10
631.09133749959335
 20
516.27512938721384
 30
0.0
 11
737.09133749959335
 21
516.27512938721384
 31
0.0
  0
LINE
  5
79E
  8
1
 10
287.80945943065848
 20
323.14325131827849
 30
0.0
 11
287.80945943065848
 21
127.1432513182785
 31
0.0
  0
ENDSEC
  0
EOF
