  0
SECTION
  2
HEADER
  9
$ACADVER
  1
AC1009
  9
$INSBASE
 10
0.0
 20
0.0
 30
0.0
  9
$EXTMIN
 10
0.0
 20
-2.960436562073669
 30
0.0
  9
$EXTMAX
 10
268.99999879300611
 20
205.99999803304669
 30
0.0
  9
$LIMMIN
 10
0.0
 20
0.0
  9
$LIMMAX
 10
375.0
 20
270.0
  9
$ORTHOMODE
 70
     0
  9
$REGENMODE
 70
     1
  9
$FILLMODE
 70
     1
  9
$QTEXTMODE
 70
     0
  9
$MIRRTEXT
 70
     0
  9
$DRAGMODE
 70
     2
  9
$LTSCALE
 40
10.0
  9
$OSMODE
 70
    37
  9
$ATTMODE
 70
     1
  9
$TEXTSIZE
 40
0.2
  9
$TRACEWID
 40
0.05
  9
$TEXTSTYLE
  7
STANDARD
  9
$CLAYER
  8
0
  9
$CELTYPE
  6
BYLAYER
  9
$CECOLOR
 62
   256
  9
$DIMSCALE
 40
1.0
  9
$DIMASZ
 40
3.0
  9
$DIMEXO
 40
2.0
  9
$DIMDLI
 40
0.38
  9
$DIMRND
 40
0.0
  9
$DIMDLE
 40
0.0
  9
$DIMEXE
 40
2.0
  9
$DIMTP
 40
0.0
  9
$DIMTM
 40
0.0
  9
$DIMTXT
 40
3.2000000000000002
  9
$DIMCEN
 40
0.0
  9
$DIMTSZ
 40
0.0
  9
$DIMTOL
 70
     0
  9
$DIMLIM
 70
     0
  9
$DIMTIH
 70
     0
  9
$DIMTOH
 70
     0
  9
$DIMSE1
 70
     0
  9
$DIMSE2
 70
     0
  9
$DIMTAD
 70
     1
  9
$DIMZIN
 70
     0
  9
$DIMBLK
  1

  9
$DIMASO
 70
     0
  9
$DIMSHO
 70
     0
  9
$DIMPOST
  1

  9
$DIMAPOST
  1

  9
$DIMALT
 70
     0
  9
$DIMALTD
 70
     2
  9
$DIMALTF
 40
25.399999999999999
  9
$DIMLFAC
 40
1.0
  9
$DIMTOFL
 70
     1
  9
$DIMTVP
 40
1.6000000000000001
  9
$DIMTIX
 70
     1
  9
$DIMSOXD
 70
     0
  9
$DIMSAH
 70
     0
  9
$DIMBLK1
  1

  9
$DIMBLK2
  1

  9
$DIMSTYLE
  2
STANDARD
  9
$DIMCLRD
 70
     0
  9
$DIMCLRE
 70
     0
  9
$DIMCLRT
 70
     0
  9
$DIMTFAC
 40
1.0
  9
$DIMGAP
 40
0.09
  9
$LUNITS
 70
     2
  9
$LUPREC
 70
     4
  9
$SKETCHINC
 40
0.1
  9
$FILLETRAD
 40
0.0
  9
$AUNITS
 70
     0
  9
$AUPREC
 70
     4
  9
$MENU
  1
E:\r13\win\SUPPORT\ACAD
  9
$ELEVATION
 40
0.0
  9
$PELEVATION
 40
0.0
  9
$THICKNESS
 40
0.0
  9
$LIMCHECK
 70
     0
  9
$BLIPMODE
 70
     0
  9
$CHAMFERA
 40
0.0
  9
$CHAMFERB
 40
0.0
  9
$SKPOLY
 70
     0
  9
$TDCREATE
 40
2449840.6513888892
  9
$TDUPDATE
 40
2459902.4455893291
  9
$TDINDWG
 40
0.0944459144
  9
$TDUSRTIMER
 40
0.0944459144
  9
$USRTIMER
 70
     1
  9
$ANGBASE
 50
0.0
  9
$ANGDIR
 70
     0
  9
$PDMODE
 70
     0
  9
$PDSIZE
 40
0.0
  9
$PLINEWID
 40
0.0
  9
$COORDS
 70
     1
  9
$SPLFRAME
 70
     0
  9
$SPLINETYPE
 70
     6
  9
$SPLINESEGS
 70
     8
  9
$ATTDIA
 70
     0
  9
$ATTREQ
 70
     1
  9
$HANDLING
 70
     1
  9
$HANDSEED
  5
1558
  9
$SURFTAB1
 70
     6
  9
$SURFTAB2
 70
     6
  9
$SURFTYPE
 70
     6
  9
$SURFU
 70
     6
  9
$SURFV
 70
     6
  9
$UCSNAME
  2

  9
$UCSORG
 10
0.0
 20
0.0
 30
0.0
  9
$UCSXDIR
 10
1.0
 20
0.0
 30
0.0
  9
$UCSYDIR
 10
0.0
 20
1.0
 30
0.0
  9
$PUCSNAME
  2

  9
$PUCSORG
 10
0.0
 20
0.0
 30
0.0
  9
$PUCSXDIR
 10
1.0
 20
0.0
 30
0.0
  9
$PUCSYDIR
 10
0.0
 20
1.0
 30
0.0
  9
$USERI1
 70
     0
  9
$USERI2
 70
     1
  9
$USERI3
 70
     0
  9
$USERI4
 70
     0
  9
$USERI5
 70
     0
  9
$USERR1
 40
0.0
  9
$USERR2
 40
0.0
  9
$USERR3
 40
0.0
  9
$USERR4
 40
0.0
  9
$USERR5
 40
0.0
  9
$WORLDVIEW
 70
     1
  9
$SHADEDGE
 70
     3
  9
$SHADEDIF
 70
    70
  9
$TILEMODE
 70
     1
  9
$MAXACTVP
 70
    16
  9
$PLIMCHECK
 70
     0
  9
$PEXTMIN
 10
1.0000000000000000E+020
 20
1.0000000000000000E+020
 30
1.0000000000000000E+020
  9
$PEXTMAX
 10
-1.0000000000000000E+020
 20
-1.0000000000000000E+020
 30
-1.0000000000000000E+020
  9
$PLIMMIN
 10
0.0
 20
0.0
  9
$PLIMMAX
 10
12.0
 20
9.0
  9
$UNITMODE
 70
     0
  9
$VISRETAIN
 70
     0
  9
$PLINEGEN
 70
     0
  9
$PSLTSCALE
 70
     0
  0
ENDSEC
  0
SECTION
  2
TABLES
  0
TABLE
  2
VPORT
 70
     1
  0
VPORT
  2
*ACTIVE
 70
     0
 10
0.0
 20
0.0
 11
1.0
 21
1.0
 12
250.54086538461539
 22
110.0
 13
0.0
 23
0.0
 14
5.0
 24
5.0
 15
10.0
 25
10.0
 16
0.0
 26
0.0
 36
1.0
 17
0.0
 27
0.0
 37
0.0
 40
220.0
 41
2.2776442307692299
 42
50.0
 43
0.0
 44
0.0
 50
0.0
 51
0.0
 71
     0
 72
   500
 73
     1
 74
     0
 75
     0
 76
     0
 77
     0
 78
     2
  0
ENDTAB
  0
TABLE
  2
LTYPE
 70
     4
  0
LTYPE
  2
CONTINUOUS
 70
     0
  3
Solid Line
 72
    65
 73
     0
 40
0.0
  0
LTYPE
  2
CENTER
 70
     0
  3
____ _ ____ _ ____ _ ____ _ ____ _ ____ _ ____
 72
    65
 73
     4
 40
2.0
 49
1.25
 49
-0.25
 49
0.25
 49
-0.25
  0
LTYPE
  2
HIDDEN
 70
     0
  3
_ _ _ _ _ _ _ _ _ _ _ _ _ _ _ _ _ _ _ _ _ _ _
 72
    65
 73
     2
 40
0.375
 49
0.25
 49
-0.125
  0
LTYPE
  2
PHANTOM2
 70
     0
  3
___ _ _ ___ _ _ ___ _ _ ___ _ _
 72
    65
 73
     6
 40
1.25
 49
0.625
 49
-0.125
 49
0.125
 49
-0.125
 49
0.125
 49
-0.125
  0
ENDTAB
  0
TABLE
  2
LAYER
 70
     4
  0
LAYER
  2
0
 70
     0
 62
     7
  6
CONTINUOUS
  0
LAYER
  2
1
 70
     0
 62
     1
  6
CENTER
  0
LAYER
  2
3
 70
     0
 62
     3
  6
CONTINUOUS
  0
LAYER
  2
2
 70
     0
 62
     2
  6
HIDDEN
  0
ENDTAB
  0
TABLE
  2
STYLE
 70
     2
  0
STYLE
  2
STANDARD
 70
     0
 40
0.0
 41
1.0
 50
0.0
 71
     0
 42
0.2
  3
TXT
  4
BIGFONT
  0
STYLE
  2
STANDARD1
 70
     0
 40
0.0
 41
1.0
 50
0.0
 71
     0
 42
3.0
  3
txt
  4

  0
ENDTAB
  0
TABLE
  2
VIEW
 70
     1
  0
VIEW
  2
ALL
 70
     0
 40
270.0
 10
220.99159663865549
 20
135.0
 41
0.0
 11
0.0
 21
0.0
 31
1.0
 12
0.0
 22
0.0
 32
0.0
 42
0.0
 43
0.0
 44
0.0
 50
0.0
 71
     0
  0
ENDTAB
  0
TABLE
  2
UCS
 70
     0
  0
ENDTAB
  0
TABLE
  2
APPID
 70
    14
  0
APPID
  2
ACAD
 70
     0
  0
APPID
  2
_CALL_MAC$
 70
     0
  0
APPID
  2
ACAD_MLEADERVER
 70
     0
  0
APPID
  2
ACAD_EXEMPT_FROM_CAD_STANDARDS
 70
     0
  0
APPID
  2
ACAD_NAV_VCDISPLAY
 70
     0
  0
APPID
  2
ACAD_PSEXT
 70
     0
  0
APPID
  2
ACAD_DSTYLE_DIMJAG
 70
     0
  0
APPID
  2
ACAD_DSTYLE_DIMTALN
 70
     0
  0
APPID
  2
ACAD_DSTYLE_DIMBREAK
 70
     0
  0
APPID
  2
ACAECLAYERSTANDARD
 70
     0
  0
APPID
  2
ACCMTRANSPARENCY
 70
     0
  0
APPID
  2
GRADIENTCOLOR1ACI
 70
     0
  0
APPID
  2
GRADIENTCOLOR2ACI
 70
     0
  0
APPID
  2
ACAD_DSTYLE_DIMRADIAL_EXTENSION
 70
     0
  0
ENDTAB
  0
TABLE
  2
DIMSTYLE
 70
     1
  0
DIMSTYLE
  2
STANDARD
 70
     0
  3

  4

  5

  6

  7

 40
1.0
 41
0.18
 42
0.0625
 43
0.38
 44
0.18
 45
0.0
 46
0.0
 47
0.0
 48
0.0
140
0.18
141
0.09
142
0.0
143
25.399999999999999
144
1.0
145
0.0
146
1.0
147
0.09
 71
     0
 72
     0
 73
     1
 74
     1
 75
     0
 76
     0
 77
     0
 78
     0
170
     0
171
     2
172
     0
173
     0
174
     0
175
     0
176
     0
177
     0
178
     0
  0
ENDTAB
  0
ENDSEC
  0
SECTION
  2
BLOCKS
  0
BLOCK
  8
0
  2
$MODEL_SPACE
 70
     0
 10
0.0
 20
0.0
 30
0.0
  3
$MODEL_SPACE
  1

  0
ENDBLK
  5
6E2
  8
0
  0
BLOCK
 67
     1
  8
0
  2
$PAPER_SPACE
 70
     0
 10
0.0
 20
0.0
 30
0.0
  3
$PAPER_SPACE
  1

  0
ENDBLK
  5
6E0
 67
     1
  8
0
  0
BLOCK
  8
0
  2
STDGX5
 70
     0
 10
0.0
 20
0.0
 30
0.0
  3
STDGX5
  1

  0
ENDBLK
  5
2C7
  8
0
  0
ENDSEC
  0
SECTION
  2
ENTITIES
  0
INSERT
  5
364
  8
0
  2
STDGX5
 10
0.0
 20
0.0
 30
0.0
  0
INSERT
  5
365
  8
0
  2
STDGX5
 10
0.0
 20
0.0
 30
0.0
  0
INSERT
  5
366
  8
0
  2
STDGX5
 10
275.0
 20
0.0
 30
0.0
  0
INSERT
  5
367
  8
0
  2
STDGX5
 10
275.0
 20
0.0
 30
0.0
  0
INSERT
  5
4ED
  8
0
  2
STDGX5
 10
0.0
 20
0.0
 30
0.0
  0
INSERT
  5
4EE
  8
0
  2
STDGX5
 10
0.0
 20
0.0
 30
0.0
  0
INSERT
  5
4EF
  8
0
  2
STDGX5
 10
275.0
 20
0.0
 30
0.0
  0
INSERT
  5
4F0
  8
0
  2
STDGX5
 10
275.0
 20
0.0
 30
0.0
  0
INSERT
  5
500
  8
0
  2
STDGX5
 10
471.79233269980392
 20
233.9519585625761
 30
0.0
  0
INSERT
  5
501
  8
0
  2
STDGX5
 10
471.79233269980392
 20
233.9519585625761
 30
0.0
  0
INSERT
  5
502
  8
0
  2
STDGX5
 10
471.79233269980392
 20
233.9519585625761
 30
0.0
  0
INSERT
  5
503
  8
0
  2
STDGX5
 10
471.79233269980392
 20
233.9519585625761
 30
0.0
  0
INSERT
  5
67F
  8
0
  2
STDGX5
 10
0.0
 20
0.0
 30
0.0
  0
INSERT
  5
680
  8
0
  2
STDGX5
 10
0.0
 20
0.0
 30
0.0
  0
INSERT
  5
681
  8
0
  2
STDGX5
 10
275.0
 20
0.0
 30
0.0
  0
INSERT
  5
682
  8
0
  2
STDGX5
 10
275.0
 20
0.0
 30
0.0
  0
INSERT
  5
692
  8
0
  2
STDGX5
 10
471.79233269980392
 20
233.9519585625761
 30
0.0
  0
INSERT
  5
693
  8
0
  2
STDGX5
 10
471.79233269980392
 20
233.9519585625761
 30
0.0
  0
INSERT
  5
694
  8
0
  2
STDGX5
 10
471.79233269980392
 20
233.9519585625761
 30
0.0
  0
INSERT
  5
695
  8
0
  2
STDGX5
 10
471.79233269980392
 20
233.9519585625761
 30
0.0
  0
INSERT
  5
698
  8
0
  2
STDGX5
 10
625.17172490477549
 20
209.60057380630951
 30
0.0
  0
INSERT
  5
699
  8
0
  2
STDGX5
 10
625.17172490477549
 20
209.60057380630951
 30
0.0
  0
INSERT
  5
69A
  8
0
  2
STDGX5
 10
625.17172490477549
 20
209.60057380630951
 30
0.0
  0
INSERT
  5
69B
  8
0
  2
STDGX5
 10
625.17172490477549
 20
209.60057380630951
 30
0.0
  0
INSERT
  5
69C
  8
0
  2
STDGX5
 10
611.48701390477561
 20
209.6279228063095
 30
0.0
 41
0.1
 42
0.1
 43
0.1
  0
INSERT
  5
69D
  8
0
  2
STDGX5
 10
611.48701390477561
 20
209.6279228063095
 30
0.0
 41
0.1
 42
0.1
 43
0.1
  0
INSERT
  5
69E
  8
0
  2
STDGX5
 10
611.48701390477561
 20
209.6279228063095
 30
0.0
 41
0.1
 42
0.1
 43
0.1
  0
TEXT
  5
D82
  8
0
 62
     3
 10
0.0
 20
0.0
 30
0.0
 40
10.0
  1
PTRC1-40
  7
STANDARD1
  0
CIRCLE
  5
101A
  8
0
 10
241.49999879300611
 20
99.999999999999943
 30
0.0
 40
9.2978982574651354
  0
CIRCLE
  5
101B
  8
0
 10
241.49999879300611
 20
99.999999999999943
 30
0.0
 40
7.8490095180314929
  0
LINE
  5
101C
  8
0
 10
241.49999879300611
 20
89.030344885397085
 30
0.0
 11
231.99999879300611
 21
94.515172442698486
 31
0.0
  0
LINE
  5
101D
  8
0
 10
231.99999879300611
 20
94.515172442698486
 30
0.0
 11
231.99999879300611
 21
105.4848275573014
 31
0.0
  0
LINE
  5
101E
  8
0
 10
231.99999879300611
 20
105.4848275573014
 30
0.0
 11
241.49999879300611
 21
110.9696551146028
 31
0.0
  0
LINE
  5
101F
  8
0
 10
241.49999879300611
 20
110.9696551146028
 30
0.0
 11
250.999998793006
 21
105.4848275573014
 31
0.0
  0
LINE
  5
1020
  8
0
 10
250.999998793006
 20
105.4848275573014
 30
0.0
 11
250.999998793006
 21
94.515172442698486
 31
0.0
  0
LINE
  5
1021
  8
0
 10
250.999998793006
 20
94.515172442698486
 30
0.0
 11
241.49999879300611
 21
89.030344885397085
 31
0.0
  0
CIRCLE
  5
1023
  8
0
 10
241.49999879300611
 20
99.999999999999943
 30
0.0
 40
13.0
  0
LINE
  5
1027
  8
0
 10
268.49999879300611
 20
60.0
 30
0.0
 11
268.99999879300611
 21
60.499999999999943
 31
0.0
  0
LINE
  5
1029
  8
0
 10
268.49999879300611
 20
117.0
 30
0.0
 11
268.99999879300611
 21
116.5
 31
0.0
  0
LINE
  5
102C
  8
0
 10
268.99999879300611
 20
116.5
 30
0.0
 11
268.99999879300611
 21
60.499999999999943
 31
0.0
  0
LINE
  5
102D
  8
0
 10
266.99999879300611
 20
60.0
 30
0.0
 11
266.99999879300611
 21
117.0
 31
0.0
  0
LINE
  5
1030
  8
0
 10
214.499998793006
 20
117.0
 30
0.0
 11
268.49999879300611
 21
117.0
 31
0.0
  0
LINE
  5
1032
  8
0
 10
268.49999879300611
 20
59.999999999999979
 30
0.0
 11
214.49999879300589
 21
60.0
 31
0.0
  0
LINE
  5
1034
  8
0
 10
215.9999987930058
 20
117.0
 30
0.0
 11
215.99999879300589
 21
60.0
 31
0.0
  0
LINE
  5
1037
  8
0
 10
213.999998793006
 20
60.499999999999943
 30
0.0
 11
213.999998793006
 21
116.5
 31
0.0
  0
LINE
  5
1038
  8
0
 10
213.999998793006
 20
116.5
 30
0.0
 11
214.49999879300589
 21
117.0
 31
0.0
  0
LINE
  5
103B
  8
0
 10
213.999998793006
 20
60.499999999999943
 30
0.0
 11
214.49999879300589
 21
60.0
 31
0.0
  0
ARC
  5
1123
  8
0
 10
53.400000000000382
 20
109.7885104301331
 30
0.0
 40
1.89999999999966
 50
302.30411448132338
 51
0.0000000000048853
  0
LINE
  5
1124
  8
0
 10
55.300000000000011
 20
109.7885104301332
 30
0.0
 11
55.300000000000011
 21
110.40000000000001
 31
0.0
  0
ARC
  5
1125
  8
0
 10
57.200000000000841
 20
110.3999999999992
 30
0.0
 40
1.9000000000009429
 50
90.000000000026048
 51
179.99999999997391
  0
LINE
  5
1126
  8
0
 10
57.199999999999982
 20
112.3000000000001
 30
0.0
 11
59.449999999999989
 21
112.3000000000001
 31
0.0
  0
LINE
  5
1127
  8
0
 10
59.449999999999989
 20
112.3000000000001
 30
0.0
 11
59.449999999999989
 21
108.9831787247053
 31
0.0
  0
LINE
  5
1128
  8
0
 10
60.550000000000011
 20
108.9831787247054
 30
0.0
 11
60.550000000000011
 21
112.3000000000001
 31
0.0
  0
LINE
  5
1129
  8
0
 10
60.550000000000011
 20
112.3000000000001
 30
0.0
 11
62.800000000000011
 21
112.3000000000001
 31
0.0
  0
ARC
  5
112A
  8
0
 10
62.799999999999223
 20
110.3999999999992
 30
0.0
 40
1.9000000000009429
 50
0.0
 51
89.999999999973952
  0
LINE
  5
112B
  8
0
 10
64.700000000000045
 20
110.3999999999992
 30
0.0
 11
64.700000000000045
 21
109.7885104301332
 31
0.0
  0
ARC
  5
112C
  8
0
 10
66.599999999999625
 20
109.7885104301331
 30
0.0
 40
1.8999999999996771
 50
179.99999999999511
 51
237.695890474153
  0
CIRCLE
  5
112D
  8
0
 10
62.350000000000023
 20
110.40000000000001
 30
0.0
 40
0.8500000000000227
  0
CIRCLE
  5
112E
  8
0
 10
57.650000000000041
 20
110.40000000000001
 30
0.0
 40
0.8500000000000227
  0
ARC
  5
112F
  8
0
 10
60.000000000000057
 20
99.349999999999966
 30
0.0
 40
10.450000000000109
 50
122.30410712281071
 51
57.695891976194702
  0
CIRCLE
  5
1130
  8
0
 10
60.0
 20
99.999999999999943
 30
0.0
 40
13.000000000000041
  0
ARC
  5
1131
  8
0
 10
60.0
 20
99.999999999999943
 30
0.0
 40
7.4500000000000091
 50
134.1004521970562
 51
135.8995478029417
  0
LINE
  5
1132
  8
0
 10
53.650000000000027
 20
105.5749439459064
 30
0.0
 11
54.650000000000027
 21
105.18459255872619
 31
0.0
  0
ARC
  5
1133
  8
0
 10
60.0
 20
99.999999999999943
 30
0.0
 40
8.4500000000000135
 50
131.28131846530491
 51
138.71868153469791
  0
LINE
  5
1134
  8
0
 10
54.815407441273749
 20
105.34999999999989
 30
0.0
 11
54.425056054093488
 21
106.34999999999989
 31
0.0
  0
ARC
  5
1135
  8
0
 10
60.0
 20
99.999999999999943
 30
0.0
 40
8.4500000000000135
 50
221.2813184653067
 51
228.71868153469941
  0
LINE
  5
1136
  8
0
 10
53.650000000000027
 20
94.425056054093375
 30
0.0
 11
54.650000000000027
 21
94.815407441273706
 31
0.0
  0
ARC
  5
1137
  8
0
 10
60.0
 20
99.999999999999943
 30
0.0
 40
7.4500000000000091
 50
224.10045219705819
 51
225.89954780294821
  0
LINE
  5
1138
  8
0
 10
54.425056054093488
 20
93.649999999999935
 30
0.0
 11
54.815407441273749
 21
94.64999999999992
 31
0.0
  0
LINE
  5
1139
  8
0
 10
65.574943945906568
 20
93.649999999999935
 30
0.0
 11
54.425056054093488
 21
93.649999999999935
 31
0.0
  0
LINE
  5
113A
  8
0
 10
54.815407441273749
 20
94.64999999999992
 30
0.0
 11
65.184592558726308
 21
94.64999999999992
 31
0.0
  0
LINE
  5
113B
  8
0
 10
65.574943945906568
 20
93.649999999999935
 30
0.0
 11
65.184592558726308
 21
94.64999999999992
 31
0.0
  0
LINE
  5
113C
  8
0
 10
53.650000000000027
 20
94.425056054093375
 30
0.0
 11
53.650000000000027
 21
105.5749439459065
 31
0.0
  0
LINE
  5
113D
  8
0
 10
54.650000000000027
 20
105.18459255872619
 30
0.0
 11
54.650000000000027
 21
94.815407441273706
 31
0.0
  0
LINE
  5
113E
  8
0
 10
65.184592558726308
 20
105.34999999999989
 30
0.0
 11
54.815407441273749
 21
105.34999999999989
 31
0.0
  0
LINE
  5
113F
  8
0
 10
54.425056054093488
 20
106.34999999999989
 30
0.0
 11
65.574943945906568
 21
106.34999999999989
 31
0.0
  0
LINE
  5
1140
  8
0
 10
65.184592558726308
 20
105.34999999999989
 30
0.0
 11
65.574943945906568
 21
106.34999999999989
 31
0.0
  0
ARC
  5
1141
  8
0
 10
60.0
 20
99.999999999999943
 30
0.0
 40
7.4500000000000304
 50
44.100452197058253
 51
45.899547802943751
  0
LINE
  5
1142
  8
0
 10
65.350000000000023
 20
94.815407441273706
 30
0.0
 11
65.350000000000023
 21
105.18459255872619
 31
0.0
  0
ARC
  5
1143
  8
0
 10
60.0
 20
99.999999999999943
 30
0.0
 40
7.4500000000000304
 50
314.1004521970562
 51
315.89954780294642
  0
ARC
  5
1144
  8
0
 10
60.0
 20
99.999999999999943
 30
0.0
 40
8.4500000000000171
 50
41.281318465302157
 51
48.718681534695122
  0
LINE
  5
1145
  8
0
 10
65.350000000000023
 20
105.18459255872619
 30
0.0
 11
66.350000000000023
 21
105.5749439459064
 31
0.0
  0
LINE
  5
1146
  8
0
 10
66.350000000000023
 20
105.5749439459064
 30
0.0
 11
66.350000000000023
 21
94.425056054093417
 31
0.0
  0
LINE
  5
1147
  8
0
 10
65.350000000000023
 20
94.815407441273706
 30
0.0
 11
66.350000000000023
 21
94.425056054093417
 31
0.0
  0
ARC
  5
1148
  8
0
 10
60.0
 20
99.999999999999943
 30
0.0
 40
8.4500000000000171
 50
311.28131846530488
 51
318.71868153469808
  0
POLYLINE
  5
1149
  8
0
 66
     1
 10
0.0
 20
0.0
 30
0.0
 70
   128
  0
VERTEX
  5
14C5
  8
0
 10
53.52984361140858
 20
94.564967681155565
 30
0.0
  0
VERTEX
  5
14C6
  8
0
 10
53.312309842299783
 20
94.790200826582918
 30
0.0
  0
VERTEX
  5
14C7
  8
0
 10
53.050000000000011
 20
95.106381706753098
 30
0.0
  0
SEQEND
  5
14C8
  8
0
  0
ARC
  5
114B
  8
0
 10
56.674136358178259
 20
102.1649687031744
 30
0.0
 40
4.5365066877579441
 50
133.87670464770059
 51
143.02353271480089
  0
ARC
  5
114C
  8
0
 10
60.000000000353168
 20
100.0000000003007
 30
0.0
 40
8.4500000004638185
 50
220.03078340806019
 51
221.28131846525741
  0
ARC
  5
114D
  8
0
 10
60.000000028124703
 20
99.999999975876108
 30
0.0
 40
8.4500000370514563
 50
138.71868153758589
 51
139.96921658937271
  0
POLYLINE
  5
114E
  8
0
 66
     1
 10
0.0
 20
0.0
 30
0.0
 70
   128
  0
VERTEX
  5
14C9
  8
0
 10
65.435032318844435
 20
93.529843611408523
 30
0.0
  0
VERTEX
  5
14CA
  8
0
 10
65.209799173417025
 20
93.312309842299726
 30
0.0
  0
VERTEX
  5
14CB
  8
0
 10
64.893618293246845
 20
93.049999999999955
 30
0.0
  0
SEQEND
  5
14CC
  8
0
  0
ARC
  5
1150
  8
0
 10
57.835031296825321
 20
96.674136358178075
 30
0.0
 40
4.5365066877576261
 50
223.8767046477048
 51
233.0235327148045
  0
ARC
  5
1151
  8
0
 10
60.000000000417401
 20
99.999999999517186
 30
0.0
 40
8.4499999993618395
 50
310.03078340797538
 51
311.28131846533518
  0
ARC
  5
1152
  8
0
 10
60.000000023435803
 20
100.00000002732359
 30
0.0
 40
8.4500000359955418
 50
228.71868153750779
 51
229.96921658945541
  0
POLYLINE
  5
1153
  8
0
 66
     1
 10
0.0
 20
0.0
 30
0.0
 70
   128
  0
VERTEX
  5
14CD
  8
0
 10
55.106381706753147
 20
106.95
 30
0.0
  0
VERTEX
  5
14CE
  8
0
 10
54.790200826582982
 20
106.6876901577001
 30
0.0
  0
VERTEX
  5
14CF
  8
0
 10
54.564967681155558
 20
106.47015638859141
 30
0.0
  0
SEQEND
  5
14D0
  8
0
  0
ARC
  5
1155
  8
0
 10
62.164968703169109
 20
103.3258636418154
 30
0.0
 40
4.5365066877661118
 50
43.876704647714043
 51
53.02353271479636
  0
ARC
  5
1156
  8
0
 10
59.99999997957201
 20
99.999999976182892
 30
0.0
 40
8.4500000313759696
 50
48.718681537148072
 51
49.969216589778704
  0
ARC
  5
1157
  8
0
 10
59.999999999790191
 20
100.000000000244
 30
0.0
 40
8.4499999996781927
 50
130.03078340800951
 51
131.28131846532659
  0
POLYLINE
  5
1158
  8
0
 66
     1
 10
0.0
 20
0.0
 30
0.0
 70
   128
  0
VERTEX
  5
14D1
  8
0
 10
66.949999999999989
 20
104.8936182932468
 30
0.0
  0
VERTEX
  5
14D2
  8
0
 10
66.687690157700274
 20
105.2097991734169
 30
0.0
  0
VERTEX
  5
14D3
  8
0
 10
66.470156388591477
 20
105.43503231884441
 30
0.0
  0
SEQEND
  5
14D4
  8
0
  0
ARC
  5
115A
  8
0
 10
63.325863641817357
 20
97.835031296829115
 30
0.0
 40
4.536506687763584
 50
313.87670464770969
 51
323.02353271480092
  0
ARC
  5
115B
  8
0
 10
60.000000000590781
 20
100.0000000005075
 30
0.0
 40
8.4499999992211805
 50
40.030783407979129
 51
41.281318465360968
  0
ARC
  5
115C
  8
0
 10
59.999999973840879
 20
100.000000022438
 30
0.0
 40
8.4500000344621586
 50
318.71868153738347
 51
319.96921658955472
  0
ARC
  5
1161
  8
0
 10
60.0
 20
99.999999999999943
 30
0.0
 40
8.5000000000000462
 50
54.849944229443558
 51
125.15005577055641
  0
ARC
  5
1162
  8
0
 10
60.0
 20
99.999999999999943
 30
0.0
 40
8.5000000000000338
 50
144.8499442294424
 51
215.15005577055749
  0
ARC
  5
1163
  8
0
 10
60.0
 20
99.999999999999943
 30
0.0
 40
8.5
 50
234.84994422944359
 51
305.15005577055638
  0
ARC
  5
1164
  8
0
 10
60.0
 20
99.999999999999943
 30
0.0
 40
8.5000000000000568
 50
324.8499442294426
 51
35.150055770557401
  0
CIRCLE
  5
1165
  8
0
 10
60.0
 20
99.999999999999943
 30
0.0
 40
9.0
  0
LINE
  5
1167
  8
0
 10
32.999999999999893
 20
60.0
 30
0.0
 11
32.499999999999893
 21
60.499999999999943
 31
0.0
  0
LINE
  5
116C
  8
0
 10
32.499999999999893
 20
60.499999999999943
 30
0.0
 11
32.499999999999893
 21
116.5000000000002
 31
0.0
  0
LINE
  5
116F
  8
0
 10
32.999999999999893
 20
117.0000000000002
 30
0.0
 11
32.499999999999893
 21
116.5000000000002
 31
0.0
  0
LINE
  5
1170
  8
0
 10
32.999999999999893
 20
117.0000000000002
 30
0.0
 11
87.000000000000085
 21
117.0000000000002
 31
0.0
  0
LINE
  5
1175
  8
0
 10
87.000000000000085
 20
60.0
 30
0.0
 11
32.999999999999893
 21
60.0
 31
0.0
  0
LINE
  5
1178
  8
0
 10
87.500000000000114
 20
116.5000000000002
 30
0.0
 11
87.000000000000114
 21
117.0000000000002
 31
0.0
  0
LINE
  5
117C
  8
0
 10
87.500000000000114
 20
60.499999999999943
 30
0.0
 11
87.000000000000114
 21
60.0
 31
0.0
  0
LINE
  5
117D
  8
0
 10
87.500000000000114
 20
116.5000000000002
 30
0.0
 11
87.500000000000114
 21
60.499999999999943
 31
0.0
  0
LINE
  5
127C
  8
0
 10
158.49999926984319
 20
161.4999979138374
 30
0.0
 11
159.49999943375599
 21
161.4999979138374
 31
0.0
  0
LINE
  5
127D
  8
0
 10
159.49999943375599
 20
187.49999845027921
 30
0.0
 11
158.49999926984319
 21
187.49999845027921
 31
0.0
  0
LINE
  5
127E
  8
0
 10
132.49999966472399
 20
164.04999823868269
 30
0.0
 11
133.69999948889031
 21
164.04999823868269
 31
0.0
  0
LINE
  5
127F
  8
0
 10
133.69999948889031
 20
184.94999812543389
 30
0.0
 11
132.49999966472399
 21
184.94999812543389
 31
0.0
  0
LINE
  5
1280
  8
0
 10
133.69999948889031
 20
161.4999979138374
 30
0.0
 11
135.6999988853932
 21
161.4999979138374
 31
0.0
  0
LINE
  5
1281
  8
0
 10
135.6999988853932
 20
187.49999845027921
 30
0.0
 11
133.69999948889031
 21
187.49999845027921
 31
0.0
  0
LINE
  5
1282
  8
0
 10
159.9999995157124
 20
187.49999845027921
 30
0.0
 11
159.49999943375599
 21
186.99999836832279
 31
0.0
  0
LINE
  5
1283
  8
0
 10
159.49999943375599
 20
161.99999799579379
 30
0.0
 11
159.9999995157124
 21
161.4999979138374
 31
0.0
  0
LINE
  5
1284
  8
0
 10
159.9999995157124
 20
161.4999979138374
 30
0.0
 11
163.50000008940711
 21
161.4999979138374
 31
0.0
  0
LINE
  5
1285
  8
0
 10
163.50000008940711
 20
187.49999845027921
 30
0.0
 11
159.9999995157124
 21
187.49999845027921
 31
0.0
  0
LINE
  5
1286
  8
0
 10
163.50000008940711
 20
161.4999979138374
 30
0.0
 11
163.99999924004089
 21
161.99999799579379
 31
0.0
  0
LINE
  5
1287
  8
0
 10
163.99999924004089
 20
186.99999836832279
 30
0.0
 11
163.50000008940711
 21
187.49999845027921
 31
0.0
  0
LINE
  5
1288
  8
0
 10
182.11406312882909
 20
164.9946629405022
 30
0.0
 11
182.88822688162341
 21
165.2021001428366
 31
0.0
  0
LINE
  5
1289
  8
0
 10
182.88822688162341
 20
183.7978962212801
 30
0.0
 11
182.11975537240511
 21
184.0038088485598
 31
0.0
  0
ARC
  5
128A
  8
0
 10
182.4999993294478
 20
166.65098866402681
 30
0.0
 40
1.5000000000000031
 50
284.99999999999778
 51
0.0
  0
ARC
  5
128B
  8
0
 10
182.4999993294478
 20
182.34900770008991
 30
0.0
 40
1.5
 50
0.0
 51
74.999999999998792
  0
LINE
  5
128C
  8
0
 10
127.99999892711649
 20
183.49999779462809
 30
0.0
 11
127.4999997764827
 21
182.9999986439943
 31
0.0
  0
LINE
  5
128D
  8
0
 10
127.4999997764827
 20
165.99999772012231
 30
0.0
 11
127.99999892711649
 21
165.4999985694885
 31
0.0
  0
LINE
  5
128E
  8
0
 10
135.6999988853932
 20
165.4999985694885
 30
0.0
 11
136.4999993890525
 21
165.4999985694885
 31
0.0
  0
LINE
  5
128F
  8
0
 10
136.4999993890525
 20
183.49999779462809
 30
0.0
 11
135.6999988853932
 21
183.49999779462809
 31
0.0
  0
LINE
  5
1290
  8
0
 10
127.99999892711649
 20
165.4999985694885
 30
0.0
 11
132.49999966472399
 21
165.4999985694885
 31
0.0
  0
LINE
  5
1291
  8
0
 10
132.49999966472399
 20
183.49999779462809
 30
0.0
 11
127.99999892711649
 21
183.49999779462809
 31
0.0
  0
LINE
  5
1292
  8
0
 10
158.49999926984319
 20
172.8301251642406
 30
0.0
 11
159.49999943375599
 21
172.8301251642406
 31
0.0
  0
LINE
  5
1293
  8
0
 10
159.49999943375599
 20
161.4999979138374
 30
0.0
 11
159.49999943375599
 21
187.49999845027921
 31
0.0
  0
LINE
  5
1294
  8
0
 10
159.49999943375599
 20
176.1698711998761
 30
0.0
 11
158.49999926984319
 21
176.1698711998761
 31
0.0
  0
LINE
  5
1295
  8
0
 10
158.49999926984319
 20
174.69999817700591
 30
0.0
 11
159.49999943375599
 21
174.69999817700591
 31
0.0
  0
LINE
  5
1296
  8
0
 10
158.49999926984319
 20
174.2999981871107
 30
0.0
 11
159.49999943375599
 21
174.2999981871107
 31
0.0
  0
LINE
  5
1297
  8
0
 10
133.69999948889031
 20
175.0499981790781
 30
0.0
 11
132.49999966472399
 21
175.0499981790781
 31
0.0
  0
LINE
  5
1298
  8
0
 10
133.69999948889031
 20
173.9499981850386
 30
0.0
 11
132.49999966472399
 21
173.9499981850386
 31
0.0
  0
LINE
  5
1299
  8
0
 10
132.49999966472399
 20
184.94999812543389
 30
0.0
 11
132.49999966472399
 21
164.04999823868269
 31
0.0
  0
LINE
  5
129A
  8
0
 10
133.69999948889031
 20
187.49999845027921
 30
0.0
 11
133.69999948889031
 21
161.4999979138374
 31
0.0
  0
LINE
  5
129C
  8
0
 10
135.6999988853932
 20
187.49999845027921
 30
0.0
 11
135.6999988853932
 21
161.4999979138374
 31
0.0
  0
LINE
  5
129E
  8
0
 10
163.99999924004089
 20
186.99999836832279
 30
0.0
 11
163.99999924004089
 21
161.99999799579379
 31
0.0
  0
LINE
  5
129F
  8
0
 10
182.11263261735451
 20
164.99999848753211
 30
0.0
 11
163.99999924004089
 21
164.99999848753211
 31
0.0
  0
POLYLINE
  5
12A0
  8
0
 66
     1
 10
0.0
 20
0.0
 30
0.0
 70
   128
  0
VERTEX
  5
14D5
  8
0
 10
176.6491460800172
 20
164.99999848753211
 30
0.0
  0
VERTEX
  5
14D6
  8
0
 10
177.46630899608141
 20
165.3916028663516
 30
0.0
  0
VERTEX
  5
14D7
  8
0
 10
178.2696771621705
 20
165.80550217628479
 30
0.0
  0
VERTEX
  5
14D8
  8
0
 10
179.05672483146199
 20
166.24861335009339
 30
0.0
  0
VERTEX
  5
14D9
  8
0
 10
179.81782026588931
 20
166.7279827743769
 30
0.0
  0
VERTEX
  5
14DA
  8
0
 10
180.49656815826901
 20
167.22087872773409
 30
0.0
  0
VERTEX
  5
14DB
  8
0
 10
181.1233631521464
 20
167.7716670893133
 30
0.0
  0
VERTEX
  5
14DC
  8
0
 10
181.54456682503229
 20
168.24360223114491
 30
0.0
  0
VERTEX
  5
14DD
  8
0
 10
181.72841735184201
 20
168.5020451769233
 30
0.0
  0
VERTEX
  5
14DE
  8
0
 10
181.88620947301399
 20
168.77565703913569
 30
0.0
  0
VERTEX
  5
14DF
  8
0
 10
182.0397473126651
 20
169.1497776992619
 30
0.0
  0
VERTEX
  5
14E0
  8
0
 10
182.1235439926387
 20
169.55040845647451
 30
0.0
  0
VERTEX
  5
14E1
  8
0
 10
182.12370418012151
 20
169.9480301104486
 30
0.0
  0
VERTEX
  5
14E2
  8
0
 10
182.03909538686281
 20
170.35229675099251
 30
0.0
  0
VERTEX
  5
14E3
  8
0
 10
181.84361450374141
 20
170.8050887901336
 30
0.0
  0
VERTEX
  5
14E4
  8
0
 10
181.55954249203211
 20
171.23697519861159
 30
0.0
  0
VERTEX
  5
14E5
  8
0
 10
181.26381777226931
 20
171.5839217286557
 30
0.0
  0
VERTEX
  5
14E6
  8
0
 10
180.93217380344879
 20
171.9102236311883
 30
0.0
  0
VERTEX
  5
14E7
  8
0
 10
180.56924857199201
 20
172.22110935114321
 30
0.0
  0
VERTEX
  5
14E8
  8
0
 10
180.1854468137027
 20
172.5148596670478
 30
0.0
  0
VERTEX
  5
14E9
  8
0
 10
179.3576016277076
 20
173.06903780996799
 30
0.0
  0
VERTEX
  5
14EA
  8
0
 10
178.4852317720653
 20
173.57737293792891
 30
0.0
  0
VERTEX
  5
14EB
  8
0
 10
177.57763743400579
 20
174.05293124471791
 30
0.0
  0
VERTEX
  5
14EC
  8
0
 10
176.6491460800172
 20
174.49999818205831
 30
0.0
  0
SEQEND
  5
14ED
  8
0
  0
POLYLINE
  5
12A1
  8
0
 66
     1
 10
0.0
 20
0.0
 30
0.0
 70
   128
  0
VERTEX
  5
14EE
  8
0
 10
176.6491460800172
 20
174.49999818205831
 30
0.0
  0
VERTEX
  5
14EF
  8
0
 10
177.46630899608141
 20
174.8916025608778
 30
0.0
  0
VERTEX
  5
14F0
  8
0
 10
178.2696771621705
 20
175.30550222005689
 30
0.0
  0
VERTEX
  5
14F1
  8
0
 10
179.05672483146199
 20
175.7486130446195
 30
0.0
  0
VERTEX
  5
14F2
  8
0
 10
179.81782026588931
 20
176.22798270173371
 30
0.0
  0
VERTEX
  5
14F3
  8
0
 10
180.49656815826901
 20
176.7208788879216
 30
0.0
  0
VERTEX
  5
14F4
  8
0
 10
181.1233631521464
 20
177.27166701667011
 30
0.0
  0
VERTEX
  5
14F5
  8
0
 10
181.54456682503229
 20
177.74360215850169
 30
0.0
  0
VERTEX
  5
14F6
  8
0
 10
181.72841735184201
 20
178.00204510428011
 30
0.0
  0
VERTEX
  5
14F7
  8
0
 10
181.88620947301399
 20
178.27565696649251
 30
0.0
  0
VERTEX
  5
14F8
  8
0
 10
182.0397473126651
 20
178.64977785944939
 30
0.0
  0
VERTEX
  5
14F9
  8
0
 10
182.1235439926387
 20
179.05040815100071
 30
0.0
  0
VERTEX
  5
14FA
  8
0
 10
182.12370418012151
 20
179.44803027063611
 30
0.0
  0
VERTEX
  5
14FB
  8
0
 10
182.03909538686281
 20
179.85229691117999
 30
0.0
  0
VERTEX
  5
14FC
  8
0
 10
181.84361450374141
 20
180.30508871749041
 30
0.0
  0
VERTEX
  5
14FD
  8
0
 10
181.55954249203211
 20
180.7369751259684
 30
0.0
  0
VERTEX
  5
14FE
  8
0
 10
181.26381777226931
 20
181.08392165601251
 30
0.0
  0
VERTEX
  5
14FF
  8
0
 10
180.93217380344879
 20
181.41022355854511
 30
0.0
  0
VERTEX
  5
1500
  8
0
 10
180.56924857199201
 20
181.72110927850011
 30
0.0
  0
VERTEX
  5
1501
  8
0
 10
180.1854468137027
 20
182.0148595944047
 30
0.0
  0
VERTEX
  5
1502
  8
0
 10
179.3576016277076
 20
182.56903750449419
 30
0.0
  0
VERTEX
  5
1503
  8
0
 10
178.4852317720653
 20
183.07737292349341
 30
0.0
  0
VERTEX
  5
1504
  8
0
 10
177.57763743400579
 20
183.55293137580159
 30
0.0
  0
VERTEX
  5
1505
  8
0
 10
176.6491460800172
 20
183.9999978765845
 30
0.0
  0
SEQEND
  5
1506
  8
0
  0
LINE
  5
12A2
  8
0
 10
163.99999924004089
 20
183.9999978765845
 30
0.0
 11
182.11873464286339
 21
183.9999978765845
 31
0.0
  0
LINE
  5
12A4
  8
0
 10
163.99999924004089
 20
174.49999818205831
 30
0.0
 11
176.6491460800172
 21
174.49999818205831
 31
0.0
  0
LINE
  5
12A6
  8
0
 10
183.999998793006
 20
182.34900788962841
 30
0.0
 11
183.999998793006
 21
166.6509884744882
 31
0.0
  0
LINE
  5
12A7
  8
0
 10
127.4999997764827
 20
165.99999772012231
 30
0.0
 11
127.4999997764827
 21
182.9999986439943
 31
0.0
  0
ARC
  5
12A9
  8
0
 10
126.8999923230986
 20
181.45000171514411
 30
0.0
 40
0.6000074533954038
 50
306.89516331199837
 51
359.99964689588018
  0
ARC
  5
12AA
  8
0
 10
126.8999927515377
 20
167.5499948630756
 30
0.0
 40
0.600007024955098
 50
0.0003326592724903
 51
53.10485713285015
  0
ARC
  5
12AB
  8
0
 10
126.90000019382551
 20
167.54999905131601
 30
0.0
 40
0.5999992074846036
 50
53.10518538480121
 51
90.000120392776466
  0
LINE
  5
12AC
  8
0
 10
126.8999989330769
 20
168.14999825879929
 30
0.0
 11
118.5000001639129
 21
168.14999825879929
 31
0.0
  0
LINE
  5
12AD
  8
0
 10
118.5000001639129
 20
168.92505421862009
 30
0.0
 11
127.4999997764827
 21
168.92505421862009
 31
0.0
  0
ARC
  5
12AE
  8
0
 10
126.89999845553091
 20
181.45000252392521
 30
0.0
 40
0.6000044186080539
 50
270.00004560195242
 51
306.8946486204747
  0
LINE
  5
12AF
  8
0
 10
127.4999997764827
 20
180.07494214549661
 30
0.0
 11
118.5000001639129
 21
180.07494214549661
 31
0.0
  0
LINE
  5
12B0
  8
0
 10
118.5000001639129
 20
180.8499981053173
 30
0.0
 11
126.8999989330769
 21
180.8499981053173
 31
0.0
  0
LINE
  5
12B1
  8
0
 10
118.5000001639129
 20
180.8499981053173
 30
0.0
 11
118.5000001639129
 21
168.14999825879929
 31
0.0
  0
LINE
  5
12B3
  8
0
 10
118.5000001639129
 20
180.8499981053173
 30
0.0
 11
117.5000000000001
 21
179.8499984070659
 31
0.0
  0
LINE
  5
12B4
  8
0
 10
117.5000000000001
 20
179.68459086120129
 30
0.0
 11
118.5000001639129
 21
180.07494214549661
 31
0.0
  0
LINE
  5
12B5
  8
0
 10
117.5000000000001
 20
169.1499979570508
 30
0.0
 11
117.5000000000001
 21
179.8499984070659
 31
0.0
  0
LINE
  5
12B6
  8
0
 10
117.5000000000001
 20
169.31540550291541
 30
0.0
 11
118.5000001639129
 21
168.92505421862009
 31
0.0
  0
LINE
  5
12B8
  8
0
 10
117.5000000000001
 20
169.1499979570508
 30
0.0
 11
118.5000001639129
 21
168.14999825879929
 31
0.0
  0
LINE
  5
12B9
  8
0
 10
156.49999894201761
 20
201.99999803304669
 30
0.0
 11
158.49999926984319
 21
199.9999977052212
 31
0.0
  0
LINE
  5
12BA
  8
0
 10
138.49999971687799
 20
201.99999803304669
 30
0.0
 11
156.49999894201761
 21
201.99999803304669
 31
0.0
  0
LINE
  5
12BB
  8
0
 10
136.4999993890525
 20
199.9999977052212
 30
0.0
 11
138.49999971687799
 21
201.99999803304669
 31
0.0
  0
LINE
  5
12BC
  8
0
 10
136.4999993890525
 20
148.99999865889549
 30
0.0
 11
136.4999993890525
 21
199.9999977052212
 31
0.0
  0
LINE
  5
12BD
  8
0
 10
158.49999926984319
 20
199.9999977052212
 30
0.0
 11
158.49999926984319
 21
148.99999865889549
 31
0.0
  0
CIRCLE
  5
12BE
  8
0
 10
147.4999993294478
 20
192.49999818205839
 30
0.0
 40
7.0
  0
CIRCLE
  5
12BF
  8
0
 10
147.4999993294478
 20
156.49999818205831
 30
0.0
 40
7.0
  0
LINE
  5
12C0
  8
0
 10
158.49999926984319
 20
148.99999865889549
 30
0.0
 11
156.49999894201761
 21
146.99999833106989
 31
0.0
  0
LINE
  5
12C1
  8
0
 10
138.49999971687799
 20
146.99999833106989
 30
0.0
 11
136.4999993890525
 21
148.99999865889549
 31
0.0
  0
LINE
  5
12C2
  8
0
 10
156.49999894201761
 20
146.99999833106989
 30
0.0
 11
138.49999971687799
 21
146.99999833106989
 31
0.0
  0
CIRCLE
  5
12C3
  8
0
 10
147.4999993294478
 20
192.49999818205839
 30
0.0
 40
4.5
  0
CIRCLE
  5
12C4
  8
0
 10
147.4999993294478
 20
156.49999818205831
 30
0.0
 40
4.5
  0
LINE
  5
12C5
  8
1
 10
147.4999993294478
 20
142.99999833106989
 30
0.0
 11
147.4999993294478
 21
205.99999803304669
 31
0.0
  0
LINE
  5
12C6
  8
1
 10
156.4999993294478
 20
192.49999818205811
 30
0.0
 11
138.4999993294478
 21
192.49999818205811
 31
0.0
  0
LINE
  5
12C7
  8
1
 10
156.4999993294478
 20
156.49999818205811
 30
0.0
 11
138.4999993294478
 21
156.49999818205811
 31
0.0
  0
LINE
  5
12C8
  8
1
 10
187.999998793006
 20
174.49999818205811
 30
0.0
 11
113.5000000000001
 21
174.49999818205811
 31
0.0
  0
LINE
  5
1313
  8
0
 10
158.49999926984319
 20
87.000000864267349
 30
0.0
 11
159.49999943375599
 21
87.000000864267349
 31
0.0
  0
LINE
  5
1314
  8
0
 10
132.49999966472399
 20
88.899999499320984
 30
0.0
 11
133.69999948889031
 21
88.899999499320984
 31
0.0
  0
LINE
  5
1315
  8
0
 10
133.69999948889031
 20
87.000000864267349
 30
0.0
 11
135.6999988853932
 21
87.000000864267349
 31
0.0
  0
LINE
  5
1316
  8
0
 10
135.6999988853932
 20
113.0000014007091
 30
0.0
 11
133.69999948889031
 21
113.0000014007091
 31
0.0
  0
LINE
  5
1317
  8
0
 10
159.9999995157124
 20
113.0000014007091
 30
0.0
 11
159.49999943375599
 21
112.50000038743021
 31
0.0
  0
LINE
  5
1318
  8
0
 10
159.49999943375599
 20
87.500000014901161
 30
0.0
 11
159.9999995157124
 21
87.000000864267349
 31
0.0
  0
LINE
  5
1319
  8
0
 10
159.9999995157124
 20
87.000000864267349
 30
0.0
 11
163.50000008940711
 21
87.000000864267349
 31
0.0
  0
LINE
  5
131A
  8
0
 10
163.50000008940711
 20
113.0000014007091
 30
0.0
 11
159.9999995157124
 21
113.0000014007091
 31
0.0
  0
LINE
  5
131B
  8
0
 10
163.50000008940711
 20
87.000000864267349
 30
0.0
 11
163.99999924004089
 21
87.500000014901161
 31
0.0
  0
LINE
  5
131C
  8
0
 10
163.99999924004089
 20
112.50000038743021
 30
0.0
 11
163.50000008940711
 21
113.0000014007091
 31
0.0
  0
LINE
  5
131D
  8
0
 10
176.6491460800172
 20
89.030345544219017
 30
0.0
 11
182.88822688162341
 21
90.702101230621338
 31
0.0
  0
LINE
  5
131E
  8
0
 10
182.88822688162341
 20
109.29789730906479
 30
0.0
 11
176.6491460800172
 21
110.96965485811231
 31
0.0
  0
ARC
  5
131F
  8
0
 10
182.4999993294478
 20
92.150990481968464
 30
0.0
 40
1.5000000000000031
 50
284.99999999999778
 51
0.0
  0
ARC
  5
1320
  8
0
 10
182.4999993294478
 20
107.84900951803159
 30
0.0
 40
1.5
 50
0.0
 51
74.999999999998792
  0
LINE
  5
1321
  8
0
 10
135.6999988853932
 20
91.000001519918442
 30
0.0
 11
136.4999993890525
 21
91.000001519918442
 31
0.0
  0
LINE
  5
1322
  8
0
 10
136.4999993890525
 20
109.000000745058
 30
0.0
 11
135.6999988853932
 21
109.000000745058
 31
0.0
  0
LINE
  5
1323
  8
0
 10
127.99999892711649
 20
91.000001519918442
 30
0.0
 11
132.49999966472399
 21
91.000001519918442
 31
0.0
  0
LINE
  5
1324
  8
0
 10
132.49999966472399
 20
109.000000745058
 30
0.0
 11
127.99999892711649
 21
109.000000745058
 31
0.0
  0
LINE
  5
1325
  8
0
 10
127.99999892711649
 20
109.000000745058
 30
0.0
 11
127.4999997764827
 21
108.4999997317791
 31
0.0
  0
LINE
  5
1326
  8
0
 10
127.4999997764827
 20
91.499998807907104
 30
0.0
 11
127.99999892711649
 21
91.000001519918442
 31
0.0
  0
LINE
  5
1327
  8
0
 10
158.49999926984319
 20
112.8923032581806
 30
0.0
 11
159.49999943375599
 21
112.8923032581806
 31
0.0
  0
LINE
  5
1328
  8
0
 10
159.49999943375599
 20
87.000000864267349
 30
0.0
 11
159.49999943375599
 21
112.8923032581806
 31
0.0
  0
LINE
  5
1329
  8
0
 10
132.49999966472399
 20
112.3000007271766
 30
0.0
 11
132.49999966472399
 21
88.899999499320984
 31
0.0
  0
LINE
  5
132A
  8
0
 10
133.69999948889031
 20
112.3000007271766
 30
0.0
 11
132.49999966472399
 21
112.3000007271766
 31
0.0
  0
LINE
  5
132B
  8
0
 10
133.69999948889031
 20
113.0000014007091
 30
0.0
 11
133.69999948889031
 21
87.000000864267349
 31
0.0
  0
LINE
  5
132C
  8
0
 10
135.6999988853932
 20
113.0000014007091
 30
0.0
 11
135.6999988853932
 21
87.000000864267349
 31
0.0
  0
LINE
  5
132E
  8
0
 10
163.99999924004089
 20
112.50000038743021
 30
0.0
 11
163.99999924004089
 21
87.500000014901161
 31
0.0
  0
LINE
  5
132F
  8
0
 10
163.99999924004089
 20
94.515174269676208
 30
0.0
 11
176.6491460800172
 21
94.515174269676208
 31
0.0
  0
POLYLINE
  5
1330
  8
0
 66
     1
 10
0.0
 20
0.0
 30
0.0
 70
   128
  0
VERTEX
  5
1507
  8
0
 10
176.6491460800172
 20
89.030345544219017
 30
0.0
  0
VERTEX
  5
1508
  8
0
 10
177.46630899608141
 20
89.256437137722969
 30
0.0
  0
VERTEX
  5
1509
  8
0
 10
178.2696771621705
 20
89.495403334498405
 30
0.0
  0
VERTEX
  5
150A
  8
0
 10
179.05672483146199
 20
89.75123205780983
 30
0.0
  0
VERTEX
  5
150B
  8
0
 10
179.81782026588931
 20
90.02799691259861
 30
0.0
  0
VERTEX
  5
150C
  8
0
 10
180.49656815826901
 20
90.312569975852966
 30
0.0
  0
VERTEX
  5
150D
  8
0
 10
181.1233631521464
 20
90.630568206310272
 30
0.0
  0
VERTEX
  5
150E
  8
0
 10
181.54456682503229
 20
90.903039664030075
 30
0.0
  0
VERTEX
  5
150F
  8
0
 10
181.72841735184201
 20
91.052252441644669
 30
0.0
  0
VERTEX
  5
1510
  8
0
 10
181.88620947301399
 20
91.210223376750946
 30
0.0
  0
VERTEX
  5
1511
  8
0
 10
182.0397473126651
 20
91.426223158836365
 30
0.0
  0
VERTEX
  5
1512
  8
0
 10
182.1235439926387
 20
91.657526433467865
 30
0.0
  0
VERTEX
  5
1513
  8
0
 10
182.12370418012151
 20
91.887093722820282
 30
0.0
  0
VERTEX
  5
1514
  8
0
 10
182.03909538686281
 20
92.120494335889816
 30
0.0
  0
VERTEX
  5
1515
  8
0
 10
181.84361450374141
 20
92.381916582584381
 30
0.0
  0
VERTEX
  5
1516
  8
0
 10
181.55954249203211
 20
92.631265163421631
 30
0.0
  0
VERTEX
  5
1517
  8
0
 10
181.26381777226931
 20
92.831574022769928
 30
0.0
  0
VERTEX
  5
1518
  8
0
 10
180.93217380344879
 20
93.019965678453445
 30
0.0
  0
VERTEX
  5
1519
  8
0
 10
180.56924857199201
 20
93.199453890323639
 30
0.0
  0
VERTEX
  5
151A
  8
0
 10
180.1854468137027
 20
93.369051456451416
 30
0.0
  0
VERTEX
  5
151B
  8
0
 10
179.3576016277076
 20
93.689005464315414
 30
0.0
  0
VERTEX
  5
151C
  8
0
 10
178.4852317720653
 20
93.982495009899139
 30
0.0
  0
VERTEX
  5
151D
  8
0
 10
177.57763743400579
 20
94.257060080766678
 30
0.0
  0
VERTEX
  5
151E
  8
0
 10
176.6491460800172
 20
94.515174269676208
 30
0.0
  0
SEQEND
  5
151F
  8
0
  0
LINE
  5
1331
  8
0
 10
163.99999924004089
 20
89.030345544219017
 30
0.0
 11
176.6491460800172
 21
89.030345544219017
 31
0.0
  0
POLYLINE
  5
1332
  8
0
 66
     1
 10
0.0
 20
0.0
 30
0.0
 70
   128
  0
VERTEX
  5
1520
  8
0
 10
176.6491460800172
 20
94.515174269676208
 30
0.0
  0
VERTEX
  5
1521
  8
0
 10
176.96545675396931
 20
94.686708986759186
 30
0.0
  0
VERTEX
  5
1522
  8
0
 10
177.47807718813431
 20
94.97409650683403
 30
0.0
  0
VERTEX
  5
1523
  8
0
 10
178.4860196709634
 20
95.581028252840042
 30
0.0
  0
VERTEX
  5
1524
  8
0
 10
179.62530098855501
 20
96.363573908805847
 30
0.0
  0
VERTEX
  5
1525
  8
0
 10
180.17209909856331
 20
96.796203047037125
 30
0.0
  0
VERTEX
  5
1526
  8
0
 10
180.6209295243026
 20
97.19512203335762
 30
0.0
  0
VERTEX
  5
1527
  8
0
 10
180.8358638733626
 20
97.405831903219223
 30
0.0
  0
VERTEX
  5
1528
  8
0
 10
181.01617909967911
 20
97.595743477344513
 30
0.0
  0
VERTEX
  5
1529
  8
0
 10
181.18921883404261
 20
97.792319595813751
 30
0.0
  0
VERTEX
  5
152A
  8
0
 10
181.4736372977496
 20
98.157960563898087
 30
0.0
  0
VERTEX
  5
152B
  8
0
 10
181.78911723196521
 20
98.671763777732849
 30
0.0
  0
VERTEX
  5
152C
  8
0
 10
181.88305415213119
 20
98.867762476205826
 30
0.0
  0
VERTEX
  5
152D
  8
0
 10
182.03252770006671
 20
99.28083011507988
 30
0.0
  0
VERTEX
  5
152E
  8
0
 10
182.08438001573089
 20
99.497336536645889
 30
0.0
  0
VERTEX
  5
152F
  8
0
 10
182.1176617592574
 20
99.711782872676849
 30
0.0
  0
VERTEX
  5
1530
  8
0
 10
182.10605375468739
 20
100.37709364295
 30
0.0
  0
VERTEX
  5
1531
  8
0
 10
182.0049307495357
 20
100.8112687766552
 30
0.0
  0
VERTEX
  5
1532
  8
0
 10
181.68784521520149
 20
101.5118058919906
 30
0.0
  0
VERTEX
  5
1533
  8
0
 10
181.47233344614509
 20
101.8438708186149
 30
0.0
  0
VERTEX
  5
1534
  8
0
 10
181.16350688040271
 20
102.23792457580559
 30
0.0
  0
VERTEX
  5
1535
  8
0
 10
180.96192397177231
 20
102.462835252285
 30
0.0
  0
VERTEX
  5
1536
  8
0
 10
180.70297531783589
 20
102.7262207269668
 30
0.0
  0
VERTEX
  5
1537
  8
0
 10
180.1507941633464
 20
103.22161728143691
 30
0.0
  0
VERTEX
  5
1538
  8
0
 10
179.56173636019241
 20
103.6837991476059
 30
0.0
  0
VERTEX
  5
1539
  8
0
 10
178.9455249160529
 20
104.1185442507267
 30
0.0
  0
VERTEX
  5
153A
  8
0
 10
178.63037280738359
 20
104.3264638781547
 30
0.0
  0
VERTEX
  5
153B
  8
0
 10
178.14501777291309
 20
104.6314496695995
 30
0.0
  0
VERTEX
  5
153C
  8
0
 10
177.15332128107559
 20
105.2093874812126
 30
0.0
  0
VERTEX
  5
153D
  8
0
 10
176.6491460800172
 20
105.48482799530029
 30
0.0
  0
SEQEND
  5
153E
  8
0
  0
POLYLINE
  5
1333
  8
0
 66
     1
 10
0.0
 20
0.0
 30
0.0
 70
   128
  0
VERTEX
  5
153F
  8
0
 10
176.6491460800172
 20
105.48482799530029
 30
0.0
  0
VERTEX
  5
1540
  8
0
 10
177.46630899608141
 20
105.7109195888042
 30
0.0
  0
VERTEX
  5
1541
  8
0
 10
178.2696771621705
 20
105.9498857855797
 30
0.0
  0
VERTEX
  5
1542
  8
0
 10
179.05672483146199
 20
106.2057163715362
 30
0.0
  0
VERTEX
  5
1543
  8
0
 10
179.81782026588931
 20
106.4824793636799
 30
0.0
  0
VERTEX
  5
1544
  8
0
 10
180.49656815826901
 20
106.76705428957941
 30
0.0
  0
VERTEX
  5
1545
  8
0
 10
181.1233631521464
 20
107.0850525200367
 30
0.0
  0
VERTEX
  5
1546
  8
0
 10
181.54456682503229
 20
107.3575239777565
 30
0.0
  0
VERTEX
  5
1547
  8
0
 10
181.72841735184201
 20
107.50673675537109
 30
0.0
  0
VERTEX
  5
1548
  8
0
 10
181.88620947301399
 20
107.6647039651871
 30
0.0
  0
VERTEX
  5
1549
  8
0
 10
182.0397473126651
 20
107.88070374727251
 30
0.0
  0
VERTEX
  5
154A
  8
0
 10
182.1235439926387
 20
108.11200702190401
 30
0.0
  0
VERTEX
  5
154B
  8
0
 10
182.12370418012151
 20
108.34157431125639
 30
0.0
  0
VERTEX
  5
154C
  8
0
 10
182.03909538686281
 20
108.5749786496162
 30
0.0
  0
VERTEX
  5
154D
  8
0
 10
181.84361450374141
 20
108.83639717102049
 30
0.0
  0
VERTEX
  5
154E
  8
0
 10
181.55954249203211
 20
109.085749477148
 30
0.0
  0
VERTEX
  5
154F
  8
0
 10
181.26381777226931
 20
109.2860583364963
 30
0.0
  0
VERTEX
  5
1550
  8
0
 10
180.93217380344879
 20
109.4744462668896
 30
0.0
  0
VERTEX
  5
1551
  8
0
 10
180.56924857199201
 20
109.65393820404999
 30
0.0
  0
VERTEX
  5
1552
  8
0
 10
180.1854468137027
 20
109.8235357701778
 30
0.0
  0
VERTEX
  5
1553
  8
0
 10
179.3576016277076
 20
110.1434897780418
 30
0.0
  0
VERTEX
  5
1554
  8
0
 10
178.4852317720653
 20
110.4369755983352
 30
0.0
  0
VERTEX
  5
1555
  8
0
 10
177.57763743400579
 20
110.7115406692028
 30
0.0
  0
VERTEX
  5
1556
  8
0
 10
176.6491460800172
 20
110.96965485811231
 30
0.0
  0
SEQEND
  5
1557
  8
0
  0
LINE
  5
1334
  8
0
 10
163.99999924004089
 20
110.96965485811231
 30
0.0
 11
176.6491460800172
 21
110.96965485811231
 31
0.0
  0
LINE
  5
1335
  8
0
 10
163.99999924004089
 20
105.48482799530029
 30
0.0
 11
176.6491460800172
 21
105.48482799530029
 31
0.0
  0
LINE
  5
1336
  8
0
 10
183.999998793006
 20
107.84900897741321
 30
0.0
 11
183.999998793006
 21
92.150989562273026
 31
0.0
  0
LINE
  5
1338
  8
0
 10
127.4999997764827
 20
91.499998807907104
 30
0.0
 11
127.4999997764827
 21
108.4999997317791
 31
0.0
  0
ARC
  5
1339
  8
0
 10
126.8999844033923
 20
106.9500072262914
 30
0.0
 40
0.6000153731392794
 50
306.89554123028478
 51
359.99926897759588
  0
ARC
  5
133A
  8
0
 10
126.89999529341929
 20
93.0499967554492
 30
0.0
 40
0.6000044830674957
 50
0.0002113616380697
 51
53.104978430486057
  0
ARC
  5
133B
  8
0
 10
126.8999937441579
 20
93.049994290172904
 30
0.0
 40
0.60000738474004
 50
53.105001446775049
 51
89.999504500819071
  0
LINE
  5
133C
  8
0
 10
126.8999989330769
 20
93.650001674890518
 30
0.0
 11
118.5000001639129
 21
93.650001674890518
 31
0.0
  0
LINE
  5
133D
  8
0
 10
118.5000001639129
 20
94.425055772066116
 30
0.0
 11
127.4999997764827
 21
94.425055772066116
 31
0.0
  0
ARC
  5
133E
  8
0
 10
126.9000092516587
 20
106.9499763627004
 30
0.0
 40
0.5999757727032334
 50
269.99901460823719
 51
306.89541300336242
  0
LINE
  5
133F
  8
0
 10
127.4999997764827
 20
105.5749427676201
 30
0.0
 11
118.5000001639129
 21
105.5749427676201
 31
0.0
  0
LINE
  5
1340
  8
0
 10
118.5000001639129
 20
106.350000590086
 30
0.0
 11
126.8999989330769
 21
106.350000590086
 31
0.0
  0
LINE
  5
1341
  8
0
 10
118.5000001639129
 20
106.350000590086
 30
0.0
 11
118.5000001639129
 21
93.650001674890518
 31
0.0
  0
LINE
  5
1342
  8
0
 10
117.5000000000001
 20
105.349998563528
 30
0.0
 11
118.5000001639129
 21
106.350000590086
 31
0.0
  0
LINE
  5
1343
  8
0
 10
117.5000000000001
 20
105.184591948986
 30
0.0
 11
118.5000001639129
 21
105.5749427676201
 31
0.0
  0
LINE
  5
1344
  8
0
 10
117.5000000000001
 20
94.81540659070015
 30
0.0
 11
118.5000001639129
 21
94.425055772066116
 31
0.0
  0
LINE
  5
1345
  8
0
 10
118.5000001639129
 20
93.650001674890518
 30
0.0
 11
117.5000000000001
 21
94.649999976158142
 31
0.0
  0
LINE
  5
1346
  8
0
 10
117.5000000000001
 20
94.649999976158142
 30
0.0
 11
117.5000000000001
 21
105.349998563528
 31
0.0
  0
LINE
  5
1347
  8
0
 10
158.49999926984319
 20
60.500000023748719
 30
0.0
 11
157.9999991878868
 21
60.0
 31
0.0
  0
LINE
  5
1348
  8
0
 10
157.9999991878868
 20
60.0
 30
0.0
 11
136.99999947100889
 21
60.0
 31
0.0
  0
LINE
  5
1349
  8
0
 10
136.99999947100889
 20
60.0
 30
0.0
 11
136.4999993890525
 21
60.500000023748719
 31
0.0
  0
LINE
  5
134A
  8
0
 10
158.49999926984319
 20
116.5000010430813
 30
0.0
 11
157.9999991878868
 21
116.9999983310699
 31
0.0
  0
LINE
  5
134B
  8
0
 10
158.49999926984319
 20
116.5000010430813
 30
0.0
 11
158.49999926984319
 21
60.500000023748719
 31
0.0
  0
LINE
  5
134C
  8
0
 10
156.49999894201761
 20
60.0
 30
0.0
 11
156.49999894201761
 21
116.9999983310699
 31
0.0
  0
LINE
  5
134D
  8
0
 10
138.49999971687799
 20
116.9999983310699
 30
0.0
 11
138.49999971687799
 21
60.0
 31
0.0
  0
LINE
  5
134E
  8
0
 10
136.4999993890525
 20
60.500000023748719
 30
0.0
 11
136.4999993890525
 21
116.5000010430813
 31
0.0
  0
LINE
  5
134F
  8
0
 10
136.99999947100889
 20
116.9999983310699
 30
0.0
 11
157.99999918788691
 21
116.9999983310699
 31
0.0
  0
LINE
  5
1350
  8
0
 10
136.99999947100889
 20
116.9999983310699
 30
0.0
 11
136.4999993890525
 21
116.5000010430813
 31
0.0
  0
LINE
  5
1351
  8
2
 10
154.4999995455147
 20
107.99999871850009
 30
0.0
 11
140.49999911338099
 21
107.99999871850009
 31
0.0
  0
LINE
  5
1352
  8
2
 10
140.49999911338099
 20
116.9999983310699
 30
0.0
 11
140.49999911338099
 21
107.99999871850009
 31
0.0
  0
LINE
  5
1353
  8
2
 10
154.4999995455147
 20
107.99999871850009
 30
0.0
 11
154.4999995455147
 21
116.9999983310699
 31
0.0
  0
LINE
  5
1354
  8
2
 10
151.99999913573271
 20
60.0
 30
0.0
 11
151.99999913573271
 21
107.99999871850009
 31
0.0
  0
LINE
  5
1355
  8
2
 10
142.9999995231629
 20
107.99999871850009
 30
0.0
 11
142.9999995231629
 21
60.0
 31
0.0
  0
LINE
  5
1356
  8
1
 10
113.5000000000001
 20
100.0
 30
0.0
 11
187.999998793006
 21
100.0
 31
0.0
  0
LINE
  5
1357
  8
1
 10
147.4999993294478
 20
56.0
 30
0.0
 11
147.49999932944789
 21
120.9999983310699
 31
0.0
  0
LINE
  5
1361
  8
1
 10
75.0
 20
99.999999269843102
 30
0.0
 11
45.0
 21
99.999999269843102
 31
0.0
  0
LINE
  5
1384
  8
0
 10
85.500000000000114
 20
117.0000000000002
 30
0.0
 11
85.500000000000114
 21
60.0
 31
0.0
  0
LINE
  5
1387
  8
0
 10
34.499999999999943
 20
60.0
 30
0.0
 11
34.499999999999943
 21
117.0000000000002
 31
0.0
  0
LINE
  5
1388
  8
1
 10
78.000000000000171
 20
119.0000000000002
 30
0.0
 11
78.000000000000057
 21
58.0
 31
0.0
  0
LINE
  5
1389
  8
1
 10
41.999999999999879
 20
58.0
 30
0.0
 11
41.999999999999879
 21
119.0000000000002
 31
0.0
  0
LINE
  5
138A
  8
1
 10
59.999999999999829
 20
56.0
 30
0.0
 11
59.999999999999943
 21
121.0000000000002
 31
0.0
  0
LINE
  5
13A7
  8
1
 10
226.499998793006
 20
99.999999269843116
 30
0.0
 11
256.49999879300611
 21
99.999999269843102
 31
0.0
  0
LINE
  5
13A8
  8
1
 10
241.49999879300611
 20
121.0
 30
0.0
 11
241.49999879300611
 21
56.0
 31
0.0
  0
LINE
  5
13A9
  8
1
 10
223.49999879300611
 20
58.0
 30
0.0
 11
223.49999879300611
 21
119.0
 31
0.0
  0
LINE
  5
13AA
  8
1
 10
259.499998793006
 20
119.0
 30
0.0
 11
259.499998793006
 21
58.0
 31
0.0
  0
ENDSEC
  0
EOF
