  0
SECTION
  2
HEADER
  9
$ACADVER
  1
AC1009
  9
$INSBASE
 10
0.0
 20
0.0
 30
0.0
  9
$EXTMIN
 10
0.0
 20
-2.960436562073669
 30
0.0
  9
$EXTMAX
 10
551.43542387576872
 20
547.79958754314373
 30
0.0
  9
$LIMMIN
 10
0.0
 20
0.0
  9
$LIMMAX
 10
375.0
 20
270.0
  9
$ORTHOMODE
 70
     1
  9
$REGENMODE
 70
     1
  9
$FILLMODE
 70
     1
  9
$QTEXTMODE
 70
     0
  9
$MIRRTEXT
 70
     0
  9
$DRAGMODE
 70
     2
  9
$LTSCALE
 40
10.0
  9
$OSMODE
 70
    37
  9
$ATTMODE
 70
     1
  9
$TEXTSIZE
 40
0.2
  9
$TRACEWID
 40
0.05
  9
$TEXTSTYLE
  7
STANDARD
  9
$CLAYER
  8
0
  9
$CELTYPE
  6
BYLAYER
  9
$CECOLOR
 62
   256
  9
$DIMSCALE
 40
1.0
  9
$DIMASZ
 40
3.0
  9
$DIMEXO
 40
2.0
  9
$DIMDLI
 40
10.0
  9
$DIMRND
 40
0.0
  9
$DIMDLE
 40
0.0
  9
$DIMEXE
 40
2.0
  9
$DIMTP
 40
0.0
  9
$DIMTM
 40
0.0
  9
$DIMTXT
 40
3.2000000000000002
  9
$DIMCEN
 40
0.09
  9
$DIMTSZ
 40
0.0
  9
$DIMTOL
 70
     0
  9
$DIMLIM
 70
     0
  9
$DIMTIH
 70
     0
  9
$DIMTOH
 70
     0
  9
$DIMSE1
 70
     0
  9
$DIMSE2
 70
     0
  9
$DIMTAD
 70
     1
  9
$DIMZIN
 70
     0
  9
$DIMBLK
  1

  9
$DIMASO
 70
     0
  9
$DIMSHO
 70
     0
  9
$DIMPOST
  1

  9
$DIMAPOST
  1

  9
$DIMALT
 70
     0
  9
$DIMALTD
 70
     2
  9
$DIMALTF
 40
25.399999999999999
  9
$DIMLFAC
 40
1.0
  9
$DIMTOFL
 70
     1
  9
$DIMTVP
 40
1.6000000000000001
  9
$DIMTIX
 70
     0
  9
$DIMSOXD
 70
     0
  9
$DIMSAH
 70
     0
  9
$DIMBLK1
  1

  9
$DIMBLK2
  1

  9
$DIMSTYLE
  2
STANDARD
  9
$DIMCLRD
 70
     0
  9
$DIMCLRE
 70
     0
  9
$DIMCLRT
 70
     0
  9
$DIMTFAC
 40
1.0
  9
$DIMGAP
 40
0.09
  9
$LUNITS
 70
     2
  9
$LUPREC
 70
     1
  9
$SKETCHINC
 40
0.1
  9
$FILLETRAD
 40
0.0
  9
$AUNITS
 70
     0
  9
$AUPREC
 70
     1
  9
$MENU
  1
E:\r13\win\SUPPORT\ACAD
  9
$ELEVATION
 40
0.0
  9
$PELEVATION
 40
0.0
  9
$THICKNESS
 40
0.0
  9
$LIMCHECK
 70
     0
  9
$BLIPMODE
 70
     0
  9
$CHAMFERA
 40
0.0
  9
$CHAMFERB
 40
0.0
  9
$SKPOLY
 70
     0
  9
$TDCREATE
 40
2449840.6171180559
  9
$TDUPDATE
 40
2459873.4302938539
  9
$TDINDWG
 40
0.4239145602
  9
$TDUSRTIMER
 40
0.4239145602
  9
$USRTIMER
 70
     1
  9
$ANGBASE
 50
0.0
  9
$ANGDIR
 70
     0
  9
$PDMODE
 70
     0
  9
$PDSIZE
 40
0.0
  9
$PLINEWID
 40
0.0
  9
$COORDS
 70
     1
  9
$SPLFRAME
 70
     0
  9
$SPLINETYPE
 70
     6
  9
$SPLINESEGS
 70
     8
  9
$ATTDIA
 70
     0
  9
$ATTREQ
 70
     1
  9
$HANDLING
 70
     1
  9
$HANDSEED
  5
469E
  9
$SURFTAB1
 70
     6
  9
$SURFTAB2
 70
     6
  9
$SURFTYPE
 70
     6
  9
$SURFU
 70
     6
  9
$SURFV
 70
     6
  9
$UCSNAME
  2

  9
$UCSORG
 10
0.0
 20
0.0
 30
0.0
  9
$UCSXDIR
 10
1.0
 20
0.0
 30
0.0
  9
$UCSYDIR
 10
0.0
 20
1.0
 30
0.0
  9
$PUCSNAME
  2

  9
$PUCSORG
 10
0.0
 20
0.0
 30
0.0
  9
$PUCSXDIR
 10
1.0
 20
0.0
 30
0.0
  9
$PUCSYDIR
 10
0.0
 20
1.0
 30
0.0
  9
$USERI1
 70
     0
  9
$USERI2
 70
     1
  9
$USERI3
 70
     0
  9
$USERI4
 70
     0
  9
$USERI5
 70
     0
  9
$USERR1
 40
0.0
  9
$USERR2
 40
0.0
  9
$USERR3
 40
0.0
  9
$USERR4
 40
0.0
  9
$USERR5
 40
0.0
  9
$WORLDVIEW
 70
     1
  9
$SHADEDGE
 70
     3
  9
$SHADEDIF
 70
    70
  9
$TILEMODE
 70
     1
  9
$MAXACTVP
 70
    16
  9
$PLIMCHECK
 70
     0
  9
$PEXTMIN
 10
1.0000000000000000E+020
 20
1.0000000000000000E+020
 30
1.0000000000000000E+020
  9
$PEXTMAX
 10
-1.0000000000000000E+020
 20
-1.0000000000000000E+020
 30
-1.0000000000000000E+020
  9
$PLIMMIN
 10
0.0
 20
0.0
  9
$PLIMMAX
 10
12.0
 20
9.0
  9
$UNITMODE
 70
     0
  9
$VISRETAIN
 70
     0
  9
$PLINEGEN
 70
     0
  9
$PSLTSCALE
 70
     0
  0
ENDSEC
  0
SECTION
  2
TABLES
  0
TABLE
  2
VPORT
 70
     1
  0
VPORT
  2
*ACTIVE
 70
     0
 10
0.0
 20
0.0
 11
1.0
 21
1.0
 12
740.234375
 22
325.0
 13
0.0
 23
0.0
 14
10.0
 24
10.0
 15
10.0
 25
10.0
 16
0.0
 26
0.0
 36
1.0
 17
0.0
 27
0.0
 37
0.0
 40
650.0
 41
2.2776442307692299
 42
50.0
 43
0.0
 44
0.0
 50
0.0
 51
0.0
 71
     0
 72
   100
 73
     1
 74
     0
 75
     0
 76
     0
 77
     0
 78
     0
  0
ENDTAB
  0
TABLE
  2
LTYPE
 70
     3
  0
LTYPE
  2
CONTINUOUS
 70
     0
  3
Solid Line
 72
    65
 73
     0
 40
0.0
  0
LTYPE
  2
CENTER
 70
     0
  3
____ _ ____ _ ____ _ ____ _ ____ _ ____ _ ____
 72
    65
 73
     4
 40
2.0
 49
1.25
 49
-0.25
 49
0.25
 49
-0.25
  0
LTYPE
  2
PHANTOM2
 70
     0
  3
___ _ _ ___ _ _ ___ _ _ ___ _ _
 72
    65
 73
     6
 40
1.25
 49
0.625
 49
-0.125
 49
0.125
 49
-0.125
 49
0.125
 49
-0.125
  0
ENDTAB
  0
TABLE
  2
LAYER
 70
     4
  0
LAYER
  2
0
 70
     0
 62
     7
  6
CONTINUOUS
  0
LAYER
  2
1
 70
     0
 62
     1
  6
CENTER
  0
LAYER
  2
3
 70
     0
 62
     3
  6
CONTINUOUS
  0
LAYER
  2
DEFPOINTS
 70
     0
 62
     7
  6
CONTINUOUS
  0
ENDTAB
  0
TABLE
  2
STYLE
 70
     2
  0
STYLE
  2
STANDARD
 70
     0
 40
0.0
 41
1.0
 50
0.0
 71
     0
 42
0.2
  3
TXT
  4
BIGFONT
  0
STYLE
  2
STANDARD1
 70
     0
 40
0.0
 41
1.0
 50
0.0
 71
     0
 42
3.0
  3
txt
  4

  0
ENDTAB
  0
TABLE
  2
VIEW
 70
     1
  0
VIEW
  2
ALL
 70
     0
 40
270.0
 10
220.99159700000001
 20
135.0
 41
0.0
 11
0.0
 21
0.0
 31
1.0
 12
0.0
 22
0.0
 32
0.0
 42
0.0
 43
0.0
 44
0.0
 50
0.0
 71
     0
  0
ENDTAB
  0
TABLE
  2
UCS
 70
     0
  0
ENDTAB
  0
TABLE
  2
APPID
 70
    10
  0
APPID
  2
ACAD
 70
     0
  0
APPID
  2
ACAD_EXEMPT_FROM_CAD_STANDARDS
 70
     0
  0
APPID
  2
ACAD_MLEADERVER
 70
     0
  0
APPID
  2
ACAD_NAV_VCDISPLAY
 70
     0
  0
APPID
  2
ACAD_PSEXT
 70
     0
  0
APPID
  2
ACAD_DSTYLE_DIMJAG
 70
     0
  0
APPID
  2
ACAD_DSTYLE_DIMTALN
 70
     0
  0
APPID
  2
ACAD_DSTYLE_DIMBREAK
 70
     0
  0
APPID
  2
ACAECLAYERSTANDARD
 70
     0
  0
APPID
  2
ACCMTRANSPARENCY
 70
     0
  0
ENDTAB
  0
TABLE
  2
DIMSTYLE
 70
     1
  0
DIMSTYLE
  2
STANDARD
 70
     0
  3

  4

  5

  6

  7

 40
1.0
 41
0.18
 42
0.0625
 43
0.38
 44
0.18
 45
0.0
 46
0.0
 47
0.0
 48
0.0
140
0.18
141
0.09
142
0.0
143
25.399999999999999
144
1.0
145
0.0
146
1.0
147
0.09
 71
     0
 72
     0
 73
     1
 74
     1
 75
     0
 76
     0
 77
     0
 78
     0
170
     0
171
     2
172
     0
173
     0
174
     0
175
     0
176
     0
177
     0
178
     0
  0
ENDTAB
  0
ENDSEC
  0
SECTION
  2
BLOCKS
  0
BLOCK
  8
0
  2
$MODEL_SPACE
 70
     0
 10
0.0
 20
0.0
 30
0.0
  3
$MODEL_SPACE
  1

  0
ENDBLK
  5
E8
  8
0
  0
BLOCK
 67
     1
  8
0
  2
$PAPER_SPACE
 70
     0
 10
0.0
 20
0.0
 30
0.0
  3
$PAPER_SPACE
  1

  0
ENDBLK
  5
E6
 67
     1
  8
0
  0
ENDSEC
  0
SECTION
  2
ENTITIES
  0
TEXT
  5
2B37
  8
0
 62
     3
 10
0.0
 20
0.0
 30
0.0
 40
10.0
  1
PTSW3-16R
  7
STANDARD1
  0
LINE
  5
3CEB
  8
0
 10
332.4354241861227
 20
370.79958754314362
 30
0.0
 11
332.4354241861227
 21
371.79958754314362
 31
0.0
  0
LINE
  5
3CEC
  8
0
 10
312.43542418612259
 20
371.79958754314362
 30
0.0
 11
312.43542418612259
 21
370.79958754314362
 31
0.0
  0
LINE
  5
3CED
  8
0
 10
334.93542418612259
 20
374.29958754314362
 30
0.0
 11
334.4354241861227
 21
374.79958754314362
 31
0.0
  0
LINE
  5
3CEE
  8
0
 10
310.43542418612259
 20
374.79958754314362
 30
0.0
 11
309.93542418612259
 21
374.29958754314362
 31
0.0
  0
LINE
  5
3CEF
  8
0
 10
309.93542418612259
 20
372.29958754314362
 30
0.0
 11
310.43542418612259
 21
371.79958754314362
 31
0.0
  0
LINE
  5
3CF0
  8
0
 10
334.4354241861227
 20
371.79958754314362
 30
0.0
 11
334.93542418612259
 21
372.29958754314362
 31
0.0
  0
LINE
  5
3CF1
  8
0
 10
334.93542418612259
 20
372.29958754314362
 30
0.0
 11
334.93542418612259
 21
374.29958754314362
 31
0.0
  0
LINE
  5
3CF2
  8
0
 10
309.93542418612259
 20
374.29958754314362
 30
0.0
 11
309.93542418612259
 21
372.29958754314362
 31
0.0
  0
LINE
  5
3CF3
  8
0
 10
331.9354241861227
 20
392.90564199676481
 30
0.0
 11
331.73332244358789
 21
393.68781611079743
 31
0.0
  0
LINE
  5
3CF4
  8
0
 10
313.13752592865762
 20
393.68781611079743
 30
0.0
 11
312.93542418612259
 21
392.90564199676481
 31
0.0
  0
ARC
  5
3CF5
  8
0
 10
330.28443370415431
 20
393.29958754314367
 30
0.0
 40
1.5
 50
14.999999999998259
 51
90.0
  0
ARC
  5
3CF6
  8
0
 10
314.58641466809132
 20
393.29958754314367
 30
0.0
 40
1.5
 50
90.0
 51
165.00000000000171
  0
ARC
  5
3CF7
  8
0
 10
351.4354241861227
 20
369.79958754314362
 30
0.0
 40
1.0
 50
0.0000000000004071
 51
89.999999999993491
  0
LINE
  5
3CF8
  8
0
 10
352.43542418612259
 20
337.79958754314362
 30
0.0
 11
352.43542418612259
 21
369.79958754314362
 31
0.0
  0
ARC
  5
3CF9
  8
0
 10
351.4354241861227
 20
337.79958754314362
 30
0.0
 40
1.0
 50
270.00000000000648
 51
0.0000000000004071
  0
ARC
  5
3CFA
  8
0
 10
244.43542418612259
 20
336.79958754314362
 30
0.0
 40
1.000000000000056
 50
179.9999999999996
 51
270.0
  0
ARC
  5
3CFB
  8
0
 10
244.43542418612259
 20
369.79958754314362
 30
0.0
 40
1.000000000000056
 50
90.0
 51
179.9999999999996
  0
LINE
  5
3CFC
  8
0
 10
243.43542418612259
 20
369.79958754314362
 30
0.0
 11
243.43542418612259
 21
336.79958754314362
 31
0.0
  0
ARC
  5
3CFD
  8
0
 10
343.43542418612259
 20
335.79958754314362
 30
0.0
 40
1.0
 50
89.99999999998046
 51
179.9999999999996
  0
ARC
  5
3CFE
  8
0
 10
301.4354241861227
 20
335.79958754314362
 30
0.0
 40
1.0
 50
0.0000000000004071
 51
90.000000000006494
  0
LINE
  5
3CFF
  8
0
 10
302.43542418612259
 20
335.79958754314362
 30
0.0
 11
302.43542418612259
 21
322.79958754314362
 31
0.0
  0
LINE
  5
3D00
  8
0
 10
342.4354241861227
 20
322.79958754314362
 30
0.0
 11
342.4354241861227
 21
335.79958754314362
 31
0.0
  0
LINE
  5
3D01
  8
0
 10
292.9354241861227
 20
274.79958754314362
 30
0.0
 11
292.9354241861227
 21
204.79958754314359
 31
0.0
  0
LINE
  5
3D02
  8
0
 10
351.93542418612259
 20
204.79958754314359
 30
0.0
 11
351.93542418612259
 21
274.79958754314362
 31
0.0
  0
LINE
  5
3D03
  8
0
 10
293.1854241861227
 20
196.29958754314359
 30
0.0
 11
293.68542418612259
 21
195.79958754314359
 31
0.0
  0
LINE
  5
3D04
  8
0
 10
351.1854241861227
 20
195.79958754314359
 30
0.0
 11
351.68542418612259
 21
196.29958754314359
 31
0.0
  0
LINE
  5
3D05
  8
0
 10
351.68542418612259
 20
196.29958754314359
 30
0.0
 11
351.68542418612259
 21
204.79958754314359
 31
0.0
  0
LINE
  5
3D06
  8
0
 10
293.1854241861227
 20
204.79958754314359
 30
0.0
 11
293.1854241861227
 21
196.29958754314359
 31
0.0
  0
LINE
  5
3D07
  8
0
 10
293.43542418612259
 20
320.79958754314367
 30
0.0
 11
293.43542418612259
 21
299.79958754314362
 31
0.0
  0
LINE
  5
3D08
  8
0
 10
351.4354241861227
 20
299.79958754314362
 30
0.0
 11
351.4354241861227
 21
320.79958754314367
 31
0.0
  0
LINE
  5
3D09
  8
0
 10
351.4354241861227
 20
320.79958754314367
 30
0.0
 11
349.4354241861227
 21
322.79958754314362
 31
0.0
  0
LINE
  5
3D0A
  8
0
 10
295.43542418612259
 20
322.79958754314362
 30
0.0
 11
293.43542418612259
 21
320.79958754314367
 31
0.0
  0
LINE
  5
3D0C
  8
0
 10
310.43542418612259
 20
374.79958754314362
 30
0.0
 11
334.4354241861227
 21
374.79958754314362
 31
0.0
  0
LINE
  5
3D0D
  8
0
 10
334.4354241861227
 20
371.79958754314362
 30
0.0
 11
310.43542418612259
 21
371.79958754314362
 31
0.0
  0
POLYLINE
  5
3D10
  8
0
 66
     1
 10
0.0
 20
0.0
 30
0.0
 70
   128
  0
VERTEX
  5
4642
  8
0
 10
331.9354241861227
 20
387.44873458205763
 30
0.0
  0
VERTEX
  5
4643
  8
0
 10
330.20743967220818
 20
390.61740978081667
 30
0.0
  0
VERTEX
  5
4644
  8
0
 10
329.16375527830559
 20
391.92294966291979
 30
0.0
  0
VERTEX
  5
4645
  8
0
 10
328.15976530191568
 20
392.6857971677502
 30
0.0
  0
VERTEX
  5
4646
  8
0
 10
327.3850141436223
 20
392.92313065359332
 30
0.0
  0
VERTEX
  5
4647
  8
0
 10
326.58312553167121
 20
392.8386819054333
 30
0.0
  0
VERTEX
  5
4648
  8
0
 10
325.69844713016067
 20
392.35913203339908
 30
0.0
  0
VERTEX
  5
4649
  8
0
 10
324.42056272836339
 20
390.98503543102242
 30
0.0
  0
VERTEX
  5
464A
  8
0
 10
323.35804941700331
 20
389.28481925759718
 30
0.0
  0
VERTEX
  5
464B
  8
0
 10
322.43542418612259
 20
387.44873458205763
 30
0.0
  0
SEQEND
  5
464C
  8
0
  0
POLYLINE
  5
3D11
  8
0
 66
     1
 10
0.0
 20
0.0
 30
0.0
 70
   128
  0
VERTEX
  5
464D
  8
0
 10
322.43542418612259
 20
387.44873458205763
 30
0.0
  0
VERTEX
  5
464E
  8
0
 10
320.70743967220818
 20
390.61740978081667
 30
0.0
  0
VERTEX
  5
464F
  8
0
 10
319.6637552783057
 20
391.92294966291979
 30
0.0
  0
VERTEX
  5
4650
  8
0
 10
318.65976530191568
 20
392.68579716775031
 30
0.0
  0
VERTEX
  5
4651
  8
0
 10
317.88501414362241
 20
392.92313065359332
 30
0.0
  0
VERTEX
  5
4652
  8
0
 10
317.0831255316711
 20
392.8386819054333
 30
0.0
  0
VERTEX
  5
4653
  8
0
 10
316.1984471301605
 20
392.35913203339908
 30
0.0
  0
VERTEX
  5
4654
  8
0
 10
314.92056272836339
 20
390.98503543102242
 30
0.0
  0
VERTEX
  5
4655
  8
0
 10
313.85804941700297
 20
389.28481925759718
 30
0.0
  0
VERTEX
  5
4656
  8
0
 10
312.93542418612259
 20
387.44873458205763
 30
0.0
  0
SEQEND
  5
4657
  8
0
  0
LINE
  5
3D13
  8
0
 10
322.43542418612259
 20
387.44873458205763
 30
0.0
 11
322.43542418612259
 21
374.79958754314362
 31
0.0
  0
LINE
  5
3D14
  8
0
 10
331.9354241861227
 20
392.90564199676481
 30
0.0
 11
331.9354241861227
 21
374.79958754314362
 31
0.0
  0
LINE
  5
3D15
  8
0
 10
312.93542418612259
 20
392.90564199676481
 30
0.0
 11
312.93542418612259
 21
374.79958754314362
 31
0.0
  0
LINE
  5
3D16
  8
0
 10
314.58641466809132
 20
394.79958754314367
 30
0.0
 11
330.28443318030151
 21
394.79958754314367
 31
0.0
  0
LINE
  5
3D1B
  8
0
 10
351.4354241861227
 20
336.79958754314362
 30
0.0
 11
271.49621375974903
 21
336.79958754314362
 31
0.0
  0
LINE
  5
3D1E
  8
0
 10
271.49621375974903
 20
336.79958754314362
 30
0.0
 11
271.43542418612259
 21
336.79958754314362
 31
0.0
  0
ARC
  5
3D1F
  8
0
 10
270.43542418612259
 20
336.79958754314362
 30
0.0
 40
1.0
 50
270.0
 51
0.0
  0
LINE
  5
3D20
  8
0
 10
270.43542418612259
 20
335.79958754314362
 30
0.0
 11
257.4354241861227
 21
335.79958754314362
 31
0.0
  0
LINE
  5
3D22
  8
0
 10
257.4354241861227
 20
335.79958754314362
 30
0.0
 11
244.43542418612259
 21
335.79958754314362
 31
0.0
  0
LINE
  5
3D23
  8
0
 10
244.43542418612259
 20
370.79958754314362
 30
0.0
 11
351.4354241861227
 21
370.79958754314362
 31
0.0
  0
LINE
  5
3D24
  8
0
 10
351.93542418612259
 20
204.79958754314359
 30
0.0
 11
292.9354241861227
 21
204.79958754314359
 31
0.0
  0
LINE
  5
3D27
  8
0
 10
351.1854241861227
 20
195.79958754314359
 30
0.0
 11
293.68542418612259
 21
195.79958754314359
 31
0.0
  0
LINE
  5
3D28
  8
0
 10
292.9354241861227
 20
299.79958754314362
 30
0.0
 11
351.93542418612259
 21
299.79958754314362
 31
0.0
  0
LINE
  5
3D29
  8
0
 10
351.93542418612259
 20
299.79958754314362
 30
0.0
 11
352.43542418612259
 21
299.29958754314362
 31
0.0
  0
LINE
  5
3D2B
  8
0
 10
292.4354241861227
 20
299.29958754314362
 30
0.0
 11
292.9354241861227
 21
299.79958754314362
 31
0.0
  0
LINE
  5
3D2D
  8
0
 10
351.93542418612259
 20
274.79958754314362
 30
0.0
 11
352.43542418612259
 21
275.29958754314362
 31
0.0
  0
LINE
  5
3D2E
  8
0
 10
351.93542418612259
 20
274.79958754314362
 30
0.0
 11
292.9354241861227
 21
274.79958754314362
 31
0.0
  0
LINE
  5
3D2F
  8
0
 10
292.4354241861227
 20
275.29958754314362
 30
0.0
 11
292.9354241861227
 21
274.79958754314362
 31
0.0
  0
LINE
  5
3D30
  8
0
 10
352.43542418612259
 20
275.29958754314362
 30
0.0
 11
352.43542418612259
 21
299.29958754314362
 31
0.0
  0
LINE
  5
3D31
  8
0
 10
292.4354241861227
 20
275.29958754314362
 30
0.0
 11
292.4354241861227
 21
299.29958754314362
 31
0.0
  0
LINE
  5
3D32
  8
0
 10
351.4354241861227
 20
320.79958754314367
 30
0.0
 11
293.43542418612259
 21
320.79958754314367
 31
0.0
  0
LINE
  5
3D33
  8
0
 10
295.43542418612259
 20
322.79958754314362
 30
0.0
 11
349.4354241861227
 21
322.79958754314362
 31
0.0
  0
LINE
  5
3D35
  8
0
 10
148.43542418612259
 20
370.79958754314362
 30
0.0
 11
148.43542418612259
 21
371.79958754314362
 31
0.0
  0
LINE
  5
3D36
  8
0
 10
128.43542418612259
 20
371.79958754314362
 30
0.0
 11
128.43542418612259
 21
370.79958754314362
 31
0.0
  0
LINE
  5
3D37
  8
0
 10
150.93542418612259
 20
372.29958754314362
 30
0.0
 11
150.93542418612259
 21
374.29958754314362
 31
0.0
  0
LINE
  5
3D38
  8
0
 10
125.9354241861226
 20
374.29958754314362
 30
0.0
 11
125.9354241861226
 21
372.29958754314362
 31
0.0
  0
LINE
  5
3D39
  8
0
 10
150.93542418612259
 20
374.29958754314362
 30
0.0
 11
150.43542418612259
 21
374.79958754314362
 31
0.0
  0
LINE
  5
3D3A
  8
0
 10
126.4354241861226
 20
374.79958754314362
 30
0.0
 11
125.9354241861226
 21
374.29958754314362
 31
0.0
  0
LINE
  5
3D3B
  8
0
 10
125.9354241861226
 20
372.29958754314362
 30
0.0
 11
126.4354241861226
 21
371.79958754314362
 31
0.0
  0
LINE
  5
3D3C
  8
0
 10
150.43542418612259
 20
371.79958754314362
 30
0.0
 11
150.93542418612259
 21
372.29958754314362
 31
0.0
  0
LINE
  5
3D3D
  8
0
 10
149.40507930072539
 20
387.44873458205763
 30
0.0
 11
147.73332244358761
 21
393.68781611079743
 31
0.0
  0
LINE
  5
3D3E
  8
0
 10
129.1375259286574
 20
393.68781611079743
 30
0.0
 11
127.4657690715196
 21
387.44873458205751
 31
0.0
  0
ARC
  5
3D3F
  8
0
 10
146.2844337041542
 20
393.29958754314367
 30
0.0
 40
1.5000000000000031
 50
14.999999999998259
 51
90.0
  0
ARC
  5
3D40
  8
0
 10
130.58641466809101
 20
393.29958754314367
 30
0.0
 40
1.5
 50
90.0
 51
165.00000000000171
  0
ARC
  5
3D41
  8
0
 10
109.4354241861226
 20
369.79958754314362
 30
0.0
 40
1.0
 50
90.0
 51
180.0
  0
ARC
  5
3D42
  8
0
 10
167.43542418612259
 20
369.79958754314362
 30
0.0
 40
1.0
 50
0.0
 51
90.0
  0
ARC
  5
3D43
  8
0
 10
109.4354241861226
 20
337.79958754314362
 30
0.0
 40
1.0
 50
180.0
 51
270.0
  0
ARC
  5
3D44
  8
0
 10
167.43542418612259
 20
337.79958754314362
 30
0.0
 40
1.0
 50
270.0
 51
0.0
  0
LINE
  5
3D45
  8
0
 10
168.43542418612259
 20
337.79958754314362
 30
0.0
 11
168.43542418612259
 21
369.79958754314362
 31
0.0
  0
LINE
  5
3D46
  8
0
 10
108.4354241861226
 20
369.79958754314362
 30
0.0
 11
108.4354241861226
 21
337.79958754314362
 31
0.0
  0
ARC
  5
3D47
  8
0
 10
159.43542418612259
 20
335.79958754314362
 30
0.0
 40
1.0
 50
89.999999999986969
 51
180.0
  0
ARC
  5
3D48
  8
0
 10
117.4354241861226
 20
335.79958754314362
 30
0.0
 40
1.0
 50
0.0
 51
90.000000000013017
  0
LINE
  5
3D49
  8
0
 10
118.4354241861226
 20
335.79958754314362
 30
0.0
 11
118.4354241861226
 21
322.79958754314362
 31
0.0
  0
LINE
  5
3D4A
  8
0
 10
158.43542418612259
 20
322.79958754314362
 30
0.0
 11
158.43542418612259
 21
335.79958754314362
 31
0.0
  0
LINE
  5
3D4B
  8
0
 10
108.9354241861226
 20
274.79958754314362
 30
0.0
 11
108.9354241861226
 21
204.79958754314359
 31
0.0
  0
LINE
  5
3D4C
  8
0
 10
167.93542418612259
 20
204.79958754314359
 30
0.0
 11
167.93542418612259
 21
274.79958754314362
 31
0.0
  0
LINE
  5
3D4D
  8
0
 10
109.1854241861226
 20
196.29958754314359
 30
0.0
 11
109.6854241861226
 21
195.79958754314359
 31
0.0
  0
LINE
  5
3D4E
  8
0
 10
167.18542418612259
 20
195.79958754314359
 30
0.0
 11
167.68542418612259
 21
196.29958754314359
 31
0.0
  0
LINE
  5
3D4F
  8
0
 10
167.68542418612259
 20
196.29958754314359
 30
0.0
 11
167.68542418612259
 21
204.79958754314359
 31
0.0
  0
LINE
  5
3D50
  8
0
 10
109.1854241861226
 20
204.79958754314359
 30
0.0
 11
109.1854241861226
 21
196.29958754314359
 31
0.0
  0
LINE
  5
3D51
  8
0
 10
183.43542418612259
 20
275.29958754314362
 30
0.0
 11
183.43542418612259
 21
299.29958754314362
 31
0.0
  0
LINE
  5
3D52
  8
0
 10
183.43542418612259
 20
299.29958754314362
 30
0.0
 11
182.93542418612259
 21
299.79958754314362
 31
0.0
  0
LINE
  5
3D53
  8
0
 10
93.935424186122646
 20
299.79958754314362
 30
0.0
 11
93.435424186122646
 21
299.29958754314362
 31
0.0
  0
LINE
  5
3D54
  8
0
 10
93.435424186122646
 20
275.29958754314362
 30
0.0
 11
93.935424186122646
 21
274.79958754314362
 31
0.0
  0
LINE
  5
3D55
  8
0
 10
182.93542418612259
 20
274.79958754314362
 30
0.0
 11
183.43542418612259
 21
275.29958754314362
 31
0.0
  0
LINE
  5
3D56
  8
0
 10
93.435424186122646
 20
299.29958754314362
 30
0.0
 11
93.435424186122646
 21
275.29958754314362
 31
0.0
  0
LINE
  5
3D57
  8
0
 10
109.4354241861226
 20
320.79958754314367
 30
0.0
 11
109.4354241861226
 21
299.79958754314362
 31
0.0
  0
LINE
  5
3D58
  8
0
 10
167.43542418612259
 20
299.79958754314362
 30
0.0
 11
167.43542418612259
 21
320.79958754314367
 31
0.0
  0
LINE
  5
3D59
  8
0
 10
167.43542418612259
 20
320.79958754314367
 30
0.0
 11
165.43542418612259
 21
322.79958754314362
 31
0.0
  0
LINE
  5
3D5A
  8
0
 10
111.4354241861226
 20
322.79958754314362
 30
0.0
 11
109.4354241861226
 21
320.79958754314367
 31
0.0
  0
LINE
  5
3D5E
  8
0
 10
126.4354241861226
 20
374.79958754314362
 30
0.0
 11
150.43542418612259
 21
374.79958754314362
 31
0.0
  0
LINE
  5
3D5F
  8
0
 10
150.43542418612259
 20
371.79958754314362
 30
0.0
 11
126.4354241861226
 21
371.79958754314362
 31
0.0
  0
POLYLINE
  5
3D61
  8
0
 66
     1
 10
0.0
 20
0.0
 30
0.0
 70
   128
  0
VERTEX
  5
4658
  8
0
 10
149.40507930072539
 20
387.44873458205763
 30
0.0
  0
VERTEX
  5
4659
  8
0
 10
148.40742697646141
 20
390.61740978081667
 30
0.0
  0
VERTEX
  5
465A
  8
0
 10
147.8048555106927
 20
391.92294966291979
 30
0.0
  0
VERTEX
  5
465B
  8
0
 10
147.22520162756041
 20
392.68579716775031
 30
0.0
  0
VERTEX
  5
465C
  8
0
 10
146.7778988377647
 20
392.92313065359332
 30
0.0
  0
VERTEX
  5
465D
  8
0
 10
146.31492823179471
 20
392.8386819054333
 30
0.0
  0
VERTEX
  5
465E
  8
0
 10
145.8041589185363
 20
392.35913203339908
 30
0.0
  0
VERTEX
  5
465F
  8
0
 10
145.06637201516531
 20
390.98503543102242
 30
0.0
  0
VERTEX
  5
4660
  8
0
 10
144.452929668834
 20
389.28481925759718
 30
0.0
  0
VERTEX
  5
4661
  8
0
 10
143.9202517434241
 20
387.44873458205763
 30
0.0
  0
SEQEND
  5
4662
  8
0
  0
POLYLINE
  5
3D62
  8
0
 66
     1
 10
0.0
 20
0.0
 30
0.0
 70
   128
  0
VERTEX
  5
4663
  8
0
 10
143.9202517434241
 20
387.44873458205763
 30
0.0
  0
VERTEX
  5
4664
  8
0
 10
142.76188699529689
 20
389.42996021242328
 30
0.0
  0
VERTEX
  5
4665
  8
0
 10
141.90439579792579
 20
390.64378627098517
 30
0.0
  0
VERTEX
  5
4666
  8
0
 10
140.8982609290253
 20
391.76151397523893
 30
0.0
  0
VERTEX
  5
4667
  8
0
 10
139.94722829409901
 20
392.48743242709111
 30
0.0
  0
VERTEX
  5
4668
  8
0
 10
138.8125161929367
 20
392.90564199676481
 30
0.0
  0
VERTEX
  5
4669
  8
0
 10
137.93276211854209
 20
392.88396661083891
 30
0.0
  0
VERTEX
  5
466A
  8
0
 10
137.10718980086881
 20
392.5887072566519
 30
0.0
  0
VERTEX
  5
466B
  8
0
 10
135.84125567957719
 20
391.6354515226144
 30
0.0
  0
VERTEX
  5
466C
  8
0
 10
134.36610737988121
 20
389.81782074868062
 30
0.0
  0
VERTEX
  5
466D
  8
0
 10
133.12213433827901
 20
387.76504480500478
 30
0.0
  0
VERTEX
  5
466E
  8
0
 10
132.9505966288211
 20
387.44873458205763
 30
0.0
  0
SEQEND
  5
466F
  8
0
  0
POLYLINE
  5
3D63
  8
0
 66
     1
 10
0.0
 20
0.0
 30
0.0
 70
   128
  0
VERTEX
  5
4670
  8
0
 10
132.9505966288211
 20
387.44873458205763
 30
0.0
  0
VERTEX
  5
4671
  8
0
 10
131.95294430455709
 20
390.61740978081667
 30
0.0
  0
VERTEX
  5
4672
  8
0
 10
131.35037283878839
 20
391.92294966291979
 30
0.0
  0
VERTEX
  5
4673
  8
0
 10
130.77071895565609
 20
392.68579716775031
 30
0.0
  0
VERTEX
  5
4674
  8
0
 10
130.32341616586041
 20
392.92313065359332
 30
0.0
  0
VERTEX
  5
4675
  8
0
 10
129.86044555989039
 20
392.8386819054333
 30
0.0
  0
VERTEX
  5
4676
  8
0
 10
129.34967624663199
 20
392.35913203339908
 30
0.0
  0
VERTEX
  5
4677
  8
0
 10
128.611889343261
 20
390.98503543102242
 30
0.0
  0
VERTEX
  5
4678
  8
0
 10
127.9984469969297
 20
389.28481925759718
 30
0.0
  0
VERTEX
  5
4679
  8
0
 10
127.4657690715196
 20
387.44873458205763
 30
0.0
  0
SEQEND
  5
467A
  8
0
  0
LINE
  5
3D64
  8
0
 10
143.9202517434241
 20
387.44873458205763
 30
0.0
 11
143.9202517434241
 21
374.79958754314362
 31
0.0
  0
LINE
  5
3D65
  8
0
 10
149.40507930072539
 20
387.44873458205763
 30
0.0
 11
149.40507930072539
 21
374.79958754314362
 31
0.0
  0
LINE
  5
3D66
  8
0
 10
127.4657690715196
 20
387.44873458205763
 30
0.0
 11
127.4657690715196
 21
374.79958754314362
 31
0.0
  0
LINE
  5
3D67
  8
0
 10
132.9505966288211
 20
387.44873458205763
 30
0.0
 11
132.9505966288211
 21
374.79958754314362
 31
0.0
  0
LINE
  5
3D68
  8
0
 10
138.43542418612259
 20
394.79958754314367
 30
0.0
 11
146.2844337041542
 21
394.79958754314367
 31
0.0
  0
LINE
  5
3D69
  8
0
 10
130.58641466809101
 20
394.79958754314367
 30
0.0
 11
138.43542418612259
 21
394.79958754314367
 31
0.0
  0
LINE
  5
3D6A
  8
0
 10
152.43542418612259
 20
369.79958754314362
 30
0.0
 11
152.43542418612259
 21
336.79958754314362
 31
0.0
  0
LINE
  5
3D6B
  8
0
 10
124.4354241861226
 20
369.79958754314362
 30
0.0
 11
124.4354241861226
 21
336.79958754314362
 31
0.0
  0
ARC
  5
3D6D
  8
0
 10
151.43542418612259
 20
369.79958754314362
 30
0.0
 40
1.0
 50
0.0
 51
90.0
  0
ARC
  5
3D6E
  8
0
 10
125.4354241861226
 20
369.79958754314362
 30
0.0
 40
1.0
 50
90.0
 51
180.0
  0
LINE
  5
3D6F
  8
0
 10
151.43542418612259
 20
335.79958754314362
 30
0.0
 11
125.4354241861226
 21
335.79958754314362
 31
0.0
  0
ARC
  5
3D70
  8
0
 10
125.4354241861226
 20
336.79958754314362
 30
0.0
 40
1.0
 50
180.0
 51
270.0
  0
ARC
  5
3D71
  8
0
 10
151.43542418612259
 20
336.79958754314362
 30
0.0
 40
1.0
 50
270.0
 51
0.0
  0
LINE
  5
3D73
  8
0
 10
167.43542418612259
 20
336.79958754314362
 30
0.0
 11
152.43542418612259
 21
336.79958754314362
 31
0.0
  0
LINE
  5
3D7B
  8
0
 10
109.4354241861226
 20
370.79958754314362
 30
0.0
 11
167.43542418612259
 21
370.79958754314362
 31
0.0
  0
LINE
  5
3D7C
  8
0
 10
124.4354241861226
 20
336.79958754314362
 30
0.0
 11
109.4354241861226
 21
336.79958754314362
 31
0.0
  0
LINE
  5
3D7E
  8
0
 10
167.93542418612259
 20
204.79958754314359
 30
0.0
 11
108.9354241861226
 21
204.79958754314359
 31
0.0
  0
LINE
  5
3D80
  8
0
 10
167.18542418612259
 20
195.79958754314359
 30
0.0
 11
109.6854241861226
 21
195.79958754314359
 31
0.0
  0
LINE
  5
3D83
  8
0
 10
171.97644384861951
 20
275.29958754314362
 30
0.0
 11
171.97644384861951
 21
299.29958754314362
 31
0.0
  0
LINE
  5
3D85
  8
0
 10
171.97644384861951
 20
299.29958754314362
 30
0.0
 11
171.75208668403801
 21
299.79958754314362
 31
0.0
  0
LINE
  5
3D86
  8
0
 10
93.935424186122646
 20
299.79958754314362
 30
0.0
 11
182.93542418612259
 21
299.79958754314362
 31
0.0
  0
LINE
  5
3D87
  8
0
 10
104.8944045236257
 20
299.29958754314362
 30
0.0
 11
105.1187616882073
 21
299.79958754314362
 31
0.0
  0
LINE
  5
3D8A
  8
0
 10
104.8944045236257
 20
275.29958754314362
 30
0.0
 11
105.1187616882073
 21
274.79958754314362
 31
0.0
  0
LINE
  5
3D8B
  8
0
 10
182.93542418612259
 20
274.79958754314362
 30
0.0
 11
93.935424186122646
 21
274.79958754314362
 31
0.0
  0
LINE
  5
3D8D
  8
0
 10
171.97644384861951
 20
275.29958754314362
 30
0.0
 11
171.75208668403801
 21
274.79958754314362
 31
0.0
  0
LINE
  5
3D90
  8
0
 10
104.8944045236257
 20
275.29958754314362
 30
0.0
 11
104.8944045236257
 21
299.29958754314362
 31
0.0
  0
LINE
  5
3D93
  8
0
 10
167.43542418612259
 20
320.79958754314367
 30
0.0
 11
109.4354241861226
 21
320.79958754314367
 31
0.0
  0
LINE
  5
3D96
  8
0
 10
111.4354241861226
 20
322.79958754314362
 30
0.0
 11
165.43542418612259
 21
322.79958754314362
 31
0.0
  0
LINE
  5
3D98
  8
0
 10
340.28466632911409
 20
483.21829433065727
 30
0.0
 11
340.28466632911409
 21
486.68239594579512
 31
0.0
  0
LINE
  5
3D99
  8
0
 10
337.28466632911409
 20
488.41444675336407
 30
0.0
 11
340.28466632911409
 21
486.68239594579512
 31
0.0
  0
LINE
  5
3D9A
  8
0
 10
337.28466632911409
 20
488.41444675336407
 30
0.0
 11
334.28466632911409
 21
486.68239594579512
 31
0.0
  0
LINE
  5
3D9B
  8
0
 10
334.28466632911409
 20
486.68239594579512
 30
0.0
 11
334.28466632911392
 21
483.21829433065727
 31
0.0
  0
LINE
  5
3D9C
  8
0
 10
337.28466632911409
 20
481.48624352308849
 30
0.0
 11
334.28466632911392
 21
483.21829433065727
 31
0.0
  0
LINE
  5
3D9D
  8
0
 10
337.28466632911409
 20
481.48624352308849
 30
0.0
 11
340.28466632911409
 21
483.21829433065727
 31
0.0
  0
CIRCLE
  5
3D9E
  8
0
 10
337.28466632911409
 20
484.95034513822623
 30
0.0
 40
6.500000000000056
  0
LINE
  5
3D9F
  8
0
 10
317.3990718445296
 20
517.46900691831183
 30
0.0
 11
317.3990718445296
 21
520.93310853344951
 31
0.0
  0
LINE
  5
3DA0
  8
0
 10
314.39907184452949
 20
522.66515934101858
 30
0.0
 11
317.3990718445296
 21
520.93310853344951
 31
0.0
  0
LINE
  5
3DA1
  8
0
 10
314.39907184452949
 20
522.66515934101858
 30
0.0
 11
311.39907184452949
 21
520.93310853344951
 31
0.0
  0
LINE
  5
3DA2
  8
0
 10
311.39907184452949
 20
520.93310853344951
 30
0.0
 11
311.39907184452949
 21
517.46900691831183
 31
0.0
  0
LINE
  5
3DA3
  8
0
 10
314.39907184452949
 20
515.73695611074288
 30
0.0
 11
311.39907184452949
 21
517.46900691831183
 31
0.0
  0
LINE
  5
3DA4
  8
0
 10
314.39907184452949
 20
515.73695611074288
 30
0.0
 11
317.3990718445296
 21
517.46900691831183
 31
0.0
  0
CIRCLE
  5
3DA5
  8
0
 10
314.39907184452949
 20
519.2010577258809
 30
0.0
 40
6.500000000000056
  0
LINE
  5
3DA6
  8
0
 10
306.03395374145953
 20
490.03118465590779
 30
0.0
 11
306.0339537414593
 21
493.49528627104559
 31
0.0
  0
LINE
  5
3DA7
  8
0
 10
303.0339537414593
 20
495.22733707861448
 30
0.0
 11
306.0339537414593
 21
493.49528627104559
 31
0.0
  0
LINE
  5
3DA8
  8
0
 10
303.0339537414593
 20
495.22733707861448
 30
0.0
 11
300.0339537414593
 21
493.49528627104559
 31
0.0
  0
LINE
  5
3DA9
  8
0
 10
300.0339537414593
 20
493.49528627104559
 30
0.0
 11
300.0339537414593
 21
490.03118465590779
 31
0.0
  0
LINE
  5
3DAA
  8
0
 10
303.0339537414593
 20
488.29913384833901
 30
0.0
 11
300.0339537414593
 21
490.03118465590779
 31
0.0
  0
LINE
  5
3DAB
  8
0
 10
303.0339537414593
 20
488.29913384833901
 30
0.0
 11
306.03395374145953
 21
490.03118465590779
 31
0.0
  0
CIRCLE
  5
3DAC
  8
0
 10
303.0339537414593
 20
491.76323546347669
 30
0.0
 40
6.500000000000056
  0
LINE
  5
3DAD
  8
0
 10
340.28466632911409
 20
512.91677914049217
 30
0.0
 11
340.28466632911409
 21
516.38088075562985
 31
0.0
  0
LINE
  5
3DAE
  8
0
 10
337.28466632911409
 20
518.11293156319903
 30
0.0
 11
340.28466632911409
 21
516.38088075562985
 31
0.0
  0
LINE
  5
3DAF
  8
0
 10
337.28466632911409
 20
518.11293156319903
 30
0.0
 11
334.28466632911409
 21
516.38088075562985
 31
0.0
  0
LINE
  5
3DB0
  8
0
 10
334.28466632911409
 20
516.38088075562985
 30
0.0
 11
334.28466632911392
 21
512.91677914049217
 31
0.0
  0
LINE
  5
3DB1
  8
0
 10
337.2846663291138
 20
511.18472833292321
 30
0.0
 11
334.28466632911392
 21
512.91677914049217
 31
0.0
  0
LINE
  5
3DB2
  8
0
 10
337.2846663291138
 20
511.18472833292321
 30
0.0
 11
340.28466632911409
 21
512.91677914049217
 31
0.0
  0
CIRCLE
  5
3DB3
  8
0
 10
337.28466632911409
 20
514.64882994806112
 30
0.0
 40
6.500000000000056
  0
LINE
  5
3DB4
  8
0
 10
317.3990718445296
 20
478.66606655283772
 30
0.0
 11
317.3990718445296
 21
482.13016816797551
 31
0.0
  0
LINE
  5
3DB5
  8
0
 10
314.39907184452949
 20
483.86221897554452
 30
0.0
 11
317.3990718445296
 21
482.13016816797551
 31
0.0
  0
LINE
  5
3DB6
  8
0
 10
314.39907184452949
 20
483.86221897554452
 30
0.0
 11
311.39907184452949
 21
482.13016816797551
 31
0.0
  0
LINE
  5
3DB7
  8
0
 10
311.39907184452949
 20
482.13016816797551
 30
0.0
 11
311.39907184452949
 21
478.66606655283772
 31
0.0
  0
LINE
  5
3DB8
  8
0
 10
314.39907184452949
 20
476.93401574526882
 30
0.0
 11
311.39907184452949
 21
478.66606655283772
 31
0.0
  0
LINE
  5
3DB9
  8
0
 10
314.39907184452949
 20
476.93401574526882
 30
0.0
 11
317.3990718445296
 21
478.66606655283772
 31
0.0
  0
CIRCLE
  5
3DBA
  8
0
 10
314.39907184452949
 20
480.39811736040662
 30
0.0
 40
6.500000000000056
  0
LINE
  5
3DBB
  8
0
 10
306.03395374145953
 20
506.10388881524159
 30
0.0
 11
306.0339537414593
 21
509.5679904303795
 31
0.0
  0
LINE
  5
3DBC
  8
0
 10
303.0339537414593
 20
511.30004123794828
 30
0.0
 11
306.0339537414593
 21
509.5679904303795
 31
0.0
  0
LINE
  5
3DBD
  8
0
 10
303.0339537414593
 20
511.30004123794828
 30
0.0
 11
300.0339537414593
 21
509.5679904303795
 31
0.0
  0
LINE
  5
3DBE
  8
0
 10
300.0339537414593
 20
509.5679904303795
 30
0.0
 11
300.0339537414593
 21
506.10388881524159
 31
0.0
  0
LINE
  5
3DBF
  8
0
 10
303.0339537414593
 20
504.37183800767281
 30
0.0
 11
300.0339537414593
 21
506.10388881524159
 31
0.0
  0
LINE
  5
3DC0
  8
0
 10
303.0339537414593
 20
504.37183800767281
 30
0.0
 11
306.03395374145953
 21
506.10388881524159
 31
0.0
  0
CIRCLE
  5
3DC1
  8
0
 10
303.0339537414593
 20
507.8359396228106
 30
0.0
 40
6.500000000000056
  0
CIRCLE
  5
3DC2
  8
0
 10
322.4354239241963
 20
499.79958754314367
 30
0.0
 40
5.5000000000000169
  0
CIRCLE
  5
3DC3
  8
0
 10
322.4354239241963
 20
499.79958754314367
 30
0.0
 40
7.0000000000000044
  0
LINE
  5
3DC6
  8
0
 10
322.4354239241963
 20
510.76924265774647
 30
0.0
 11
331.93542392419641
 21
505.28441510044507
 31
0.0
  0
LINE
  5
3DC7
  8
0
 10
331.93542392419641
 20
505.28441510044507
 30
0.0
 11
331.93542392419641
 21
494.31475998584227
 31
0.0
  0
LINE
  5
3DC8
  8
0
 10
331.93542392419641
 20
494.31475998584227
 30
0.0
 11
322.4354239241963
 21
488.82993242854081
 31
0.0
  0
LINE
  5
3DC9
  8
0
 10
322.4354239241963
 20
488.82993242854081
 30
0.0
 11
312.93542392419641
 21
494.31475998584227
 31
0.0
  0
LINE
  5
3DCA
  8
0
 10
312.93542392419641
 20
494.31475998584227
 30
0.0
 11
312.93542392419641
 21
505.28441510044507
 31
0.0
  0
LINE
  5
3DCB
  8
0
 10
312.93542392419641
 20
505.28441510044507
 30
0.0
 11
322.4354239241963
 21
510.76924265774647
 31
0.0
  0
CIRCLE
  5
3DCD
  8
0
 10
322.4354239241963
 20
499.79958754314367
 30
0.0
 40
12.5
  0
ARC
  5
3DCE
  8
0
 10
322.4354239241963
 20
499.79958754314367
 30
0.0
 40
30.000000000000071
 50
245.00000000000031
 51
114.9999999999996
  0
CIRCLE
  5
3DD6
  8
0
 10
314.39907184452949
 20
519.2010577258809
 30
0.0
 40
6.7500000000001128
  0
LINE
  5
3DD7
  8
0
 10
290.51403527615389
 20
518.01573712649417
 30
0.0
 11
309.75687607197568
 21
526.9888211542434
 31
0.0
  0
CIRCLE
  5
3DD8
  8
0
 10
337.28466632911409
 20
514.64882994806112
 30
0.0
 40
6.7499999999998863
  0
ARC
  5
3DD9
  8
0
 10
271.49621349782279
 20
558.79958754314362
 30
0.0
 40
45.0
 50
270.0
 51
294.99999999999972
  0
LINE
  5
3DDA
  8
0
 10
257.43542392419641
 20
513.7995875431435
 30
0.0
 11
271.49621349782279
 21
513.7995875431435
 31
0.0
  0
CIRCLE
  5
3DDB
  8
0
 10
303.0339537414593
 20
507.8359396228106
 30
0.0
 40
6.75
  0
ARC
  5
3DDC
  8
0
 10
257.43542392419641
 20
499.79958754314367
 30
0.0
 40
14.0
 50
90.0
 51
270.0
  0
CIRCLE
  5
3DDE
  8
0
 10
303.0339537414593
 20
491.76323546347669
 30
0.0
 40
6.75
  0
CIRCLE
  5
3DDF
  8
0
 10
337.28466632911409
 20
484.95034513822623
 30
0.0
 40
6.7499999999999432
  0
LINE
  5
3DE0
  8
0
 10
271.49621349782279
 20
485.79958754314367
 30
0.0
 11
257.43542392419641
 21
485.79958754314367
 31
0.0
  0
ARC
  5
3DE1
  8
0
 10
271.49621349782279
 20
440.79958754314367
 30
0.0
 40
45.000000000000007
 50
65.000000000000327
 51
90.0
  0
CIRCLE
  5
3DE2
  8
0
 10
314.39907184452949
 20
480.39811736040662
 30
0.0
 40
6.75
  0
LINE
  5
3DE3
  8
0
 10
309.75687607197568
 20
472.61035393204401
 30
0.0
 11
290.51403527615389
 21
481.58343795979312
 31
0.0
  0
ARC
  5
3DF1
  8
0
 10
322.4354239241963
 20
499.79958754314367
 30
0.0
 40
45.000000000000057
 50
48.189685104224012
 51
131.810314895776
  0
CIRCLE
  5
3DF3
  8
0
 10
322.4354239241963
 20
536.79958754314384
 30
0.0
 40
4.5
  0
CIRCLE
  5
3DF4
  8
0
 10
343.4354239241963
 20
530.2995875431435
 30
0.0
 40
4.5
  0
CIRCLE
  5
3DF5
  8
0
 10
301.4354239241963
 20
530.2995875431435
 30
0.0
 40
4.4999999999999432
  0
LINE
  5
3DF6
  8
0
 10
352.43542392419641
 20
533.34060720564071
 30
0.0
 11
352.43542392419641
 21
466.25856788064681
 31
0.0
  0
LINE
  5
3DF8
  8
0
 10
292.43542392419641
 20
466.25856788064681
 30
0.0
 11
292.43542392419641
 21
480.68747971891861
 31
0.0
  0
LINE
  5
3DF9
  8
0
 10
292.43542392419641
 20
518.91169536736834
 30
0.0
 11
292.43542392419641
 21
533.34060720564037
 31
0.0
  0
CIRCLE
  5
3DFB
  8
0
 10
301.4354239241963
 20
469.29958754314367
 30
0.0
 40
4.4999999999999432
  0
CIRCLE
  5
3DFC
  8
0
 10
343.4354239241963
 20
469.29958754314367
 30
0.0
 40
4.5
  0
CIRCLE
  5
3DFD
  8
0
 10
322.4354239241963
 20
462.79958754314362
 30
0.0
 40
4.5
  0
ARC
  5
3DFE
  8
0
 10
322.4354239241963
 20
499.79958754314367
 30
0.0
 40
44.999999999999972
 50
228.18968510422411
 51
311.810314895776
  0
LINE
  5
3E0A
  8
0
 10
516.43542387576872
 20
370.79958754314367
 30
0.0
 11
516.43542387576872
 21
371.79958754314367
 31
0.0
  0
LINE
  5
3E0B
  8
0
 10
496.43542387576872
 20
371.79958754314367
 30
0.0
 11
496.43542387576872
 21
370.79958754314367
 31
0.0
  0
LINE
  5
3E0C
  8
0
 10
518.93542387576872
 20
374.29958754314367
 30
0.0
 11
518.43542387576872
 21
374.79958754314367
 31
0.0
  0
LINE
  5
3E0D
  8
0
 10
494.43542387576872
 20
374.79958754314367
 30
0.0
 11
493.93542387576872
 21
374.29958754314367
 31
0.0
  0
LINE
  5
3E0E
  8
0
 10
493.93542387576872
 20
372.29958754314367
 30
0.0
 11
494.43542387576872
 21
371.79958754314367
 31
0.0
  0
LINE
  5
3E0F
  8
0
 10
518.43542387576872
 20
371.79958754314367
 30
0.0
 11
518.93542387576872
 21
372.29958754314367
 31
0.0
  0
LINE
  5
3E10
  8
0
 10
518.93542387576872
 20
372.29958754314367
 30
0.0
 11
518.93542387576872
 21
374.29958754314367
 31
0.0
  0
LINE
  5
3E11
  8
0
 10
493.93542387576872
 20
374.29958754314367
 30
0.0
 11
493.93542387576872
 21
372.29958754314367
 31
0.0
  0
LINE
  5
3E12
  8
0
 10
517.40507899037175
 20
387.44873458205791
 30
0.0
 11
515.73332213323374
 21
393.68781611079748
 31
0.0
  0
LINE
  5
3E13
  8
0
 10
497.13752561830358
 20
393.68781611079748
 30
0.0
 11
495.46576876116558
 21
387.44873458205751
 31
0.0
  0
ARC
  5
3E14
  8
0
 10
514.2844333938001
 20
393.29958754314367
 30
0.0
 40
1.5000000000000311
 50
14.99999999999784
 51
89.999999999993491
  0
ARC
  5
3E15
  8
0
 10
498.58641435773728
 20
393.29958754314367
 30
0.0
 40
1.5000000000000311
 50
90.0
 51
165.0000000000021
  0
ARC
  5
3E16
  8
0
 10
477.43542387576872
 20
369.79958754314367
 30
0.0
 40
1.0
 50
90.0
 51
179.9999999999992
  0
ARC
  5
3E17
  8
0
 10
535.43542387576872
 20
369.79958754314367
 30
0.0
 40
1.0
 50
0.0000000000008142
 51
89.999999999993491
  0
LINE
  5
3E18
  8
0
 10
536.43542387576872
 20
337.79958754314367
 30
0.0
 11
536.43542387576872
 21
369.79958754314367
 31
0.0
  0
LINE
  5
3E19
  8
0
 10
476.43542387576872
 20
369.79958754314367
 30
0.0
 11
476.43542387576872
 21
337.79958754314367
 31
0.0
  0
ARC
  5
3E1A
  8
0
 10
477.43542387576872
 20
337.79958754314367
 30
0.0
 40
1.0
 50
179.9999999999992
 51
270.0
  0
ARC
  5
3E1B
  8
0
 10
535.43542387576872
 20
337.79958754314367
 30
0.0
 40
1.0
 50
270.00000000000648
 51
0.0000000000008142
  0
ARC
  5
3E1C
  8
0
 10
527.43542387576872
 20
335.79958754314367
 30
0.0
 40
1.0
 50
89.99999999998046
 51
179.9999999999992
  0
ARC
  5
3E1D
  8
0
 10
485.43542387576872
 20
335.79958754314367
 30
0.0
 40
1.0
 50
0.0000000000008142
 51
90.000000000013017
  0
LINE
  5
3E1E
  8
0
 10
486.43542387576872
 20
335.79958754314367
 30
0.0
 11
486.43542387576872
 21
322.79958754314367
 31
0.0
  0
LINE
  5
3E1F
  8
0
 10
526.43542387576872
 20
322.79958754314367
 30
0.0
 11
526.43542387576872
 21
335.79958754314367
 31
0.0
  0
LINE
  5
3E20
  8
0
 10
476.93542387576872
 20
274.79958754314367
 30
0.0
 11
476.93542387576872
 21
204.7995875431437
 31
0.0
  0
LINE
  5
3E21
  8
0
 10
535.93542387576872
 20
204.7995875431437
 30
0.0
 11
535.93542387576872
 21
274.79958754314367
 31
0.0
  0
LINE
  5
3E22
  8
0
 10
535.68542387576872
 20
196.2995875431437
 30
0.0
 11
535.68542387576872
 21
204.7995875431437
 31
0.0
  0
LINE
  5
3E23
  8
0
 10
477.18542387576872
 20
204.7995875431437
 30
0.0
 11
477.18542387576872
 21
196.2995875431437
 31
0.0
  0
LINE
  5
3E24
  8
0
 10
477.18542387576872
 20
196.2995875431437
 30
0.0
 11
477.68542387576872
 21
195.7995875431437
 31
0.0
  0
LINE
  5
3E25
  8
0
 10
535.18542387576872
 20
195.7995875431437
 30
0.0
 11
535.68542387576872
 21
196.2995875431437
 31
0.0
  0
LINE
  5
3E26
  8
0
 10
550.93542387576872
 20
274.79958754314367
 30
0.0
 11
551.43542387576872
 21
275.29958754314367
 31
0.0
  0
LINE
  5
3E27
  8
0
 10
551.43542387576872
 20
299.29958754314367
 30
0.0
 11
550.93542387576872
 21
299.79958754314367
 31
0.0
  0
LINE
  5
3E28
  8
0
 10
551.43542387576872
 20
275.29958754314367
 30
0.0
 11
551.43542387576872
 21
299.29958754314367
 31
0.0
  0
LINE
  5
3E29
  8
0
 10
461.43542387576872
 20
299.29958754314367
 30
0.0
 11
461.43542387576872
 21
275.29958754314367
 31
0.0
  0
LINE
  5
3E2A
  8
0
 10
461.93542387576861
 20
299.79958754314367
 30
0.0
 11
461.43542387576872
 21
299.29958754314367
 31
0.0
  0
LINE
  5
3E2B
  8
0
 10
461.43542387576872
 20
275.29958754314367
 30
0.0
 11
461.93542387576861
 21
274.79958754314367
 31
0.0
  0
LINE
  5
3E2C
  8
0
 10
535.43542387576872
 20
320.79958754314367
 30
0.0
 11
533.43542387576872
 21
322.79958754314367
 31
0.0
  0
LINE
  5
3E2D
  8
0
 10
479.43542387576872
 20
322.79958754314367
 30
0.0
 11
477.43542387576872
 21
320.79958754314367
 31
0.0
  0
LINE
  5
3E2E
  8
0
 10
477.43542387576872
 20
320.79958754314367
 30
0.0
 11
477.43542387576872
 21
299.79958754314367
 31
0.0
  0
LINE
  5
3E2F
  8
0
 10
535.43542387576872
 20
299.79958754314367
 30
0.0
 11
535.43542387576872
 21
320.79958754314367
 31
0.0
  0
LINE
  5
3E33
  8
0
 10
494.43542387576872
 20
374.79958754314367
 30
0.0
 11
518.43542387576872
 21
374.79958754314367
 31
0.0
  0
LINE
  5
3E34
  8
0
 10
518.43542387576872
 20
371.79958754314367
 30
0.0
 11
494.43542387576872
 21
371.79958754314367
 31
0.0
  0
LINE
  5
3E36
  8
0
 10
511.9202514330704
 20
387.44873458205763
 30
0.0
 11
511.9202514330704
 21
374.79958754314367
 31
0.0
  0
POLYLINE
  5
3E37
  8
0
 66
     1
 10
0.0
 20
0.0
 30
0.0
 70
   128
  0
VERTEX
  5
467B
  8
0
 10
517.40507899037175
 20
387.44873458205763
 30
0.0
  0
VERTEX
  5
467C
  8
0
 10
516.40742666610765
 20
390.61740978081667
 30
0.0
  0
VERTEX
  5
467D
  8
0
 10
515.80485520033869
 20
391.9229496629199
 30
0.0
  0
VERTEX
  5
467E
  8
0
 10
515.22520131720648
 20
392.68579716775042
 30
0.0
  0
VERTEX
  5
467F
  8
0
 10
514.7778985274108
 20
392.92313065359332
 30
0.0
  0
VERTEX
  5
4680
  8
0
 10
514.31492792144081
 20
392.8386819054333
 30
0.0
  0
VERTEX
  5
4681
  8
0
 10
513.80415860818221
 20
392.35913203339908
 30
0.0
  0
VERTEX
  5
4682
  8
0
 10
513.06637170481144
 20
390.98503543102242
 30
0.0
  0
VERTEX
  5
4683
  8
0
 10
512.45292935847999
 20
389.28481925759718
 30
0.0
  0
VERTEX
  5
4684
  8
0
 10
511.9202514330704
 20
387.44873458205763
 30
0.0
  0
SEQEND
  5
4685
  8
0
  0
LINE
  5
3E38
  8
0
 10
517.40507899037175
 20
387.44873458205763
 30
0.0
 11
517.40507899037175
 21
374.79958754314367
 31
0.0
  0
POLYLINE
  5
3E39
  8
0
 66
     1
 10
0.0
 20
0.0
 30
0.0
 70
   128
  0
VERTEX
  5
4686
  8
0
 10
511.9202514330704
 20
387.44873458205763
 30
0.0
  0
VERTEX
  5
4687
  8
0
 10
511.74871372361258
 20
387.76504480500478
 30
0.0
  0
VERTEX
  5
4688
  8
0
 10
510.531501595934
 20
389.77838690600322
 30
0.0
  0
VERTEX
  5
4689
  8
0
 10
509.02959238231409
 20
391.63545152261452
 30
0.0
  0
VERTEX
  5
468A
  8
0
 10
507.7636582610225
 20
392.5887072566519
 30
0.0
  0
VERTEX
  5
468B
  8
0
 10
506.93808594334899
 20
392.88396661083891
 30
0.0
  0
VERTEX
  5
468C
  8
0
 10
506.05833186895461
 20
392.90564199676481
 30
0.0
  0
VERTEX
  5
468D
  8
0
 10
504.92361976779239
 20
392.48743242709111
 30
0.0
  0
VERTEX
  5
468E
  8
0
 10
503.97258713286601
 20
391.76151397523893
 30
0.0
  0
VERTEX
  5
468F
  8
0
 10
502.97979905315549
 20
390.66084252312442
 30
0.0
  0
VERTEX
  5
4690
  8
0
 10
502.10896106659447
 20
389.42996021242328
 30
0.0
  0
VERTEX
  5
4691
  8
0
 10
500.95059631846738
 20
387.44873458205763
 30
0.0
  0
SEQEND
  5
4692
  8
0
  0
POLYLINE
  5
3E3A
  8
0
 66
     1
 10
0.0
 20
0.0
 30
0.0
 70
   128
  0
VERTEX
  5
4693
  8
0
 10
500.95059631846738
 20
387.44873458205763
 30
0.0
  0
VERTEX
  5
4694
  8
0
 10
499.95294399420339
 20
390.61740978081679
 30
0.0
  0
VERTEX
  5
4695
  8
0
 10
499.35037252843449
 20
391.9229496629199
 30
0.0
  0
VERTEX
  5
4696
  8
0
 10
498.77071864530211
 20
392.68579716775042
 30
0.0
  0
VERTEX
  5
4697
  8
0
 10
498.32341585550643
 20
392.92313065359332
 30
0.0
  0
VERTEX
  5
4698
  8
0
 10
497.8604452495365
 20
392.8386819054333
 30
0.0
  0
VERTEX
  5
4699
  8
0
 10
497.34967593627829
 20
392.35913203339908
 30
0.0
  0
VERTEX
  5
469A
  8
0
 10
496.61188903290707
 20
390.98503543102242
 30
0.0
  0
VERTEX
  5
469B
  8
0
 10
495.99844668657579
 20
389.28481925759718
 30
0.0
  0
VERTEX
  5
469C
  8
0
 10
495.46576876116558
 20
387.44873458205763
 30
0.0
  0
SEQEND
  5
469D
  8
0
  0
LINE
  5
3E3B
  8
0
 10
495.46576876116558
 20
387.44873458205763
 30
0.0
 11
495.46576876116558
 21
374.79958754314367
 31
0.0
  0
LINE
  5
3E3C
  8
0
 10
500.95059631846738
 20
387.44873458205763
 30
0.0
 11
500.95059631846738
 21
374.79958754314367
 31
0.0
  0
LINE
  5
3E3D
  8
0
 10
498.58641435773728
 20
394.79958754314367
 30
0.0
 11
514.28443339380055
 21
394.79958754314367
 31
0.0
  0
LINE
  5
3E3E
  8
0
 10
477.43542387576872
 20
370.79958754314367
 30
0.0
 11
535.43542387576872
 21
370.79958754314367
 31
0.0
  0
LINE
  5
3E3F
  8
0
 10
535.43542387576872
 20
336.79958754314367
 30
0.0
 11
477.43542387576872
 21
336.79958754314367
 31
0.0
  0
LINE
  5
3E40
  8
0
 10
535.93542387576872
 20
204.7995875431437
 30
0.0
 11
476.93542387576872
 21
204.7995875431437
 31
0.0
  0
LINE
  5
3E44
  8
0
 10
535.18542387576872
 20
195.7995875431437
 30
0.0
 11
477.68542387576872
 21
195.7995875431437
 31
0.0
  0
LINE
  5
3E48
  8
0
 10
539.75208637368405
 20
274.79958754314367
 30
0.0
 11
539.97644353826524
 21
275.29958754314367
 31
0.0
  0
LINE
  5
3E4B
  8
0
 10
539.75208637368405
 20
299.79958754314367
 30
0.0
 11
539.97644353826524
 21
299.29958754314367
 31
0.0
  0
LINE
  5
3E4C
  8
0
 10
539.97644353826524
 20
275.29958754314367
 30
0.0
 11
539.97644353826524
 21
299.29958754314367
 31
0.0
  0
LINE
  5
3E4E
  8
0
 10
473.11876137785339
 20
274.79958754314367
 30
0.0
 11
472.89440421327203
 21
275.29958754314367
 31
0.0
  0
LINE
  5
3E52
  8
0
 10
473.11876137785339
 20
299.79958754314367
 30
0.0
 11
472.89440421327203
 21
299.29958754314367
 31
0.0
  0
LINE
  5
3E53
  8
0
 10
472.89440421327203
 20
275.29958754314367
 30
0.0
 11
472.89440421327203
 21
299.29958754314367
 31
0.0
  0
LINE
  5
3E56
  8
0
 10
461.93542387576861
 20
299.79958754314367
 30
0.0
 11
550.93542387576872
 21
299.79958754314367
 31
0.0
  0
LINE
  5
3E57
  8
0
 10
550.93542387576872
 20
274.79958754314367
 30
0.0
 11
461.93542387576861
 21
274.79958754314367
 31
0.0
  0
LINE
  5
3E58
  8
0
 10
479.43542387576872
 20
322.79958754314367
 30
0.0
 11
533.43542387576872
 21
322.79958754314367
 31
0.0
  0
LINE
  5
3E59
  8
0
 10
535.43542387576872
 20
320.79958754314367
 30
0.0
 11
477.43542387576872
 21
320.79958754314367
 31
0.0
  0
LINE
  5
3E5A
  8
0
 10
271.43542418612333
 20
76.734400148803303
 30
0.0
 11
257.43542418612333
 21
76.734400148803303
 31
0.0
  0
ARC
  5
3E5C
  8
0
 10
257.43542418612333
 20
90.734400148803303
 30
0.0
 40
14.000000000000011
 50
90.0
 51
270.0
  0
LINE
  5
3E60
  8
0
 10
271.43542418612333
 20
104.7344001488033
 30
0.0
 11
271.43542418612333
 21
76.734400148803303
 31
0.0
  0
LINE
  5
3E63
  8
0
 10
257.43542418612333
 20
104.7344001488033
 30
0.0
 11
271.43542418612333
 21
104.7344001488033
 31
0.0
  0
LINE
  5
3E64
  8
0
 10
292.43542418612333
 20
71.622292324578424
 30
0.0
 11
290.5140355380808
 21
72.518250565452703
 31
0.0
  0
ARC
  5
3E65
  8
0
 10
271.49621375974948
 20
31.734400148803331
 30
0.0
 40
45.000000000000007
 50
65.000000000000327
 51
90.0
  0
LINE
  5
3E66
  8
0
 10
271.49621375974948
 20
76.734400148803303
 30
0.0
 11
271.43542418612333
 21
76.734400148803303
 31
0.0
  0
ARC
  5
3E67
  8
0
 10
271.49621375974948
 20
149.7344001488033
 30
0.0
 40
45.000000000000007
 50
270.0
 51
294.99999999999972
  0
LINE
  5
3E68
  8
0
 10
271.43542418612333
 20
104.7344001488033
 30
0.0
 11
271.49621375974948
 21
104.7344001488033
 31
0.0
  0
LINE
  5
3E69
  8
0
 10
290.5140355380808
 20
108.9505497321539
 30
0.0
 11
292.43542418612333
 21
109.8465079730282
 31
0.0
  0
ARC
  5
3E6A
  8
0
 10
318.28542418612318
 20
97.573808017910224
 30
0.0
 40
2.0000000000000919
 50
248.77770092267059
 51
75.300565915309022
  0
ARC
  5
3E6B
  8
0
 10
316.83747454790728
 20
93.84507608262831
 30
0.0
 40
2.0000000000000249
 50
68.777700922670547
 51
156.0571888547762
  0
ARC
  5
3E6C
  8
0
 10
322.43542418612333
 20
91.359400148803303
 30
0.0
 40
8.1250000000000018
 50
156.05718715195059
 51
23.942813404074759
  0
ARC
  5
3E6D
  8
0
 10
328.03337382433909
 20
93.845076082628267
 30
0.0
 40
2.0000000000000639
 50
23.942813404075199
 51
111.22229993109551
  0
ARC
  5
3E6E
  8
0
 10
326.58542418612342
 20
97.573808017910181
 30
0.0
 40
2.0000000000000488
 50
104.6994340846842
 51
291.22229822356348
  0
LINE
  5
3E75
  8
0
 10
330.54911011674062
 20
115.1452543478978
 30
0.0
 11
328.8273897045492
 21
114.95636596222
 31
0.0
  0
LINE
  5
3E76
  8
0
 10
328.13011163893037
 20
113.37086815420921
 30
0.0
 11
328.8273897045492
 21
114.95636596222
 31
0.0
  0
LINE
  5
3E77
  8
0
 10
328.13011163893037
 20
113.37086815420921
 30
0.0
 11
329.15455398550279
 21
111.9742587318762
 31
0.0
  0
LINE
  5
3E78
  8
0
 10
329.15455398550279
 20
111.9742587318762
 30
0.0
 11
330.8762743976942
 21
112.1631471175541
 31
0.0
  0
LINE
  5
3E79
  8
0
 10
331.57355246331298
 20
113.7486449255649
 30
0.0
 11
330.8762743976942
 21
112.1631471175541
 31
0.0
  0
LINE
  5
3E7A
  8
0
 10
331.57355246331298
 20
113.7486449255649
 30
0.0
 11
330.54911011674062
 21
115.1452543478978
 31
0.0
  0
CIRCLE
  5
3E7B
  8
0
 10
329.85183205112179
 20
113.559756539887
 30
0.0
 40
3.5000000000001421
  0
LINE
  5
3E7C
  8
0
 10
348.15879298008463
 20
90.561195068046572
 30
0.0
 11
347.4471085831039
 21
92.140278764085011
 31
0.0
  0
LINE
  5
3E7D
  8
0
 10
345.72373978914271
 20
92.313483844841883
 30
0.0
 11
347.4471085831039
 21
92.140278764085011
 31
0.0
  0
LINE
  5
3E7E
  8
0
 10
345.72373978914271
 20
92.313483844841883
 30
0.0
 11
344.7120553921618
 21
90.907605229560417
 31
0.0
  0
LINE
  5
3E7F
  8
0
 10
344.7120553921618
 20
90.907605229560417
 30
0.0
 11
345.42373978914247
 21
89.328521533521965
 31
0.0
  0
LINE
  5
3E80
  8
0
 10
347.147108583104
 20
89.155316452765106
 30
0.0
 11
348.15879298008463
 21
90.561195068046572
 31
0.0
  0
CIRCLE
  5
3E81
  8
0
 10
346.43542418612333
 20
90.734400148803445
 30
0.0
 40
3.500000000000127
  0
LINE
  5
3E82
  8
0
 10
347.147108583104
 20
89.155316452765106
 30
0.0
 11
345.42373978914247
 21
89.328521533521965
 31
0.0
  0
LINE
  5
3E83
  8
0
 10
314.65119389692398
 20
115.25230097482959
 30
0.0
 11
313.36931863132992
 21
114.08748519391921
 31
0.0
  0
LINE
  5
3E84
  8
0
 10
313.73714105553017
 20
112.3949407589765
 30
0.0
 11
313.36931863132992
 21
114.08748519391921
 31
0.0
  0
LINE
  5
3E85
  8
0
 10
313.73714105553017
 20
112.3949407589765
 30
0.0
 11
315.38683874532438
 21
111.8672121049441
 31
0.0
  0
LINE
  5
3E86
  8
0
 10
315.38683874532438
 20
111.8672121049441
 30
0.0
 11
316.6687140109189
 21
113.0320278858545
 31
0.0
  0
LINE
  5
3E87
  8
0
 10
316.30089158671848
 20
114.72457232079719
 30
0.0
 11
316.6687140109189
 21
113.0320278858545
 31
0.0
  0
LINE
  5
3E88
  8
0
 10
316.30089158671848
 20
114.72457232079719
 30
0.0
 11
314.65119389692398
 21
115.25230097482959
 31
0.0
  0
CIRCLE
  5
3E89
  8
0
 10
315.0190163211243
 20
113.55975653988691
 30
0.0
 40
3.5000000000001359
  0
LINE
  5
3E8A
  8
0
 10
314.32173825550581
 20
66.323545949708873
 30
0.0
 11
316.043458667697
 21
66.512434335386672
 31
0.0
  0
LINE
  5
3E8B
  8
0
 10
316.74073673331583
 20
68.097932143397443
 30
0.0
 11
316.043458667697
 21
66.512434335386672
 31
0.0
  0
LINE
  5
3E8C
  8
0
 10
316.74073673331583
 20
68.097932143397443
 30
0.0
 11
315.71629438674341
 21
69.494541565730415
 31
0.0
  0
LINE
  5
3E8D
  8
0
 10
315.71629438674341
 20
69.494541565730415
 30
0.0
 11
313.99457397455222
 21
69.305653180052644
 31
0.0
  0
LINE
  5
3E8E
  8
0
 10
313.29729590893339
 20
67.720155372041816
 30
0.0
 11
313.99457397455222
 21
69.305653180052644
 31
0.0
  0
LINE
  5
3E8F
  8
0
 10
313.29729590893339
 20
67.720155372041816
 30
0.0
 11
314.32173825550581
 21
66.323545949708873
 31
0.0
  0
CIRCLE
  5
3E90
  8
0
 10
315.01901632112458
 20
67.909043757719644
 30
0.0
 40
3.5000000000001279
  0
LINE
  5
3E91
  8
0
 10
301.52297428714343
 20
75.754709186276784
 30
0.0
 11
303.02690116759908
 21
74.895521233473204
 31
0.0
  0
LINE
  5
3E92
  8
0
 10
304.52294320158029
 20
75.768366140980405
 30
0.0
 11
303.02690116759908
 21
74.895521233473204
 31
0.0
  0
LINE
  5
3E93
  8
0
 10
304.52294320158029
 20
75.768366140980405
 30
0.0
 11
304.51505835510579
 21
77.500399001291115
 31
0.0
  0
LINE
  5
3E94
  8
0
 10
304.51505835510579
 20
77.500399001291115
 30
0.0
 11
303.01113147465003
 21
78.359586954094723
 31
0.0
  0
LINE
  5
3E95
  8
0
 10
301.51508944066882
 20
77.486742046587494
 30
0.0
 11
303.01113147465003
 21
78.359586954094723
 31
0.0
  0
LINE
  5
3E96
  8
0
 10
301.51508944066882
 20
77.486742046587494
 30
0.0
 11
301.52297428714343
 21
75.754709186276784
 31
0.0
  0
CIRCLE
  5
3E97
  8
0
 10
303.01901632112458
 20
76.627554093783971
 30
0.0
 40
3.5000000000001772
  0
LINE
  5
3E98
  8
0
 10
343.14425930092119
 20
75.474457478588079
 30
0.0
 11
343.49665663779939
 21
77.170280617055496
 31
0.0
  0
LINE
  5
3E99
  8
0
 10
342.20422938799987
 20
78.32337723225146
 30
0.0
 11
343.49665663779939
 21
77.170280617055496
 31
0.0
  0
LINE
  5
3E9A
  8
0
 10
342.20422938799987
 20
78.32337723225146
 30
0.0
 11
340.5594048013229
 21
77.780650708980147
 31
0.0
  0
LINE
  5
3E9B
  8
0
 10
340.5594048013229
 20
77.780650708980147
 30
0.0
 11
340.20700746444481
 21
76.084827570512729
 31
0.0
  0
LINE
  5
3E9C
  8
0
 10
341.49943471424422
 20
74.931730955316723
 30
0.0
 11
340.20700746444481
 21
76.084827570512729
 31
0.0
  0
LINE
  5
3E9D
  8
0
 10
341.49943471424422
 20
74.931730955316723
 30
0.0
 11
343.14425930092119
 21
75.474457478588079
 31
0.0
  0
CIRCLE
  5
3E9E
  8
0
 10
341.85183205112207
 20
76.627554093784056
 30
0.0
 40
3.500000000000143
  0
LINE
  5
3E9F
  8
0
 10
343.34787408510329
 20
105.71409111133001
 30
0.0
 11
341.84394720464752
 21
106.5732790641335
 31
0.0
  0
LINE
  5
3EA0
  8
0
 10
340.34790517066608
 20
105.7004341566263
 30
0.0
 11
341.84394720464752
 21
106.5732790641335
 31
0.0
  0
LINE
  5
3EA1
  8
0
 10
340.34790517066608
 20
105.7004341566263
 30
0.0
 11
340.35579001714058
 21
103.96840129631561
 31
0.0
  0
LINE
  5
3EA2
  8
0
 10
340.35579001714058
 20
103.96840129631561
 30
0.0
 11
341.8597168975964
 21
103.109213343512
 31
0.0
  0
LINE
  5
3EA3
  8
0
 10
343.35575893157761
 20
103.9820582510193
 30
0.0
 11
341.8597168975964
 21
103.109213343512
 31
0.0
  0
LINE
  5
3EA4
  8
0
 10
343.35575893157761
 20
103.9820582510193
 30
0.0
 11
343.34787408510329
 21
105.71409111133001
 31
0.0
  0
CIRCLE
  5
3EA5
  8
0
 10
341.8518320511219
 20
104.84124620382281
 30
0.0
 40
3.5000000000001079
  0
LINE
  5
3EA6
  8
0
 10
296.7120553921618
 20
90.907605229560218
 30
0.0
 11
297.42373978914247
 21
89.328521533521794
 31
0.0
  0
LINE
  5
3EA7
  8
0
 10
299.147108583104
 20
89.155316452764936
 30
0.0
 11
300.1587929800848
 21
90.561195068046374
 31
0.0
  0
LINE
  5
3EA8
  8
0
 10
300.1587929800848
 20
90.561195068046374
 30
0.0
 11
299.44710858310418
 21
92.140278764084854
 31
0.0
  0
LINE
  5
3EA9
  8
0
 10
297.72373978914271
 20
92.313483844841684
 30
0.0
 11
299.44710858310418
 21
92.140278764084854
 31
0.0
  0
LINE
  5
3EAA
  8
0
 10
297.72373978914271
 20
92.313483844841684
 30
0.0
 11
296.7120553921618
 21
90.907605229560218
 31
0.0
  0
CIRCLE
  5
3EAB
  8
0
 10
298.43542418612333
 20
90.734400148803346
 30
0.0
 40
3.500000000000115
  0
LINE
  5
3EAC
  8
0
 10
299.147108583104
 20
89.155316452764936
 30
0.0
 11
297.42373978914247
 21
89.328521533521794
 31
0.0
  0
LINE
  5
3EAD
  8
0
 10
330.21965447532239
 20
66.216499322776983
 30
0.0
 11
331.50152974091662
 21
67.381315103687342
 31
0.0
  0
LINE
  5
3EAE
  8
0
 10
331.13370731671648
 20
69.073859538630046
 30
0.0
 11
331.50152974091662
 21
67.381315103687342
 31
0.0
  0
LINE
  5
3EAF
  8
0
 10
331.13370731671648
 20
69.073859538630046
 30
0.0
 11
329.48400962692182
 21
69.601588192662419
 31
0.0
  0
LINE
  5
3EB0
  8
0
 10
329.48400962692182
 20
69.601588192662419
 30
0.0
 11
328.20213436132758
 21
68.436772411752074
 31
0.0
  0
LINE
  5
3EB1
  8
0
 10
328.56995678552789
 20
66.744227976809341
 30
0.0
 11
328.20213436132758
 21
68.436772411752074
 31
0.0
  0
LINE
  5
3EB2
  8
0
 10
328.56995678552789
 20
66.744227976809341
 30
0.0
 11
330.21965447532239
 21
66.216499322776983
 31
0.0
  0
CIRCLE
  5
3EB3
  8
0
 10
329.85183205112207
 20
67.909043757719672
 30
0.0
 40
3.5000000000000981
  0
LINE
  5
3EB4
  8
0
 10
301.72658907132518
 20
105.9943428190184
 30
0.0
 11
301.37419173444732
 21
104.298519680551
 31
0.0
  0
LINE
  5
3EB5
  8
0
 10
302.66661898424633
 20
103.145423065355
 30
0.0
 11
301.37419173444732
 21
104.298519680551
 31
0.0
  0
LINE
  5
3EB6
  8
0
 10
302.66661898424633
 20
103.145423065355
 30
0.0
 11
304.31144357092347
 21
103.6881495886263
 31
0.0
  0
LINE
  5
3EB7
  8
0
 10
304.31144357092347
 20
103.6881495886263
 30
0.0
 11
304.66384090780161
 21
105.38397272709381
 31
0.0
  0
LINE
  5
3EB8
  8
0
 10
303.37141365800238
 20
106.5370693422898
 30
0.0
 11
304.66384090780161
 21
105.38397272709381
 31
0.0
  0
LINE
  5
3EB9
  8
0
 10
303.37141365800238
 20
106.5370693422898
 30
0.0
 11
301.72658907132518
 21
105.9943428190184
 31
0.0
  0
CIRCLE
  5
3EBA
  8
0
 10
303.01901632112458
 20
104.84124620382239
 30
0.0
 40
3.5000000000000822
  0
CIRCLE
  5
3EBB
  8
0
 10
322.43542418612333
 20
90.734400148803303
 30
0.0
 40
29.499999999999979
  0
CIRCLE
  5
3EBC
  8
0
 10
322.43542418612333
 20
90.734400148803303
 30
0.0
 40
29.25
  0
CIRCLE
  5
3EBE
  8
0
 10
303.01901632112441
 20
76.627554093784212
 30
0.0
 40
4.0
  0
CIRCLE
  5
3EBF
  8
0
 10
315.0190163211243
 20
67.909043757719772
 30
0.0
 40
4.0
  0
CIRCLE
  5
3EC0
  8
0
 10
341.8518320511219
 20
76.6275540937838
 30
0.0
 40
4.0
  0
CIRCLE
  5
3EC1
  8
0
 10
346.43542418612333
 20
90.734400148803147
 30
0.0
 40
4.0
  0
CIRCLE
  5
3EC2
  8
0
 10
341.85183205112207
 20
104.84124620382261
 30
0.0
 40
4.0
  0
CIRCLE
  5
3EC3
  8
0
 10
329.85183205112253
 20
113.55975653988691
 30
0.0
 40
4.0
  0
CIRCLE
  5
3EC4
  8
0
 10
315.01901632112509
 20
113.5597565398871
 30
0.0
 40
4.000000000000056
  0
CIRCLE
  5
3EC5
  8
0
 10
303.01901632112481
 20
104.841246203823
 30
0.0
 40
4.0
  0
CIRCLE
  5
3EC6
  8
0
 10
298.43542418612333
 20
90.734400148803303
 30
0.0
 40
4.0
  0
CIRCLE
  5
3EC8
  8
0
 10
329.85183205112179
 20
67.909043757719616
 30
0.0
 40
3.9999999999999432
  0
CIRCLE
  5
3EC9
  8
0
 10
322.43542418612333
 20
90.734400148803303
 30
0.0
 40
9.4999999999999432
  0
ARC
  5
3ECA
  8
0
 10
322.43542418612333
 20
90.734400148803303
 30
0.0
 40
44.999999999999993
 50
228.18968510422411
 51
311.810314895776
  0
CIRCLE
  5
3ED7
  8
0
 10
322.43542418612333
 20
53.734400148803331
 30
0.0
 40
4.5
  0
CIRCLE
  5
3ED8
  8
0
 10
301.43542418612333
 20
60.234400148803331
 30
0.0
 40
4.5
  0
CIRCLE
  5
3ED9
  8
0
 10
343.43542418612333
 20
60.234400148803331
 30
0.0
 40
4.5
  0
LINE
  5
3EDA
  8
0
 10
292.43542418612333
 20
57.193380486306481
 30
0.0
 11
292.43542418612333
 21
124.2754198113001
 31
0.0
  0
LINE
  5
3EDD
  8
0
 10
352.43542418612333
 20
124.2754198113001
 30
0.0
 11
352.43542418612333
 21
57.193380486306481
 31
0.0
  0
CIRCLE
  5
3EDE
  8
0
 10
301.43542418612333
 20
121.2344001488033
 30
0.0
 40
4.5
  0
CIRCLE
  5
3EDF
  8
0
 10
343.43542418612333
 20
121.2344001488033
 30
0.0
 40
4.500000000000056
  0
CIRCLE
  5
3EE0
  8
0
 10
322.43542418612333
 20
127.7344001488033
 30
0.0
 40
4.5
  0
ARC
  5
3EE1
  8
0
 10
322.43542418612333
 20
90.734400148803303
 30
0.0
 40
45.0
 50
48.189685104224012
 51
131.81031489577589
  0
LINE
  5
4109
  8
1
 10
322.43542387576957
 20
192.79958754314359
 30
0.0
 11
322.435423875769
 21
397.79958754314367
 31
0.0
  0
LINE
  5
4151
  8
1
 10
138.43542418612239
 20
192.79958754314359
 30
0.0
 11
138.4354241861225
 21
397.79958754314367
 31
0.0
  0
LINE
  5
416D
  8
1
 10
506.43542387576889
 20
192.79958754314359
 30
0.0
 11
506.43542387576889
 21
397.79958754314367
 31
0.0
  0
LINE
  5
4510
  8
1
 10
257.43542392419641
 20
488.79958754314367
 30
0.0
 11
257.43542392419641
 21
510.79958754314367
 31
0.0
  0
LINE
  5
4511
  8
1
 10
240.43542392419641
 20
499.79958754314367
 30
0.0
 11
355.43542392419658
 21
499.79958754314362
 31
0.0
  0
LINE
  5
4512
  8
1
 10
322.4354239241963
 20
451.79958754314367
 30
0.0
 11
322.4354239241963
 21
547.79958754314373
 31
0.0
  0
CIRCLE
  5
452A
  8
3
 10
257.43542392419641
 20
499.79958754314367
 30
0.0
 40
8.0
  0
CIRCLE
  5
452B
  8
0
 10
257.43542392419641
 20
499.79958754314367
 30
0.0
 40
6.9175000000000004
  0
CIRCLE
  5
4552
  8
0
 10
322.4354239241963
 20
499.79958754314367
 30
0.0
 40
9.2978982574651354
  0
LINE
  5
456F
  8
1
 10
343.4354239241963
 20
522.79958754314362
 30
0.0
 11
343.4354239241963
 21
537.79958754314362
 31
0.0
  0
LINE
  5
4570
  8
1
 10
335.93542392419641
 20
530.2995875431435
 30
0.0
 11
350.93542392419641
 21
530.2995875431435
 31
0.0
  0
LINE
  5
4572
  8
1
 10
301.4354239241963
 20
522.79958754314362
 30
0.0
 11
301.4354239241963
 21
537.79958754314362
 31
0.0
  0
LINE
  5
4573
  8
1
 10
293.93542392419641
 20
530.2995875431435
 30
0.0
 11
308.93542392419641
 21
530.2995875431435
 31
0.0
  0
LINE
  5
4574
  8
1
 10
301.4354239241963
 20
461.79958754314367
 30
0.0
 11
301.4354239241963
 21
476.79958754314367
 31
0.0
  0
LINE
  5
4575
  8
1
 10
293.93542392419641
 20
469.29958754314367
 30
0.0
 11
308.93542392419641
 21
469.29958754314367
 31
0.0
  0
LINE
  5
4576
  8
1
 10
343.4354239241963
 20
461.79958754314367
 30
0.0
 11
343.4354239241963
 21
476.79958754314367
 31
0.0
  0
LINE
  5
4577
  8
1
 10
335.93542392419641
 20
469.29958754314367
 30
0.0
 11
350.93542392419641
 21
469.29958754314367
 31
0.0
  0
LINE
  5
4578
  8
1
 10
314.93542392419641
 20
462.79958754314362
 30
0.0
 11
329.93542392419641
 21
462.79958754314362
 31
0.0
  0
LINE
  5
4579
  8
1
 10
314.93542392419641
 20
536.79958754314384
 30
0.0
 11
329.93542392419641
 21
536.79958754314384
 31
0.0
  0
LINE
  5
459E
  8
1
 10
240.4354241861233
 20
90.734400148803303
 30
0.0
 11
355.4354241861235
 21
90.734400148803303
 31
0.0
  0
LINE
  5
459F
  8
1
 10
322.43542418612333
 20
42.734400148803317
 30
0.0
 11
322.43542418612333
 21
138.7344001488033
 31
0.0
  0
LINE
  5
45A0
  8
1
 10
257.43542418612333
 20
79.734400148803374
 30
0.0
 11
257.43542418612333
 21
101.7344001488034
 31
0.0
  0
CIRCLE
  5
45A5
  8
3
 10
257.43542418612333
 20
90.734400148803374
 30
0.0
 40
8.0
  0
CIRCLE
  5
45A6
  8
0
 10
257.43542418612333
 20
90.734400148803374
 30
0.0
 40
6.9175000000000004
  0
LINE
  5
45AF
  8
1
 10
343.43542418612333
 20
113.7344001488033
 30
0.0
 11
343.43542418612333
 21
128.7344001488033
 31
0.0
  0
LINE
  5
45B0
  8
1
 10
335.93542418612333
 20
121.2344001488033
 30
0.0
 11
350.93542418612333
 21
121.2344001488033
 31
0.0
  0
LINE
  5
45B1
  8
1
 10
301.43542418612333
 20
113.7344001488033
 30
0.0
 11
301.43542418612333
 21
128.7344001488033
 31
0.0
  0
LINE
  5
45B2
  8
1
 10
293.93542418612333
 20
121.2344001488033
 30
0.0
 11
308.93542418612333
 21
121.2344001488033
 31
0.0
  0
LINE
  5
45B3
  8
1
 10
301.43542418612333
 20
52.734400148803388
 30
0.0
 11
301.43542418612333
 21
67.734400148803388
 31
0.0
  0
LINE
  5
45B4
  8
1
 10
293.93542418612333
 20
60.234400148803388
 30
0.0
 11
308.93542418612333
 21
60.234400148803388
 31
0.0
  0
LINE
  5
45B5
  8
1
 10
343.43542418612333
 20
52.734400148803388
 30
0.0
 11
343.43542418612333
 21
67.734400148803388
 31
0.0
  0
LINE
  5
45B6
  8
1
 10
335.93542418612333
 20
60.234400148803388
 30
0.0
 11
350.93542418612333
 21
60.234400148803388
 31
0.0
  0
LINE
  5
45B7
  8
1
 10
314.93542418612333
 20
53.734400148803388
 30
0.0
 11
329.93542418612333
 21
53.734400148803388
 31
0.0
  0
LINE
  5
45B8
  8
1
 10
314.93542418612333
 20
127.7344001488034
 30
0.0
 11
329.93542418612333
 21
127.7344001488034
 31
0.0
  0
CIRCLE
  5
45C7
  8
0
 10
318.28542418612318
 20
97.573808017910125
 30
0.0
 40
1.000000000000056
  0
CIRCLE
  5
45C8
  8
0
 10
326.58542418612342
 20
97.573808017910125
 30
0.0
 40
1.0
  0
CIRCLE
  5
45DE
  8
0
 10
322.4354239241963
 20
499.7995875431439
 30
0.0
 40
7.1000000000000218
  0
ENDSEC
  0
EOF
