  0
SECTION
  2
HEADER
  9
$ACADVER
  1
AC1009
  9
$INSBASE
 10
0.0
 20
0.0
 30
0.0
  9
$EXTMIN
 10
0.0
 20
-1.4802182810368341
 30
0.0
  9
$EXTMAX
 10
254.6331338945638
 20
212.60484926843989
 30
0.0
  9
$LIMMIN
 10
0.0
 20
0.0
  9
$LIMMAX
 10
270.0
 20
175.0
  9
$ORTHOMODE
 70
     0
  9
$REGENMODE
 70
     1
  9
$FILLMODE
 70
     1
  9
$QTEXTMODE
 70
     0
  9
$MIRRTEXT
 70
     0
  9
$DRAGMODE
 70
     2
  9
$LTSCALE
 40
10.0
  9
$OSMODE
 70
  3071
  9
$ATTMODE
 70
     1
  9
$TEXTSIZE
 40
0.2
  9
$TRACEWID
 40
0.05
  9
$TEXTSTYLE
  7
STANDARD
  9
$CLAYER
  8
0
  9
$CELTYPE
  6
BYLAYER
  9
$CECOLOR
 62
   256
  9
$DIMSCALE
 40
1.0
  9
$DIMASZ
 40
3.0
  9
$DIMEXO
 40
2.0
  9
$DIMDLI
 40
0.38
  9
$DIMRND
 40
0.0
  9
$DIMDLE
 40
0.0
  9
$DIMEXE
 40
2.0
  9
$DIMTP
 40
0.0
  9
$DIMTM
 40
0.0
  9
$DIMTXT
 40
3.0
  9
$DIMCEN
 40
0.0
  9
$DIMTSZ
 40
0.0
  9
$DIMTOL
 70
     0
  9
$DIMLIM
 70
     0
  9
$DIMTIH
 70
     0
  9
$DIMTOH
 70
     0
  9
$DIMSE1
 70
     0
  9
$DIMSE2
 70
     0
  9
$DIMTAD
 70
     1
  9
$DIMZIN
 70
     0
  9
$DIMBLK
  1

  9
$DIMASO
 70
     0
  9
$DIMSHO
 70
     0
  9
$DIMPOST
  1

  9
$DIMAPOST
  1

  9
$DIMALT
 70
     0
  9
$DIMALTD
 70
     2
  9
$DIMALTF
 40
25.399999999999999
  9
$DIMLFAC
 40
1.0
  9
$DIMTOFL
 70
     1
  9
$DIMTVP
 40
1.6000000000000001
  9
$DIMTIX
 70
     1
  9
$DIMSOXD
 70
     0
  9
$DIMSAH
 70
     0
  9
$DIMBLK1
  1

  9
$DIMBLK2
  1

  9
$DIMSTYLE
  2
STANDARD
  9
$DIMCLRD
 70
     0
  9
$DIMCLRE
 70
     0
  9
$DIMCLRT
 70
     0
  9
$DIMTFAC
 40
1.0
  9
$DIMGAP
 40
0.09
  9
$LUNITS
 70
     2
  9
$LUPREC
 70
     4
  9
$SKETCHINC
 40
0.1
  9
$FILLETRAD
 40
0.0
  9
$AUNITS
 70
     0
  9
$AUPREC
 70
     4
  9
$MENU
  1
E:\r13\win\SUPPORT\ACAD
  9
$ELEVATION
 40
0.0
  9
$PELEVATION
 40
0.0
  9
$THICKNESS
 40
0.0
  9
$LIMCHECK
 70
     0
  9
$BLIPMODE
 70
     0
  9
$CHAMFERA
 40
0.0
  9
$CHAMFERB
 40
0.0
  9
$SKPOLY
 70
     0
  9
$TDCREATE
 40
2449840.650972222
  9
$TDUPDATE
 40
2456597.7284473032
  9
$TDINDWG
 40
0.0020625463
  9
$TDUSRTIMER
 40
0.0020625463
  9
$USRTIMER
 70
     1
  9
$ANGBASE
 50
0.0
  9
$ANGDIR
 70
     0
  9
$PDMODE
 70
     0
  9
$PDSIZE
 40
0.0
  9
$PLINEWID
 40
0.0
  9
$COORDS
 70
     1
  9
$SPLFRAME
 70
     0
  9
$SPLINETYPE
 70
     6
  9
$SPLINESEGS
 70
     8
  9
$ATTDIA
 70
     0
  9
$ATTREQ
 70
     1
  9
$HANDLING
 70
     1
  9
$HANDSEED
  5
26A
  9
$SURFTAB1
 70
     6
  9
$SURFTAB2
 70
     6
  9
$SURFTYPE
 70
     6
  9
$SURFU
 70
     6
  9
$SURFV
 70
     6
  9
$UCSNAME
  2

  9
$UCSORG
 10
0.0
 20
0.0
 30
0.0
  9
$UCSXDIR
 10
1.0
 20
0.0
 30
0.0
  9
$UCSYDIR
 10
0.0
 20
1.0
 30
0.0
  9
$PUCSNAME
  2

  9
$PUCSORG
 10
0.0
 20
0.0
 30
0.0
  9
$PUCSXDIR
 10
1.0
 20
0.0
 30
0.0
  9
$PUCSYDIR
 10
0.0
 20
1.0
 30
0.0
  9
$USERI1
 70
     0
  9
$USERI2
 70
     1
  9
$USERI3
 70
     1
  9
$USERI4
 70
     0
  9
$USERI5
 70
     0
  9
$USERR1
 40
0.0
  9
$USERR2
 40
0.0
  9
$USERR3
 40
0.0
  9
$USERR4
 40
0.0
  9
$USERR5
 40
0.0
  9
$WORLDVIEW
 70
     1
  9
$SHADEDGE
 70
     3
  9
$SHADEDIF
 70
    70
  9
$TILEMODE
 70
     1
  9
$MAXACTVP
 70
    16
  9
$PLIMCHECK
 70
     0
  9
$PEXTMIN
 10
1.0000000000000000E+020
 20
1.0000000000000000E+020
 30
1.0000000000000000E+020
  9
$PEXTMAX
 10
-1.0000000000000000E+020
 20
-1.0000000000000000E+020
 30
-1.0000000000000000E+020
  9
$PLIMMIN
 10
0.0
 20
0.0
  9
$PLIMMAX
 10
12.0
 20
9.0
  9
$UNITMODE
 70
     0
  9
$VISRETAIN
 70
     0
  9
$PLINEGEN
 70
     0
  9
$PSLTSCALE
 70
     0
  0
ENDSEC
  0
SECTION
  2
TABLES
  0
TABLE
  2
VPORT
 70
     1
  0
VPORT
  2
*ACTIVE
 70
     0
 10
0.0
 20
0.0
 11
1.0
 21
1.0
 12
134.99588044126969
 22
118.0053758622492
 13
0.0
 23
0.0
 14
10.0
 24
10.0
 15
10.0
 25
10.0
 16
0.0
 26
0.0
 36
1.0
 17
0.0
 27
0.0
 37
0.0
 40
241.9771675108108
 41
2.304913294797688
 42
50.0
 43
0.0
 44
0.0
 50
0.0
 51
0.0
 71
     0
 72
   500
 73
     1
 74
     0
 75
     0
 76
     0
 77
     0
 78
     2
  0
ENDTAB
  0
TABLE
  2
LTYPE
 70
     4
  0
LTYPE
  2
CONTINUOUS
 70
     0
  3
Solid Line
 72
    65
 73
     0
 40
0.0
  0
LTYPE
  2
CENTER
 70
     0
  3
____ _ ____ _ ____ _ ____ _ ____ _ ____ _ ____
 72
    65
 73
     4
 40
2.0
 49
1.25
 49
-0.25
 49
0.25
 49
-0.25
  0
LTYPE
  2
HIDDEN
 70
     0
  3
_ _ _ _ _ _ _ _ _ _ _ _ _ _ _ _ _ _ _ _ _ _ _
 72
    65
 73
     2
 40
0.375
 49
0.25
 49
-0.125
  0
LTYPE
  2
PHANTOM2
 70
     0
  3
___ _ _ ___ _ _ ___ _ _ ___ _ _
 72
    65
 73
     6
 40
1.25
 49
0.625
 49
-0.125
 49
0.125
 49
-0.125
 49
0.125
 49
-0.125
  0
ENDTAB
  0
TABLE
  2
LAYER
 70
     4
  0
LAYER
  2
0
 70
     0
 62
     7
  6
CONTINUOUS
  0
LAYER
  2
1
 70
     0
 62
     1
  6
CENTER
  0
LAYER
  2
2
 70
     0
 62
     2
  6
HIDDEN
  0
LAYER
  2
3
 70
     0
 62
     3
  6
CONTINUOUS
  0
ENDTAB
  0
TABLE
  2
STYLE
 70
     2
  0
STYLE
  2
STANDARD
 70
     0
 40
0.0
 41
1.0
 50
0.0
 71
     0
 42
0.2
  3
TXT
  4
BIGFONT
  0
STYLE
  2
STANDARD1
 70
     0
 40
0.0
 41
1.0
 50
0.0
 71
     0
 42
3.0
  3
txt
  4

  0
ENDTAB
  0
TABLE
  2
VIEW
 70
     1
  0
VIEW
  2
ALL
 70
     0
 40
179.5384664489153
 10
135.0
 20
89.769233224457665
 41
0.0
 11
0.0
 21
0.0
 31
1.0
 12
0.0
 22
0.0
 32
0.0
 42
0.0
 43
0.0
 44
0.0
 50
0.0
 71
     0
  0
ENDTAB
  0
TABLE
  2
UCS
 70
     0
  0
ENDTAB
  0
TABLE
  2
APPID
 70
     3
  0
APPID
  2
ACAD
 70
     0
  0
APPID
  2
ACAD_MLEADERVER
 70
     0
  0
APPID
  2
ACAD_NAV_VCDISPLAY
 70
     0
  0
ENDTAB
  0
TABLE
  2
DIMSTYLE
 70
     1
  0
DIMSTYLE
  2
STANDARD
 70
     0
  3

  4

  5

  6

  7

 40
1.0
 41
0.18
 42
0.0625
 43
0.38
 44
0.18
 45
0.0
 46
0.0
 47
0.0
 48
0.0
140
0.18
141
0.09
142
0.0
143
25.399999999999999
144
1.0
145
0.0
146
1.0
147
0.09
 71
     0
 72
     0
 73
     1
 74
     1
 75
     0
 76
     0
 77
     0
 78
     0
170
     0
171
     2
172
     0
173
     0
174
     0
175
     0
176
     0
177
     0
178
     0
  0
ENDTAB
  0
ENDSEC
  0
SECTION
  2
BLOCKS
  0
BLOCK
  8
0
  2
$MODEL_SPACE
 70
     0
 10
0.0
 20
0.0
 30
0.0
  3
$MODEL_SPACE
  1

  0
ENDBLK
  5
E7
  8
0
  0
BLOCK
 67
     1
  8
0
  2
$PAPER_SPACE
 70
     0
 10
0.0
 20
0.0
 30
0.0
  3
$PAPER_SPACE
  1

  0
ENDBLK
  5
E5
 67
     1
  8
0
  0
ENDSEC
  0
SECTION
  2
ENTITIES
  0
LINE
  5
3C
  8
0
 10
241.83313389456089
 20
108.1475479698201
 30
0.0
 11
241.83313389456089
 21
104.2745646236578
 31
0.0
  0
LINE
  5
3D
  8
2
 10
241.83313389456089
 20
104.2745646236127
 30
0.0
 11
241.83313389456089
 21
104.2110562967315
 31
0.0
  0
LINE
  5
3E
  8
2
 10
241.83313389456089
 20
108.2110562967315
 30
0.0
 11
241.83313389456089
 21
108.14754796985019
 31
0.0
  0
LINE
  5
3F
  8
0
 10
235.333133894561
 20
109.2110562967314
 30
0.0
 11
236.3331338945608
 21
109.2110562967314
 31
0.0
  0
LINE
  5
40
  8
3
 10
235.333133894561
 20
108.6695562967315
 30
0.0
 11
236.3331338945608
 21
108.6695562967316
 31
0.0
  0
LINE
  5
41
  8
3
 10
228.02713238398661
 20
108.6695562967316
 30
0.0
 11
228.63913540513349
 21
108.6695562967316
 31
0.0
  0
LINE
  5
42
  8
3
 10
235.333133894561
 20
195.06334926843999
 30
0.0
 11
236.333133894561
 21
195.06334926843999
 31
0.0
  0
LINE
  5
43
  8
0
 10
235.333133894561
 20
195.60484926843989
 30
0.0
 11
236.333133894561
 21
195.60484926843989
 31
0.0
  0
LINE
  5
44
  8
0
 10
235.333133894561
 20
189.60484926843989
 30
0.0
 11
236.333133894561
 21
189.60484926843989
 31
0.0
  0
LINE
  5
45
  8
3
 10
235.333133894561
 20
190.14634926843979
 30
0.0
 11
236.333133894561
 21
190.14634926843979
 31
0.0
  0
LINE
  5
46
  8
0
 10
126.646601544806
 20
103.5255578073053
 30
0.0
 11
126.6466015448061
 21
89.711056296731584
 31
0.0
  0
LINE
  5
47
  8
0
 10
112.84660154480611
 20
112.0255578073055
 30
0.0
 11
112.84660154480611
 21
113.7110562967315
 31
0.0
  0
CIRCLE
  5
48
  8
0
 10
211.833133894561
 20
192.60484926843989
 30
0.0
 40
10.0
  0
LINE
  5
49
  8
1
 10
211.833133894561
 20
172.60484926843989
 30
0.0
 11
211.833133894561
 21
212.60484926843989
 31
0.0
  0
LINE
  5
4A
  8
0
 10
235.333133894561
 20
188.60484926843989
 30
0.0
 11
235.333133894561
 21
196.60484926843989
 31
0.0
  0
LINE
  5
4B
  8
0
 10
220.99828528447489
 20
196.60484926843989
 30
0.0
 11
235.333133894561
 21
196.60484926843989
 31
0.0
  0
LINE
  5
4C
  8
0
 10
235.333133894561
 20
188.60484926843989
 30
0.0
 11
220.9982852844702
 21
188.60484926843989
 31
0.0
  0
LINE
  5
4D
  8
1
 10
254.6331338945638
 20
192.60484926843989
 30
0.0
 11
191.1331338945609
 21
192.60484926843989
 31
0.0
  0
LINE
  5
4E
  8
1
 10
211.833133894561
 20
126.2110562967315
 30
0.0
 11
211.833133894561
 21
86.211056296731499
 31
0.0
  0
LINE
  5
4F
  8
1
 10
254.6331338945638
 20
106.2110562967315
 30
0.0
 11
200.33313389456069
 21
106.2110562967314
 31
0.0
  0
LINE
  5
50
  8
0
 10
129.74660154480611
 20
112.0255578073055
 30
0.0
 11
109.7466015448061
 21
112.0255578073055
 31
0.0
  0
LINE
  5
51
  8
0
 10
129.74660154480611
 20
106.6255578073054
 30
0.0
 11
129.74660154480611
 21
112.0255578073055
 31
0.0
  0
LINE
  5
52
  8
0
 10
116.34660154480611
 20
100.0255578073055
 30
0.0
 11
123.1466015448062
 21
100.0255578073055
 31
0.0
  0
LINE
  5
53
  8
0
 10
109.7466015448061
 20
112.0255578073055
 30
0.0
 11
109.7466015448061
 21
106.6255578073055
 31
0.0
  0
LINE
  5
54
  8
1
 10
119.7466015448061
 20
127.2110562967314
 30
0.0
 11
119.7466015448061
 21
85.211056296731513
 31
0.0
  0
LINE
  5
55
  8
1
 10
99.746601544806154
 20
106.2110562967314
 30
0.0
 11
139.74660154480611
 21
106.2110562967314
 31
0.0
  0
LINE
  5
56
  8
0
 10
116.859850201206
 20
111.2110562926581
 30
0.0
 11
122.6333528931019
 21
111.2110562926581
 31
0.0
  0
LINE
  5
57
  8
0
 10
122.6333528884056
 20
111.21105629265359
 30
0.0
 11
125.52010423435441
 21
106.2110562926581
 31
0.0
  0
LINE
  5
58
  8
0
 10
125.5201042320011
 20
106.2110562967281
 30
0.0
 11
122.6333528860539
 21
101.2110562967281
 31
0.0
  0
LINE
  5
59
  8
0
 10
122.6333528884027
 20
101.21105630079811
 30
0.0
 11
116.8598501965067
 21
101.21105630079811
 31
0.0
  0
LINE
  5
5A
  8
0
 10
116.8598502012066
 20
101.21105630079811
 30
0.0
 11
113.9730988552577
 21
106.21105630079811
 31
0.0
  0
LINE
  5
5B
  8
0
 10
113.97309885761111
 20
106.2110562967281
 30
0.0
 11
116.8598502035582
 21
111.2110562967281
 31
0.0
  0
LINE
  5
5C
  8
0
 10
116.34660154480611
 20
100.0255578073055
 30
0.0
 11
116.34660154480611
 21
96.525557807305532
 31
0.0
  0
LINE
  5
5D
  8
0
 10
116.34660154480611
 20
96.525557807305532
 30
0.0
 11
123.1466015448061
 21
96.525557807305532
 31
0.0
  0
LINE
  5
5E
  8
0
 10
123.1466015448061
 20
96.525557807305532
 30
0.0
 11
123.1466015448061
 21
100.0255578073055
 31
0.0
  0
CIRCLE
  5
5F
  8
0
 10
119.7466015448061
 20
106.2110562967314
 30
0.0
 40
4.3071796769724946
  0
LINE
  5
60
  8
0
 10
121.1899772177799
 20
103.7110562967317
 30
0.0
 11
122.6333528907541
 21
106.2110562967317
 31
0.0
  0
LINE
  5
61
  8
0
 10
122.6333528907541
 20
106.2110562967317
 30
0.0
 11
121.1899772177799
 21
108.7110562967314
 31
0.0
  0
LINE
  5
62
  8
0
 10
121.1899772177799
 20
108.7110562967314
 30
0.0
 11
118.3032258718315
 21
108.7110562967314
 31
0.0
  0
LINE
  5
63
  8
0
 10
118.3032258718315
 20
108.7110562967314
 30
0.0
 11
116.8598501988579
 21
106.2110562967314
 31
0.0
  0
LINE
  5
64
  8
0
 10
116.8598501988579
 20
106.2110562967314
 30
0.0
 11
118.3032258718323
 21
103.7110562967311
 31
0.0
  0
LINE
  5
65
  8
0
 10
118.3032258718323
 20
103.7110562967311
 30
0.0
 11
121.1899772177799
 21
103.7110562967317
 31
0.0
  0
CIRCLE
  5
66
  8
0
 10
119.7466015448061
 20
106.2110562967314
 30
0.0
 40
5.0
  0
LINE
  5
67
  8
0
 10
129.74660154480611
 20
106.6255578073054
 30
0.0
 11
123.1466015448061
 21
100.0255578073055
 31
0.0
  0
LINE
  5
68
  8
0
 10
109.7466015448061
 20
106.6255578073054
 30
0.0
 11
116.34660154480611
 21
100.0255578073055
 31
0.0
  0
LINE
  5
69
  8
0
 10
201.833133894561
 20
112.0255578073055
 30
0.0
 11
201.833133894561
 21
111.2110562926581
 31
0.0
  0
LINE
  5
6A
  8
0
 10
221.833133894561
 20
112.0255578073055
 30
0.0
 11
221.833133894561
 21
111.22555780730551
 31
0.0
  0
LINE
  5
6B
  8
0
 10
221.833133894561
 20
112.0255578073055
 30
0.0
 11
201.833133894561
 21
112.0255578073055
 31
0.0
  0
LINE
  5
6C
  8
0
 10
201.833133894561
 20
100.0255578073056
 30
0.0
 11
221.833133894561
 21
100.0255578073055
 31
0.0
  0
LINE
  5
6D
  8
0
 10
208.43313389456111
 20
100.0255578073055
 30
0.0
 11
208.43313389456111
 21
96.525557807305532
 31
0.0
  0
LINE
  5
6E
  8
0
 10
208.43313389456111
 20
96.525557807305532
 30
0.0
 11
215.23313389456109
 21
96.525557807305532
 31
0.0
  0
LINE
  5
6F
  8
0
 10
215.23313389456109
 20
96.525557807305532
 30
0.0
 11
215.23313389456109
 21
100.0255578073055
 31
0.0
  0
POLYLINE
  5
70
  8
0
 66
     1
 10
0.0
 20
0.0
 30
0.0
  0
VERTEX
  5
220
  8
0
 10
221.23738825097041
 20
100.0255578073055
 30
0.0
 42
0.1340921392394631
  0
VERTEX
  5
221
  8
0
 10
220.5836198511499
 20
102.41948331559639
 30
0.0
 42
0.1068206822243679
  0
VERTEX
  5
222
  8
0
 10
218.48294592198121
 20
104.6924625631366
 30
0.0
 42
0.0824453987348337
  0
VERTEX
  5
223
  8
0
 10
215.5608197838572
 20
106.0947272792254
 30
0.0
 42
0.0708437343027986
  0
VERTEX
  5
224
  8
0
 10
211.833133894561
 20
106.6255578073054
 30
0.0
 42
0.070843734302805
  0
VERTEX
  5
225
  8
0
 10
208.1054480052652
 20
106.0947272792254
 30
0.0
 42
0.0824453987348561
  0
VERTEX
  5
226
  8
0
 10
205.18332186714071
 20
104.6924625631366
 30
0.0
 42
0.1068206822243432
  0
VERTEX
  5
227
  8
0
 10
203.0826479379721
 20
102.41948331559659
 30
0.0
 42
0.1340921392394508
  0
VERTEX
  5
228
  8
0
 10
202.42887953815159
 20
100.0255578073055
 30
0.0
 42
0.1340921392394733
  0
SEQEND
  5
229
  8
0
  0
LINE
  5
7B
  8
0
 10
202.258862816289
 20
101.21105630079811
 30
0.0
 11
201.83313388985931
 21
101.21105630079811
 31
0.0
  0
LINE
  5
7C
  8
0
 10
201.8331338945587
 20
111.2110562926581
 30
0.0
 11
202.25886281628891
 21
111.2110562926581
 31
0.0
  0
LINE
  5
7D
  8
0
 10
201.833133894561
 20
101.21105630079811
 30
0.0
 11
201.833133894561
 21
100.0255578073056
 31
0.0
  0
LINE
  5
7E
  8
0
 10
202.258862816289
 20
111.2110562926581
 30
0.0
 11
203.66816808195961
 21
106.2110562967314
 31
0.0
  0
LINE
  5
7F
  8
0
 10
203.66816808195961
 20
106.2110562967314
 30
0.0
 11
202.258862816289
 21
101.21105630079811
 31
0.0
  0
ARC
  5
80
  8
0
 10
231.3240506047772
 20
106.2110562967318
 30
0.0
 40
10.0000000000129
 50
168.37822726199479
 51
198.36081379390311
  0
LINE
  5
81
  8
0
 10
221.833133894561
 20
103.06105629673399
 30
0.0
 11
221.833133894561
 21
100.0255578073055
 31
0.0
  0
LINE
  5
82
  8
0
 10
235.333133894561
 20
108.22555780730551
 30
0.0
 11
235.333133894561
 21
111.22555780730551
 31
0.0
  0
LINE
  5
83
  8
0
 10
220.99828528446861
 20
111.22555780730551
 30
0.0
 11
220.99828528446861
 21
108.22555780730551
 31
0.0
  0
LINE
  5
84
  8
0
 10
220.99828528446861
 20
111.22555780730551
 30
0.0
 11
227.58313389456231
 21
111.22555780730541
 31
0.0
  0
LINE
  5
85
  8
0
 10
220.99828528446861
 20
108.22555780730551
 30
0.0
 11
227.5831338945622
 21
108.22555780730541
 31
0.0
  0
LINE
  5
86
  8
0
 10
228.333133894561
 20
188.60484926843989
 30
0.0
 11
228.333133894561
 21
196.60484926843989
 31
0.0
  0
LINE
  5
87
  8
0
 10
228.33313389455961
 20
110.47555780730541
 30
0.0
 11
229.08313389455961
 21
111.22555780730551
 31
0.0
  0
LINE
  5
88
  8
0
 10
228.33313389455961
 20
110.47555780730541
 30
0.0
 11
227.58313389456231
 21
111.22555780730551
 31
0.0
  0
LINE
  5
89
  8
0
 10
228.33313389455961
 20
108.97555780730561
 30
0.0
 11
229.08313389455961
 21
108.22555780730551
 31
0.0
  0
LINE
  5
8A
  8
0
 10
228.33313389455961
 20
108.97555780730561
 30
0.0
 11
227.58313389456231
 21
108.22555780730551
 31
0.0
  0
LINE
  5
8B
  8
0
 10
229.08313389455969
 20
111.22555780730541
 30
0.0
 11
235.333133894561
 21
111.22555780730551
 31
0.0
  0
LINE
  5
8C
  8
0
 10
229.08313389455969
 20
108.22555780730541
 30
0.0
 11
235.333133894561
 21
108.22555780730541
 31
0.0
  0
LINE
  5
8D
  8
0
 10
227.583133894561
 20
188.60484926843989
 30
0.0
 11
227.583133894561
 21
196.60484926843989
 31
0.0
  0
LINE
  5
8E
  8
0
 10
229.083133894561
 20
188.60484926843989
 30
0.0
 11
229.083133894561
 21
196.60484926843989
 31
0.0
  0
LINE
  5
8F
  8
3
 10
221.63097174663139
 20
103.7525562967314
 30
0.0
 11
236.3331338945608
 21
103.7525562967313
 31
0.0
  0
LINE
  5
90
  8
0
 10
221.78465859059401
 20
103.2110562967314
 30
0.0
 11
236.3331338945608
 21
103.2110562967314
 31
0.0
  0
ARC
  5
91
  8
0
 10
236.53313389456099
 20
199.304850222103
 30
0.0
 40
0.2
 50
68.179757014084615
 51
180.0
  0
ARC
  5
92
  8
0
 10
236.53313389456099
 20
185.9048502221255
 30
0.0
 40
0.2
 50
180.00054641513361
 51
291.82024298591529
  0
ARC
  5
93
  8
0
 10
230.6603478809341
 20
200.57285569110979
 30
0.0
 40
16.0
 50
291.82020994472049
 51
318.3943112937863
  0
ARC
  5
94
  8
0
 10
239.6331338945445
 20
192.60485022211421
 30
0.0
 40
4.0000000000006821
 50
318.39431359554862
 51
41.605691007975892
  0
ARC
  5
95
  8
0
 10
230.6603478809341
 20
184.63684475311879
 30
0.0
 40
16.0
 50
41.605688706213662
 51
68.179790055279526
  0
LINE
  5
96
  8
0
 10
236.333133894561
 20
185.9048483147769
 30
0.0
 11
236.333133894561
 21
199.304850222103
 31
0.0
  0
ARC
  5
97
  8
0
 10
242.63313389456141
 20
192.60484926843989
 30
0.0
 40
2.0
 50
284.47751218591719
 51
75.52248781408278
  0
LINE
  5
98
  8
0
 10
236.3331338945608
 20
112.7110562967315
 30
0.0
 11
236.3331338945608
 21
89.711056296731584
 31
0.0
  0
LINE
  5
99
  8
0
 10
236.3331338945608
 20
89.711056296731584
 30
0.0
 11
243.63313389456081
 21
89.711056296731584
 31
0.0
  0
LINE
  5
9A
  8
0
 10
243.63313389456081
 20
89.711056296731584
 30
0.0
 11
243.63313389456081
 21
94.479005489163484
 31
0.0
  0
LINE
  5
9B
  8
0
 10
243.63313389456081
 20
112.7110562967315
 30
0.0
 11
236.3331338945608
 21
112.7110562967315
 31
0.0
  0
ARC
  5
9C
  8
0
 10
245.33313389456089
 20
106.2110562967315
 30
0.0
 40
4.0
 50
115.1506634125395
 51
244.84933658746061
  0
LINE
  5
9D
  8
0
 10
243.63313389456081
 20
109.83182969477809
 30
0.0
 11
243.63313389456081
 21
112.7110562967315
 31
0.0
  0
LINE
  5
9E
  8
0
 10
243.63313389456081
 20
97.943107104299116
 30
0.0
 11
243.63313389456081
 21
102.5902828986858
 31
0.0
  0
ARC
  5
9F
  8
0
 10
244.6331338945626
 20
96.211056296731314
 30
0.0
 40
2.0
 50
120.00000000006079
 51
239.99999999993921
  0
ARC
  5
A0
  8
0
 10
242.63313389456081
 20
96.211056296731314
 30
0.0
 40
2.0
 50
300.00000000001751
 51
59.999999999968232
  0
LINE
  5
A1
  8
0
 10
112.84660154480611
 20
113.7110562967315
 30
0.0
 11
126.646601544806
 21
113.7110562967315
 31
0.0
  0
LINE
  5
A2
  8
0
 10
112.84660154480611
 20
89.711056296731584
 30
0.0
 11
112.84660154480601
 21
103.5255578073055
 31
0.0
  0
LINE
  5
A3
  8
0
 10
126.646601544806
 20
113.7110562967315
 30
0.0
 11
126.646601544806
 21
112.0255578073055
 31
0.0
  0
LINE
  5
AD
  8
0
 10
126.6466015448061
 20
89.711056296731584
 30
0.0
 11
112.84660154480611
 21
89.711056296731584
 31
0.0
  0
TEXT
  5
1C7
  8
0
 62
     3
 10
0.0
 20
0.0
 30
0.0
 40
5.0
  1
PUJ20
  7
STANDARD1
  0
ENDSEC
  0
EOF
