  0
SECTION
  2
HEADER
  9
$ACADVER
  1
AC1009
  9
$INSBASE
 10
0.0
 20
0.0
 30
0.0
  9
$EXTMIN
 10
0.0
 20
-2.960436562073669
 30
0.0
  9
$EXTMAX
 10
118.0150068212824
 20
106.0000003799796
 30
0.0
  9
$LIMMIN
 10
0.0
 20
0.0
  9
$LIMMAX
 10
375.0
 20
270.0
  9
$ORTHOMODE
 70
     1
  9
$REGENMODE
 70
     1
  9
$FILLMODE
 70
     1
  9
$QTEXTMODE
 70
     0
  9
$MIRRTEXT
 70
     0
  9
$DRAGMODE
 70
     2
  9
$LTSCALE
 40
5.0
  9
$OSMODE
 70
    37
  9
$ATTMODE
 70
     1
  9
$TEXTSIZE
 40
6.0
  9
$TRACEWID
 40
0.05
  9
$TEXTSTYLE
  7
STANDARD
  9
$CLAYER
  8
0
  9
$CELTYPE
  6
BYLAYER
  9
$CECOLOR
 62
   256
  9
$DIMSCALE
 40
1.0
  9
$DIMASZ
 40
3.0
  9
$DIMEXO
 40
2.0
  9
$DIMDLI
 40
0.3799999999999999
  9
$DIMRND
 40
0.0
  9
$DIMDLE
 40
0.0
  9
$DIMEXE
 40
2.0
  9
$DIMTP
 40
0.0
  9
$DIMTM
 40
0.0
  9
$DIMTXT
 40
3.2000000000000002
  9
$DIMCEN
 40
0.0
  9
$DIMTSZ
 40
0.0
  9
$DIMTOL
 70
     0
  9
$DIMLIM
 70
     0
  9
$DIMTIH
 70
     0
  9
$DIMTOH
 70
     0
  9
$DIMSE1
 70
     0
  9
$DIMSE2
 70
     0
  9
$DIMTAD
 70
     1
  9
$DIMZIN
 70
     8
  9
$DIMBLK
  1

  9
$DIMASO
 70
     0
  9
$DIMSHO
 70
     0
  9
$DIMPOST
  1

  9
$DIMAPOST
  1

  9
$DIMALT
 70
     0
  9
$DIMALTD
 70
     2
  9
$DIMALTF
 40
25.399999999999999
  9
$DIMLFAC
 40
1.0
  9
$DIMTOFL
 70
     0
  9
$DIMTVP
 40
0.0
  9
$DIMTIX
 70
     0
  9
$DIMSOXD
 70
     0
  9
$DIMSAH
 70
     0
  9
$DIMBLK1
  1

  9
$DIMBLK2
  1

  9
$DIMSTYLE
  2
STANDARD
  9
$DIMCLRD
 70
     0
  9
$DIMCLRE
 70
     0
  9
$DIMCLRT
 70
     0
  9
$DIMTFAC
 40
1.0
  9
$DIMGAP
 40
0.5
  9
$LUNITS
 70
     2
  9
$LUPREC
 70
     1
  9
$SKETCHINC
 40
0.1
  9
$FILLETRAD
 40
20.0
  9
$AUNITS
 70
     0
  9
$AUPREC
 70
     1
  9
$MENU
  1
E:\r13\win\SUPPORT\ACAD
  9
$ELEVATION
 40
0.0
  9
$PELEVATION
 40
0.0
  9
$THICKNESS
 40
0.0
  9
$LIMCHECK
 70
     0
  9
$BLIPMODE
 70
     0
  9
$CHAMFERA
 40
0.5
  9
$CHAMFERB
 40
0.5
  9
$SKPOLY
 70
     0
  9
$TDCREATE
 40
2449840.6945370371
  9
$TDUPDATE
 40
2459191.6558040399
  9
$TDINDWG
 40
0.6735459259
  9
$TDUSRTIMER
 40
0.6735459259
  9
$USRTIMER
 70
     1
  9
$ANGBASE
 50
0.0
  9
$ANGDIR
 70
     0
  9
$PDMODE
 70
     0
  9
$PDSIZE
 40
0.0
  9
$PLINEWID
 40
0.0
  9
$COORDS
 70
     1
  9
$SPLFRAME
 70
     0
  9
$SPLINETYPE
 70
     6
  9
$SPLINESEGS
 70
     8
  9
$ATTDIA
 70
     0
  9
$ATTREQ
 70
     1
  9
$HANDLING
 70
     1
  9
$HANDSEED
  5
C6DE
  9
$SURFTAB1
 70
     6
  9
$SURFTAB2
 70
     6
  9
$SURFTYPE
 70
     6
  9
$SURFU
 70
     6
  9
$SURFV
 70
     6
  9
$UCSNAME
  2

  9
$UCSORG
 10
0.0
 20
0.0
 30
0.0
  9
$UCSXDIR
 10
1.0
 20
0.0
 30
0.0
  9
$UCSYDIR
 10
0.0
 20
1.0
 30
0.0
  9
$PUCSNAME
  2

  9
$PUCSORG
 10
0.0
 20
0.0
 30
0.0
  9
$PUCSXDIR
 10
1.0
 20
0.0
 30
0.0
  9
$PUCSYDIR
 10
0.0
 20
1.0
 30
0.0
  9
$USERI1
 70
     0
  9
$USERI2
 70
     1
  9
$USERI3
 70
     0
  9
$USERI4
 70
     0
  9
$USERI5
 70
     0
  9
$USERR1
 40
0.0
  9
$USERR2
 40
0.0
  9
$USERR3
 40
0.0
  9
$USERR4
 40
0.0
  9
$USERR5
 40
0.0
  9
$WORLDVIEW
 70
     1
  9
$SHADEDGE
 70
     3
  9
$SHADEDIF
 70
    70
  9
$TILEMODE
 70
     1
  9
$MAXACTVP
 70
    16
  9
$PLIMCHECK
 70
     0
  9
$PEXTMIN
 10
1.0000000000000000E+020
 20
1.0000000000000000E+020
 30
1.0000000000000000E+020
  9
$PEXTMAX
 10
-1.0000000000000000E+020
 20
-1.0000000000000000E+020
 30
-1.0000000000000000E+020
  9
$PLIMMIN
 10
0.0
 20
0.0
  9
$PLIMMAX
 10
12.0
 20
9.0
  9
$UNITMODE
 70
     0
  9
$VISRETAIN
 70
     0
  9
$PLINEGEN
 70
     0
  9
$PSLTSCALE
 70
     0
  0
ENDSEC
  0
SECTION
  2
TABLES
  0
TABLE
  2
VPORT
 70
     1
  0
VPORT
  2
*ACTIVE
 70
     0
 10
0.0
 20
0.0
 11
1.0
 21
1.0
 12
241.56441717791409
 22
100.0
 13
0.0
 23
0.0
 14
10.0
 24
10.0
 15
10.0
 25
10.0
 16
0.0
 26
0.0
 36
1.0
 17
0.0
 27
0.0
 37
0.0
 40
200.0
 41
2.415644171779141
 42
50.0
 43
0.0
 44
0.0
 50
0.0
 51
0.0
 71
     0
 72
   500
 73
     1
 74
     0
 75
     0
 76
     0
 77
     0
 78
     0
  0
ENDTAB
  0
TABLE
  2
LTYPE
 70
     5
  0
LTYPE
  2
CONTINUOUS
 70
     0
  3
Solid Line
 72
    65
 73
     0
 40
0.0
  0
LTYPE
  2
CENTER
 70
     0
  3
____ _ ____ _ ____ _ ____ _ ____ _ ____ _ ____
 72
    65
 73
     4
 40
2.0
 49
1.25
 49
-0.25
 49
0.25
 49
-0.25
  0
LTYPE
  2
PHANTOM2
 70
     0
  3
___ _ _ ___ _ _ ___ _ _ ___ _ _
 72
    65
 73
     6
 40
1.25
 49
0.625
 49
-0.125
 49
0.125
 49
-0.125
 49
0.125
 49
-0.125
  0
LTYPE
  2
HIDDEN
 70
     0
  3
_ _ _ _ _ _ _ _ _ _ _ _ _ _ _ _ _ _ _ _ _ _ _
 72
    65
 73
     2
 40
0.375
 49
0.25
 49
-0.125
  0
LTYPE
  2
PHANTOM
 70
     0
  3
Phantom ______  __  __  ______  __  __  ______
 72
    65
 73
     6
 40
12.699999999999999
 49
6.3499999999999988
 49
-1.27
 49
1.27
 49
-1.27
 49
1.27
 49
-1.27
  0
ENDTAB
  0
TABLE
  2
LAYER
 70
     6
  0
LAYER
  2
0
 70
     0
 62
     7
  6
CONTINUOUS
  0
LAYER
  2
1
 70
     0
 62
     1
  6
CENTER
  0
LAYER
  2
DEFPOINTS
 70
     0
 62
     7
  6
CONTINUOUS
  0
LAYER
  2
2
 70
     0
 62
     2
  6
HIDDEN
  0
LAYER
  2
5
 70
     0
 62
     3
  6
PHANTOM
  0
LAYER
  2
3
 70
     0
 62
     3
  6
CONTINUOUS
  0
ENDTAB
  0
TABLE
  2
STYLE
 70
     2
  0
STYLE
  2
STANDARD
 70
     0
 40
0.0
 41
1.0
 50
0.0
 71
     0
 42
6.0
  3
TXT
  4
BIGFONT
  0
STYLE
  2
STANDARD1
 70
     0
 40
0.0
 41
1.0
 50
0.0
 71
     0
 42
3.0
  3
txt
  4

  0
ENDTAB
  0
TABLE
  2
VIEW
 70
     1
  0
VIEW
  2
ALL
 70
     0
 40
270.0
 10
213.25689075630251
 20
135.0
 41
0.0
 11
0.0
 21
0.0
 31
1.0
 12
0.0
 22
0.0
 32
0.0
 42
0.0
 43
0.0
 44
0.0
 50
0.0
 71
     0
  0
ENDTAB
  0
TABLE
  2
UCS
 70
     0
  0
ENDTAB
  0
TABLE
  2
APPID
 70
    10
  0
APPID
  2
ACAD
 70
     0
  0
APPID
  2
ACAD_EXEMPT_FROM_CAD_STANDARDS
 70
     0
  0
APPID
  2
ACAD_MLEADERVER
 70
     0
  0
APPID
  2
ACAD_DSTYLE_DIMJAG
 70
     0
  0
APPID
  2
ACAD_DSTYLE_DIMTALN
 70
     0
  0
APPID
  2
ACAD_NAV_VCDISPLAY
 70
     0
  0
APPID
  2
ACAECLAYERSTANDARD
 70
     0
  0
APPID
  2
ACCMTRANSPARENCY
 70
     0
  0
APPID
  2
ACAD_DSTYLE_DIMRADIAL_EXTENSION
 70
     0
  0
APPID
  2
ACAD_PSEXT
 70
     0
  0
ENDTAB
  0
TABLE
  2
DIMSTYLE
 70
     1
  0
DIMSTYLE
  2
STANDARD
 70
     0
  3

  4

  5

  6

  7

 40
1.0
 41
0.18
 42
0.0625
 43
0.38
 44
0.18
 45
0.0
 46
0.0
 47
0.0
 48
0.0
140
0.18
141
0.09
142
0.0
143
25.399999999999999
144
1.0
145
0.0
146
1.0
147
0.09
 71
     0
 72
     0
 73
     1
 74
     1
 75
     0
 76
     0
 77
     0
 78
     0
170
     0
171
     2
172
     0
173
     0
174
     0
175
     0
176
     0
177
     0
178
     0
  0
ENDTAB
  0
ENDSEC
  0
SECTION
  2
BLOCKS
  0
BLOCK
  8
0
  2
$MODEL_SPACE
 70
     0
 10
0.0
 20
0.0
 30
0.0
  3
$MODEL_SPACE
  1

  0
ENDBLK
  5
126
  8
0
  0
BLOCK
 67
     1
  8
0
  2
$PAPER_SPACE
 70
     0
 10
0.0
 20
0.0
 30
0.0
  3
$PAPER_SPACE
  1

  0
ENDBLK
  5
124
 67
     1
  8
0
  0
ENDSEC
  0
SECTION
  2
ENTITIES
  0
TEXT
  5
ADB6
  8
0
 62
     3
 10
0.0
 20
0.0
 30
0.0
 40
10.0
  1
QCASP25-03-SUS
  7
STANDARD1
  0
CIRCLE
  5
BBE3
  8
0
 10
52.500000186264508
 20
101.0000003799796
 30
0.0
 40
0.9999999999999965
  0
CIRCLE
  5
BBE4
  8
3
 10
52.500000186264508
 20
101.0000003799796
 30
0.0
 40
0.799999999999841
  0
CIRCLE
  5
BBE6
  8
0
 10
52.500000186264508
 20
90.500000379979596
 30
0.0
 40
12.199999999999999
  0
CIRCLE
  5
BBEA
  8
0
 10
52.500000186264508
 20
90.500000379979596
 30
0.0
 40
12.5
  0
CIRCLE
  5
BBEB
  8
0
 10
52.500000186264508
 20
90.500000379979596
 30
0.0
 40
7.0000000000000071
  0
LINE
  5
BBF0
  8
0
 10
54.50000028125941
 20
40.199999994947561
 30
0.0
 11
53.500000233761959
 21
41.200000056996927
 31
0.0
  0
LINE
  5
BBF1
  8
0
 10
51.500000138767057
 20
41.200000056996927
 30
0.0
 11
50.500000091269612
 21
40.199999994947561
 31
0.0
  0
LINE
  5
BBF2
  8
0
 10
54.50000028125941
 20
39.999999999999993
 30
0.0
 11
54.50000028125941
 21
40.199999994947561
 31
0.0
  0
LINE
  5
BBF3
  8
0
 10
50.500000091269612
 20
40.199999994947561
 30
0.0
 11
50.500000091269612
 21
39.999999999999993
 31
0.0
  0
LINE
  5
BBF4
  8
0
 10
53.500000233761959
 20
41.200000056996927
 30
0.0
 11
53.500000233761959
 21
43.000000026077018
 31
0.0
  0
LINE
  5
BBF5
  8
0
 10
53.500000233761959
 20
46.00000005215405
 30
0.0
 11
53.500000233761959
 21
47.500000379979589
 31
0.0
  0
LINE
  5
BBF6
  8
0
 10
51.500000138767057
 20
47.500000379979589
 30
0.0
 11
51.500000138767057
 21
46.00000005215405
 31
0.0
  0
LINE
  5
BBF7
  8
0
 10
51.500000138767057
 20
43.000000026077018
 30
0.0
 11
51.500000138767057
 21
41.200000056996927
 31
0.0
  0
LINE
  5
BC08
  8
0
 10
65.000000372529016
 20
43.299999982118592
 30
0.0
 11
65.000000372529016
 21
45.700000096112483
 31
0.0
  0
LINE
  5
BC09
  8
0
 10
64.699999950826154
 20
43.000000026077018
 30
0.0
 11
65.000000372529016
 21
43.299999982118592
 31
0.0
  0
LINE
  5
BC0A
  8
0
 10
65.000000372529016
 20
45.700000096112483
 30
0.0
 11
64.699999950826154
 21
46.00000005215405
 31
0.0
  0
LINE
  5
BC0B
  8
0
 10
53.500000233761959
 20
41.200000056996927
 30
0.0
 11
51.500000138767057
 21
41.200000056996927
 31
0.0
  0
LINE
  5
BC0C
  8
0
 10
54.50000028125941
 20
40.199999994947561
 30
0.0
 11
50.500000091269612
 21
40.199999994947561
 31
0.0
  0
LINE
  5
BC0D
  8
0
 10
54.50000028125941
 20
39.999999999999993
 30
0.0
 11
50.500000091269612
 21
39.999999999999993
 31
0.0
  0
LINE
  5
BC0E
  8
0
 10
53.000000233761952
 20
48.000000379979603
 30
0.0
 11
52.000000138767057
 21
48.000000379979603
 31
0.0
  0
LINE
  5
BC22
  8
0
 10
65.000000372529016
 20
45.700000096112483
 30
0.0
 11
40.000000000000021
 21
45.700000096112483
 31
0.0
  0
LINE
  5
BC23
  8
0
 10
40.0
 20
45.700000096112497
 30
0.0
 11
40.0
 21
43.299999982118621
 31
0.0
  0
LINE
  5
BC24
  8
0
 10
40.000000000000021
 20
43.299999982118592
 30
0.0
 11
65.000000372529016
 21
43.299999982118592
 31
0.0
  0
LINE
  5
BC26
  8
0
 10
40.0
 20
43.299999982118621
 30
0.0
 11
40.300000421702848
 21
43.000000026077039
 31
0.0
  0
LINE
  5
BC27
  8
0
 10
64.699999950826154
 20
43.000000026077018
 30
0.0
 11
40.300000421702883
 21
43.000000026077018
 31
0.0
  0
LINE
  5
BC29
  8
0
 10
40.300000421702819
 20
46.00000005215405
 30
0.0
 11
64.699999950826154
 21
46.00000005215405
 31
0.0
  0
LINE
  5
BC2A
  8
0
 10
40.300000421702848
 20
46.000000052154078
 30
0.0
 11
40.0
 21
45.700000096112497
 31
0.0
  0
LINE
  5
BC32
  8
2
 10
45.499999970197699
 20
43.000000026077018
 30
0.0
 11
45.499999970197642
 21
46.00000005215405
 31
0.0
  0
LINE
  5
BCF2
  8
2
 10
59.50000040233131
 20
43.000000026077018
 30
0.0
 11
59.500000402331374
 21
46.00000005215405
 31
0.0
  0
LINE
  5
C5B9
  8
0
 10
51.500000488013022
 20
41.546410300778831
 30
0.0
 11
53.500000815838568
 21
41.546410300778831
 31
0.0
  0
LINE
  5
C5BA
  8
3
 10
51.700000186264489
 20
41.546410300778831
 30
0.0
 11
51.700000186264489
 21
43.000000026077018
 31
0.0
  0
LINE
  5
C5BB
  8
3
 10
53.300000186264349
 20
41.546410300778831
 30
0.0
 11
53.300000186264377
 21
43.000000026077018
 31
0.0
  0
LINE
  5
C5BC
  8
3
 10
53.500000815838568
 20
41.19999904881066
 30
0.0
 11
53.300000186264349
 21
41.546410300778831
 31
0.0
  0
LINE
  5
C5BD
  8
3
 10
51.499999556690447
 20
41.19999904881066
 30
0.0
 11
51.700000186264553
 21
41.546410300778831
 31
0.0
  0
LINE
  5
C5BE
  8
3
 10
53.300000186264349
 20
46.00000005215405
 30
0.0
 11
53.300000186264349
 21
47.7000004274772
 31
0.0
  0
LINE
  5
C5BF
  8
3
 10
51.700000186264489
 20
46.00000005215405
 30
0.0
 11
51.700000186264532
 21
47.70000042747705
 31
0.0
  0
LINE
  5
C5EB
  8
0
 10
53.500000233761959
 20
47.500000379979589
 30
0.0
 11
53.000000233761952
 21
48.000000379979603
 31
0.0
  0
LINE
  5
C5EC
  8
0
 10
52.000000138767057
 20
48.000000379979603
 30
0.0
 11
51.500000138767057
 21
47.500000379979589
 31
0.0
  0
LINE
  5
C5FF
  8
0
 10
51.500000138767057
 20
47.500000379979589
 30
0.0
 11
53.500000233761959
 21
47.500000379979589
 31
0.0
  0
LINE
  5
C600
  8
1
 10
52.500000186264508
 20
38.499999999999993
 30
0.0
 11
52.500000186264508
 21
49.500000379979589
 31
0.0
  0
LINE
  5
C60A
  8
1
 10
68.000000186264515
 20
90.500000379979596
 30
0.0
 11
37.000000186264508
 21
90.500000379979596
 31
0.0
  0
LINE
  5
C60B
  8
1
 10
52.500000186264508
 20
75.000000379979596
 30
0.0
 11
52.500000186264508
 21
106.0000003799796
 31
0.0
  0
LINE
  5
C60E
  8
0
 10
63.593267020996009
 20
40.199999994947561
 30
0.0
 11
62.593266973498558
 21
41.200000056996927
 31
0.0
  0
LINE
  5
C60F
  8
0
 10
60.593266878503663
 20
41.200000056996927
 30
0.0
 11
59.593266831006211
 21
40.199999994947561
 31
0.0
  0
LINE
  5
C610
  8
0
 10
63.593267020996009
 20
39.999999999999993
 30
0.0
 11
63.593267020996009
 21
40.199999994947561
 31
0.0
  0
LINE
  5
C611
  8
0
 10
59.593266831006211
 20
40.199999994947561
 30
0.0
 11
59.593266831006211
 21
39.999999999999993
 31
0.0
  0
LINE
  5
C612
  8
0
 10
62.593266973498558
 20
41.200000056996927
 30
0.0
 11
62.593266973498558
 21
43.000000026077018
 31
0.0
  0
LINE
  5
C613
  8
0
 10
62.593266973498558
 20
46.00000005215405
 30
0.0
 11
62.593266973498558
 21
47.500000379979589
 31
0.0
  0
LINE
  5
C614
  8
0
 10
60.593266878503663
 20
47.500000379979589
 30
0.0
 11
60.593266878503663
 21
46.00000005215405
 31
0.0
  0
LINE
  5
C615
  8
0
 10
61.093266878503663
 20
48.000000379979603
 30
0.0
 11
60.593266878503663
 21
47.500000379979589
 31
0.0
  0
LINE
  5
C616
  8
0
 10
60.593266878503663
 20
43.000000026077018
 30
0.0
 11
60.593266878503663
 21
41.200000056996927
 31
0.0
  0
LINE
  5
C617
  8
0
 10
62.593266973498558
 20
41.200000056996927
 30
0.0
 11
60.593266878503663
 21
41.200000056996927
 31
0.0
  0
LINE
  5
C618
  8
0
 10
63.593267020996009
 20
40.199999994947561
 30
0.0
 11
59.593266831006211
 21
40.199999994947561
 31
0.0
  0
LINE
  5
C619
  8
0
 10
63.593267020996009
 20
39.999999999999993
 30
0.0
 11
59.593266831006211
 21
39.999999999999993
 31
0.0
  0
LINE
  5
C61A
  8
0
 10
62.093266973498558
 20
48.000000379979603
 30
0.0
 11
61.093266878503663
 21
48.000000379979603
 31
0.0
  0
LINE
  5
C61B
  8
0
 10
62.593266973498558
 20
47.500000379979589
 30
0.0
 11
62.093266973498558
 21
48.000000379979603
 31
0.0
  0
LINE
  5
C61C
  8
0
 10
60.593267227749621
 20
41.546410300778831
 30
0.0
 11
62.593267555575167
 21
41.546410300778831
 31
0.0
  0
LINE
  5
C61D
  8
3
 10
60.793266926001102
 20
41.546410300778831
 30
0.0
 11
60.793266926001102
 21
43.000000026077018
 31
0.0
  0
LINE
  5
C61E
  8
3
 10
60.793266926001102
 20
46.00000005215405
 30
0.0
 11
60.793266926001131
 21
47.70000042747705
 31
0.0
  0
LINE
  5
C61F
  8
3
 10
62.393266926000948
 20
41.546410300778831
 30
0.0
 11
62.393266926000983
 21
43.000000026077018
 31
0.0
  0
LINE
  5
C620
  8
3
 10
62.393266926000948
 20
46.00000005215405
 30
0.0
 11
62.393266926000948
 21
47.7000004274772
 31
0.0
  0
LINE
  5
C621
  8
3
 10
62.593267555575167
 20
41.19999904881066
 30
0.0
 11
62.393266926000948
 21
41.546410300778831
 31
0.0
  0
LINE
  5
C622
  8
3
 10
60.593266296427053
 20
41.19999904881066
 30
0.0
 11
60.793266926001152
 21
41.546410300778831
 31
0.0
  0
LINE
  5
C623
  8
0
 10
60.593266878503663
 20
47.500000379979589
 30
0.0
 11
62.593266973498558
 21
47.500000379979589
 31
0.0
  0
LINE
  5
C624
  8
1
 10
61.593266926001107
 20
38.499999999999993
 30
0.0
 11
61.593266926001107
 21
49.500000379979589
 31
0.0
  0
LINE
  5
C625
  8
0
 10
45.406733541522833
 20
40.199999994947561
 30
0.0
 11
44.406733494025382
 21
41.200000056996927
 31
0.0
  0
LINE
  5
C626
  8
0
 10
42.406733399030479
 20
41.200000056996927
 30
0.0
 11
41.40673335153302
 21
40.199999994947561
 31
0.0
  0
LINE
  5
C627
  8
0
 10
45.406733541522833
 20
39.999999999999993
 30
0.0
 11
45.406733541522833
 21
40.199999994947561
 31
0.0
  0
LINE
  5
C628
  8
0
 10
41.40673335153302
 20
40.199999994947561
 30
0.0
 11
41.40673335153302
 21
39.999999999999993
 31
0.0
  0
LINE
  5
C629
  8
0
 10
44.406733494025382
 20
41.200000056996927
 30
0.0
 11
44.406733494025382
 21
43.000000026077018
 31
0.0
  0
LINE
  5
C62A
  8
0
 10
44.406733494025382
 20
46.00000005215405
 30
0.0
 11
44.406733494025382
 21
47.500000379979589
 31
0.0
  0
LINE
  5
C62B
  8
0
 10
42.406733399030479
 20
47.500000379979589
 30
0.0
 11
42.406733399030479
 21
46.00000005215405
 31
0.0
  0
LINE
  5
C62C
  8
0
 10
42.906733399030472
 20
48.000000379979603
 30
0.0
 11
42.406733399030479
 21
47.500000379979589
 31
0.0
  0
LINE
  5
C62D
  8
0
 10
42.406733399030479
 20
43.000000026077018
 30
0.0
 11
42.406733399030479
 21
41.200000056996927
 31
0.0
  0
LINE
  5
C62E
  8
0
 10
44.406733494025382
 20
41.200000056996927
 30
0.0
 11
42.406733399030479
 21
41.200000056996927
 31
0.0
  0
LINE
  5
C62F
  8
0
 10
45.406733541522833
 20
40.199999994947561
 30
0.0
 11
41.40673335153302
 21
40.199999994947561
 31
0.0
  0
LINE
  5
C630
  8
0
 10
45.406733541522833
 20
39.999999999999993
 30
0.0
 11
41.40673335153302
 21
39.999999999999993
 31
0.0
  0
LINE
  5
C631
  8
0
 10
43.906733494025382
 20
48.000000379979603
 30
0.0
 11
42.906733399030472
 21
48.000000379979603
 31
0.0
  0
LINE
  5
C632
  8
0
 10
44.406733494025382
 20
47.500000379979589
 30
0.0
 11
43.906733494025382
 21
48.000000379979603
 31
0.0
  0
LINE
  5
C633
  8
0
 10
42.406733748276437
 20
41.546410300778831
 30
0.0
 11
44.406734076101991
 21
41.546410300778831
 31
0.0
  0
LINE
  5
C634
  8
3
 10
42.606733446527919
 20
41.546410300778831
 30
0.0
 11
42.606733446527919
 21
43.000000026077018
 31
0.0
  0
LINE
  5
C635
  8
3
 10
42.606733446527919
 20
46.00000005215405
 30
0.0
 11
42.60673344652794
 21
47.70000042747705
 31
0.0
  0
LINE
  5
C636
  8
3
 10
44.206733446527771
 20
41.546410300778831
 30
0.0
 11
44.206733446527792
 21
43.000000026077018
 31
0.0
  0
LINE
  5
C637
  8
3
 10
44.206733446527771
 20
46.00000005215405
 30
0.0
 11
44.206733446527771
 21
47.7000004274772
 31
0.0
  0
LINE
  5
C638
  8
3
 10
44.406734076101991
 20
41.19999904881066
 30
0.0
 11
44.206733446527771
 21
41.546410300778831
 31
0.0
  0
LINE
  5
C639
  8
3
 10
42.40673281695387
 20
41.19999904881066
 30
0.0
 11
42.606733446527969
 21
41.546410300778831
 31
0.0
  0
LINE
  5
C63A
  8
0
 10
42.406733399030479
 20
47.500000379979589
 30
0.0
 11
44.406733494025382
 21
47.500000379979589
 31
0.0
  0
LINE
  5
C63B
  8
1
 10
43.40673344652793
 20
38.499999999999993
 30
0.0
 11
43.40673344652793
 21
49.500000379979589
 31
0.0
  0
LINE
  5
C642
  8
1
 10
59.298299605972339
 20
86.575000379979599
 30
0.0
 11
63.888234246029889
 21
83.92500037997965
 31
0.0
  0
LINE
  5
C643
  8
1
 10
41.11176612649907
 20
83.925000379979735
 30
0.0
 11
45.70170076655662
 21
86.575000379979656
 31
0.0
  0
CIRCLE
  5
C644
  8
1
 10
52.500000186264508
 20
90.500000379979596
 30
0.0
 40
10.5
  0
CIRCLE
  5
C645
  8
0
 10
61.593266926001107
 20
85.250000379979625
 30
0.0
 40
0.9999999999999965
  0
CIRCLE
  5
C646
  8
3
 10
61.593266926001107
 20
85.250000379979653
 30
0.0
 40
0.799999999999841
  0
CIRCLE
  5
C647
  8
0
 10
43.406733446527838
 20
85.250000379979696
 30
0.0
 40
0.9999999999999965
  0
CIRCLE
  5
C648
  8
3
 10
43.406733446527838
 20
85.250000379979724
 30
0.0
 40
0.799999999999841
  0
CIRCLE
  5
C657
  8
0
 10
52.500000186264508
 20
101.0000003799796
 30
0.0
 40
1.149999999999999
  0
CIRCLE
  5
C658
  8
0
 10
61.593266926001107
 20
85.250000379979625
 30
0.0
 40
1.149999999999999
  0
CIRCLE
  5
C659
  8
0
 10
43.406733446527838
 20
85.250000379979696
 30
0.0
 40
1.149999999999999
  0
ENDSEC
  0
EOF
