  0
SECTION
  2
HEADER
  9
$ACADVER
  1
AC1009
  9
$INSBASE
 10
0.0
 20
0.0
 30
0.0
  9
$EXTMIN
 10
0.0
 20
-94.594764855300497
 30
0.0
  9
$EXTMAX
 10
355.0
 20
90.310474683544214
 30
0.0
  9
$LIMMIN
 10
0.0
 20
0.0
  9
$LIMMAX
 10
375.0
 20
270.0
  9
$ORTHOMODE
 70
     1
  9
$REGENMODE
 70
     1
  9
$FILLMODE
 70
     1
  9
$QTEXTMODE
 70
     0
  9
$MIRRTEXT
 70
     0
  9
$DRAGMODE
 70
     2
  9
$LTSCALE
 40
5.0
  9
$OSMODE
 70
    37
  9
$ATTMODE
 70
     1
  9
$TEXTSIZE
 40
6.0
  9
$TRACEWID
 40
0.05
  9
$TEXTSTYLE
  7
STANDARD
  9
$CLAYER
  8
0
  9
$CELTYPE
  6
BYLAYER
  9
$CECOLOR
 62
   256
  9
$DIMSCALE
 40
1.0
  9
$DIMASZ
 40
3.0
  9
$DIMEXO
 40
2.0
  9
$DIMDLI
 40
0.3799999999999999
  9
$DIMRND
 40
0.0
  9
$DIMDLE
 40
0.0
  9
$DIMEXE
 40
2.0
  9
$DIMTP
 40
0.0
  9
$DIMTM
 40
0.0
  9
$DIMTXT
 40
3.2000000000000002
  9
$DIMCEN
 40
0.09
  9
$DIMTSZ
 40
0.0
  9
$DIMTOL
 70
     0
  9
$DIMLIM
 70
     0
  9
$DIMTIH
 70
     0
  9
$DIMTOH
 70
     0
  9
$DIMSE1
 70
     0
  9
$DIMSE2
 70
     0
  9
$DIMTAD
 70
     1
  9
$DIMZIN
 70
     0
  9
$DIMBLK
  1

  9
$DIMASO
 70
     0
  9
$DIMSHO
 70
     0
  9
$DIMPOST
  1

  9
$DIMAPOST
  1

  9
$DIMALT
 70
     0
  9
$DIMALTD
 70
     2
  9
$DIMALTF
 40
25.399999999999999
  9
$DIMLFAC
 40
1.0
  9
$DIMTOFL
 70
     0
  9
$DIMTVP
 40
0.0
  9
$DIMTIX
 70
     0
  9
$DIMSOXD
 70
     0
  9
$DIMSAH
 70
     0
  9
$DIMBLK1
  1

  9
$DIMBLK2
  1

  9
$DIMSTYLE
  2
STANDARD
  9
$DIMCLRD
 70
     0
  9
$DIMCLRE
 70
     0
  9
$DIMCLRT
 70
     0
  9
$DIMTFAC
 40
1.0
  9
$DIMGAP
 40
0.09
  9
$LUNITS
 70
     2
  9
$LUPREC
 70
     4
  9
$SKETCHINC
 40
0.1
  9
$FILLETRAD
 40
20.0
  9
$AUNITS
 70
     0
  9
$AUPREC
 70
     0
  9
$MENU
  1
E:\r13\win\SUPPORT\ACAD
  9
$ELEVATION
 40
0.0
  9
$PELEVATION
 40
0.0
  9
$THICKNESS
 40
0.0
  9
$LIMCHECK
 70
     0
  9
$BLIPMODE
 70
     0
  9
$CHAMFERA
 40
0.0
  9
$CHAMFERB
 40
0.0
  9
$SKPOLY
 70
     0
  9
$TDCREATE
 40
2449840.6320370371
  9
$TDUPDATE
 40
2456610.694766215
  9
$TDINDWG
 40
0.5392818866
  9
$TDUSRTIMER
 40
0.5392818866
  9
$USRTIMER
 70
     1
  9
$ANGBASE
 50
0.0
  9
$ANGDIR
 70
     0
  9
$PDMODE
 70
     0
  9
$PDSIZE
 40
0.0
  9
$PLINEWID
 40
0.0
  9
$COORDS
 70
     1
  9
$SPLFRAME
 70
     0
  9
$SPLINETYPE
 70
     6
  9
$SPLINESEGS
 70
     8
  9
$ATTDIA
 70
     0
  9
$ATTREQ
 70
     1
  9
$HANDLING
 70
     1
  9
$HANDSEED
  5
AFA9
  9
$SURFTAB1
 70
     6
  9
$SURFTAB2
 70
     6
  9
$SURFTYPE
 70
     6
  9
$SURFU
 70
     6
  9
$SURFV
 70
     6
  9
$UCSNAME
  2

  9
$UCSORG
 10
0.0
 20
0.0
 30
0.0
  9
$UCSXDIR
 10
1.0
 20
0.0
 30
0.0
  9
$UCSYDIR
 10
0.0
 20
1.0
 30
0.0
  9
$PUCSNAME
  2

  9
$PUCSORG
 10
0.0
 20
0.0
 30
0.0
  9
$PUCSXDIR
 10
1.0
 20
0.0
 30
0.0
  9
$PUCSYDIR
 10
0.0
 20
1.0
 30
0.0
  9
$USERI1
 70
     0
  9
$USERI2
 70
     1
  9
$USERI3
 70
     0
  9
$USERI4
 70
     0
  9
$USERI5
 70
     0
  9
$USERR1
 40
0.0
  9
$USERR2
 40
0.0
  9
$USERR3
 40
0.0
  9
$USERR4
 40
0.0
  9
$USERR5
 40
0.0
  9
$WORLDVIEW
 70
     1
  9
$SHADEDGE
 70
     3
  9
$SHADEDIF
 70
    70
  9
$TILEMODE
 70
     1
  9
$MAXACTVP
 70
    16
  9
$PLIMCHECK
 70
     0
  9
$PEXTMIN
 10
1.0000000000000000E+020
 20
1.0000000000000000E+020
 30
1.0000000000000000E+020
  9
$PEXTMAX
 10
-1.0000000000000000E+020
 20
-1.0000000000000000E+020
 30
-1.0000000000000000E+020
  9
$PLIMMIN
 10
0.0
 20
0.0
  9
$PLIMMAX
 10
12.0
 20
9.0
  9
$UNITMODE
 70
     0
  9
$VISRETAIN
 70
     0
  9
$PLINEGEN
 70
     0
  9
$PSLTSCALE
 70
     0
  0
ENDSEC
  0
SECTION
  2
TABLES
  0
TABLE
  2
VPORT
 70
     1
  0
VPORT
  2
*ACTIVE
 70
     0
 10
0.0
 20
0.0
 11
1.0
 21
1.0
 12
157.09484883772299
 22
90.0
 13
0.0
 23
0.0
 14
10.0
 24
10.0
 15
10.0
 25
10.0
 16
0.0
 26
0.0
 36
1.0
 17
0.0
 27
0.0
 37
0.0
 40
180.00979099981171
 41
1.7454798331015291
 42
50.0
 43
0.0
 44
0.0
 50
0.0
 51
0.0
 71
     0
 72
   500
 73
     1
 74
     0
 75
     0
 76
     0
 77
     0
 78
     0
  0
ENDTAB
  0
TABLE
  2
LTYPE
 70
     4
  0
LTYPE
  2
CONTINUOUS
 70
     0
  3
Solid Line
 72
    65
 73
     0
 40
0.0
  0
LTYPE
  2
CENTER
 70
     0
  3
____ _ ____ _ ____ _ ____ _ ____ _ ____ _ ____
 72
    65
 73
     4
 40
2.0
 49
1.25
 49
-0.25
 49
0.25
 49
-0.25
  0
LTYPE
  2
PHANTOM2
 70
     0
  3
___ _ _ ___ _ _ ___ _ _ ___ _ _
 72
    65
 73
     6
 40
1.25
 49
0.625
 49
-0.125
 49
0.125
 49
-0.125
 49
0.125
 49
-0.125
  0
LTYPE
  2
PHANTOM
 70
     0
  3
_____ _ _ _____ _ _ _____ _ _ _____ _ _ ____
 72
    65
 73
     6
 40
2.5
 49
1.25
 49
-0.25
 49
0.25
 49
-0.25
 49
0.25
 49
-0.25
  0
ENDTAB
  0
TABLE
  2
LAYER
 70
     5
  0
LAYER
  2
0
 70
     0
 62
     7
  6
CONTINUOUS
  0
LAYER
  2
1
 70
     0
 62
     1
  6
CENTER
  0
LAYER
  2
3
 70
     0
 62
     3
  6
CONTINUOUS
  0
LAYER
  2
DEFPOINTS
 70
     0
 62
     7
  6
CONTINUOUS
  0
LAYER
  2
5
 70
     0
 62
     3
  6
PHANTOM
  0
ENDTAB
  0
TABLE
  2
STYLE
 70
     2
  0
STYLE
  2
STANDARD
 70
     0
 40
0.0
 41
1.0
 50
0.0
 71
     0
 42
6.0
  3
TXT
  4
BIGFONT
  0
STYLE
  2
STANDARD1
 70
     0
 40
0.0
 41
1.0
 50
0.0
 71
     0
 42
3.0
  3
txt
  4

  0
ENDTAB
  0
TABLE
  2
VIEW
 70
     1
  0
VIEW
  2
ALL
 70
     0
 40
270.0
 10
213.25689075630251
 20
135.0
 41
0.0
 11
0.0
 21
0.0
 31
1.0
 12
0.0
 22
0.0
 32
0.0
 42
0.0
 43
0.0
 44
0.0
 50
0.0
 71
     0
  0
ENDTAB
  0
TABLE
  2
UCS
 70
     0
  0
ENDTAB
  0
TABLE
  2
APPID
 70
     8
  0
APPID
  2
ACAD
 70
     0
  0
APPID
  2
ACAD_EXEMPT_FROM_CAD_STANDARDS
 70
     0
  0
APPID
  2
ACAD_MLEADERVER
 70
     0
  0
APPID
  2
ACAD_DSTYLE_DIMJAG
 70
     0
  0
APPID
  2
ACAD_DSTYLE_DIMTALN
 70
     0
  0
APPID
  2
ACAD_NAV_VCDISPLAY
 70
     0
  0
APPID
  2
ACADANNOTATIVE
 70
     0
  0
APPID
  2
ACAD_PSEXT
 70
     0
  0
ENDTAB
  0
TABLE
  2
DIMSTYLE
 70
     1
  0
DIMSTYLE
  2
STANDARD
 70
     0
  3

  4

  5

  6

  7

 40
1.0
 41
0.18
 42
0.0625
 43
0.38
 44
0.18
 45
0.0
 46
0.0
 47
0.0
 48
0.0
140
0.18
141
0.09
142
0.0
143
25.399999999999999
144
1.0
145
0.0
146
1.0
147
0.09
 71
     0
 72
     0
 73
     1
 74
     1
 75
     0
 76
     0
 77
     0
 78
     0
170
     0
171
     2
172
     0
173
     0
174
     0
175
     0
176
     0
177
     0
178
     0
  0
ENDTAB
  0
ENDSEC
  0
SECTION
  2
BLOCKS
  0
BLOCK
  8
0
  2
$MODEL_SPACE
 70
     0
 10
0.0
 20
0.0
 30
0.0
  3
$MODEL_SPACE
  1

  0
ENDBLK
  5
126
  8
0
  0
BLOCK
 67
     1
  8
0
  2
$PAPER_SPACE
 70
     0
 10
0.0
 20
0.0
 30
0.0
  3
$PAPER_SPACE
  1

  0
ENDBLK
  5
124
 67
     1
  8
0
  0
ENDSEC
  0
SECTION
  2
ENTITIES
  0
ARC
  5
9B96
  8
0
 10
116.99999999999361
 20
51.41421356237305
 30
0.0
 40
1.0
 50
180.0
 51
225.00000000000011
  0
ARC
  5
9B97
  8
0
 10
122.99999999999361
 20
51.41421356237305
 30
0.0
 40
1.0
 50
314.99999999999989
 51
0.0
  0
LINE
  5
9B98
  8
0
 10
123.99999999999361
 20
60.0
 30
0.0
 11
123.99999999999361
 21
62.800000000000011
 31
0.0
  0
LINE
  5
9B99
  8
0
 10
123.99999999999361
 20
51.41421356237305
 30
0.0
 11
123.99999999999361
 21
56.0
 31
0.0
  0
LINE
  5
9B9A
  8
0
 10
115.99999999999361
 20
56.0
 30
0.0
 11
115.99999999999361
 21
51.41421356237305
 31
0.0
  0
LINE
  5
9B9B
  8
0
 10
115.99999999999361
 20
62.800000000000011
 30
0.0
 11
115.99999999999361
 21
60.0
 31
0.0
  0
LINE
  5
9B9C
  8
0
 10
123.99999999999361
 20
62.800000000000011
 30
0.0
 11
123.7999999999936
 21
63.0
 31
0.0
  0
LINE
  5
9B9D
  8
0
 10
116.19999999999369
 20
63.0
 30
0.0
 11
115.99999999999361
 21
62.800000000000011
 31
0.0
  0
LINE
  5
9B9E
  8
0
 10
116.29289321880709
 20
50.707106781186553
 30
0.0
 11
118.10710678118009
 21
48.892893218813413
 31
0.0
  0
LINE
  5
9B9F
  8
0
 10
121.8928932188071
 20
48.892893218813413
 30
0.0
 11
123.7071067811802
 21
50.707106781186553
 31
0.0
  0
LINE
  5
9BA0
  8
0
 10
122.49999999999361
 20
64.300000000000011
 30
0.0
 11
122.49999999999361
 21
67.199999999999974
 31
0.0
  0
LINE
  5
9BA1
  8
0
 10
117.49999999999361
 20
67.199999999999974
 30
0.0
 11
117.49999999999361
 21
64.300000000000011
 31
0.0
  0
LINE
  5
9BA2
  8
0
 10
122.49999999999361
 20
67.199999999999974
 30
0.0
 11
121.69999999999369
 21
68.0
 31
0.0
  0
LINE
  5
9BA3
  8
0
 10
118.2999999999936
 20
68.0
 30
0.0
 11
117.49999999999361
 21
67.199999999999974
 31
0.0
  0
LINE
  5
9BA4
  8
0
 10
122.3499999999936
 20
42.0
 30
0.0
 11
122.3499999999936
 21
44.300000000000011
 31
0.0
  0
LINE
  5
9BA5
  8
0
 10
117.6499999999936
 20
44.300000000000011
 30
0.0
 11
117.6499999999936
 21
42.0
 31
0.0
  0
LINE
  5
9BA6
  8
0
 10
117.6499999999936
 20
42.0
 30
0.0
 11
118.1384553859498
 21
40.657979856674316
 31
0.0
  0
LINE
  5
9BA7
  8
0
 10
121.8615446140375
 20
40.657979856674316
 30
0.0
 11
122.3499999999936
 21
42.0
 31
0.0
  0
LINE
  5
9BA8
  8
0
 10
122.3499999999936
 20
44.300000000000011
 30
0.0
 11
121.73397459620919
 21
45.366987298107738
 31
0.0
  0
LINE
  5
9BA9
  8
0
 10
118.266025403778
 20
45.366987298107738
 30
0.0
 11
117.6499999999936
 21
44.300000000000011
 31
0.0
  0
ARC
  5
9BAA
  8
0
 10
117.74999999999361
 20
63.89999999999997
 30
0.0
 40
0.4000000000000057
 50
0.0
 51
90.0
  0
ARC
  5
9BAB
  8
0
 10
122.24999999999361
 20
63.89999999999997
 30
0.0
 40
0.3999999999999986
 50
90.0
 51
180.0
  0
ARC
  5
9BAC
  8
0
 10
117.74999999999361
 20
63.399999999999977
 30
0.0
 40
0.4000000000000057
 50
270.0
 51
0.0
  0
ARC
  5
9BAD
  8
0
 10
122.24999999999361
 20
63.399999999999977
 30
0.0
 40
0.3999999999999915
 50
180.0
 51
270.0
  0
ARC
  5
9BAE
  8
0
 10
122.5999999999936
 20
48.185786437626859
 30
0.0
 40
1.0000000000000031
 50
134.99999999999989
 51
180.0
  0
ARC
  5
9BAF
  8
0
 10
117.3999999999936
 20
48.185786437626859
 30
0.0
 40
1.0000000000000031
 50
0.0
 51
45.000000000000099
  0
ARC
  5
9BB0
  8
0
 10
120.92185199325149
 20
41.0
 30
0.0
 40
1.0
 50
270.0
 51
339.99999999999932
  0
ARC
  5
9BB1
  8
0
 10
119.0781480067357
 20
41.0
 30
0.0
 40
1.000000000000008
 50
200.0000000000006
 51
270.0
  0
LINE
  5
9BB2
  8
0
 10
121.8499999999936
 20
63.399999999999977
 30
0.0
 11
121.8499999999936
 21
63.89999999999997
 31
0.0
  0
LINE
  5
9BB3
  8
0
 10
118.1499999999936
 20
63.89999999999997
 30
0.0
 11
118.1499999999936
 21
63.399999999999977
 31
0.0
  0
ARC
  5
9BB4
  8
0
 10
122.5999999999936
 20
45.866987298107738
 30
0.0
 40
1.000000000000008
 50
180.0
 51
210.0000000000006
  0
ARC
  5
9BB5
  8
0
 10
117.3999999999936
 20
45.866987298107738
 30
0.0
 40
1.0
 50
329.99999999999937
 51
0.0
  0
LINE
  5
9BB6
  8
0
 10
121.5999999999936
 20
45.866987298107738
 30
0.0
 11
121.5999999999936
 21
48.185786437626859
 31
0.0
  0
LINE
  5
9BB7
  8
0
 10
118.3999999999936
 20
48.185786437626859
 30
0.0
 11
118.3999999999936
 21
45.866987298107738
 31
0.0
  0
LINE
  5
9BBA
  8
0
 10
123.99999999999361
 20
60.0
 30
0.0
 11
122.99999999999361
 21
60.0
 31
0.0
  0
LINE
  5
9BBB
  8
0
 10
122.99999999999361
 20
60.0
 30
0.0
 11
122.99999999999361
 21
56.0
 31
0.0
  0
LINE
  5
9BBC
  8
0
 10
122.99999999999361
 20
56.0
 30
0.0
 11
123.99999999999361
 21
56.0
 31
0.0
  0
LINE
  5
9BBD
  8
0
 10
116.99999999999361
 20
56.0
 30
0.0
 11
116.99999999999361
 21
60.0
 31
0.0
  0
LINE
  5
9BBE
  8
0
 10
116.99999999999361
 20
60.0
 30
0.0
 11
115.99999999999361
 21
60.0
 31
0.0
  0
LINE
  5
9BBF
  8
0
 10
115.99999999999361
 20
56.0
 30
0.0
 11
116.99999999999361
 21
56.0
 31
0.0
  0
LINE
  5
9BC1
  8
0
 10
116.19999999999369
 20
63.0
 30
0.0
 11
123.7999999999937
 21
63.0
 31
0.0
  0
LINE
  5
9BC2
  8
0
 10
122.49999999999361
 20
67.199999999999974
 30
0.0
 11
117.49999999999361
 21
67.199999999999974
 31
0.0
  0
LINE
  5
9BC4
  8
0
 10
122.49999999999361
 20
64.300000000000011
 30
0.0
 11
117.49999999999361
 21
64.300000000000011
 31
0.0
  0
LINE
  5
9BC6
  8
0
 10
118.2999999999936
 20
68.0
 30
0.0
 11
121.69999999999381
 21
68.000000000000028
 31
0.0
  0
LINE
  5
9BC7
  8
0
 10
122.3499999999936
 20
42.0
 30
0.0
 11
117.6499999999936
 21
42.0
 31
0.0
  0
LINE
  5
9BC8
  8
0
 10
122.3499999999936
 20
44.300000000000011
 30
0.0
 11
117.6499999999936
 21
44.300000000000011
 31
0.0
  0
LINE
  5
9BC9
  8
0
 10
120.92185199325149
 20
40.0
 30
0.0
 11
119.0781480067357
 21
40.0
 31
0.0
  0
LINE
  5
9BCC
  8
0
 10
115.99999999999361
 20
51.41421356237305
 30
0.0
 11
123.99999999999361
 21
51.41421356237305
 31
0.0
  0
LINE
  5
9BD5
  8
0
 10
121.5999999999936
 20
48.185786437626859
 30
0.0
 11
118.3999999999936
 21
48.185786437626859
 31
0.0
  0
LINE
  5
9BD6
  8
0
 10
118.3999999999936
 20
45.866987298107738
 30
0.0
 11
121.5999999999936
 21
45.866987298107738
 31
0.0
  0
LINE
  5
9BD7
  8
3
 10
122.0669999999937
 20
67.632999999999853
 30
0.0
 11
122.0669999999937
 21
64.300000000000011
 31
0.0
  0
LINE
  5
9BD9
  8
3
 10
117.9329999999932
 20
67.632999999999612
 30
0.0
 11
117.9329999999932
 21
64.300000000000011
 31
0.0
  0
CIRCLE
  5
9BDB
  8
0
 10
119.99999999999361
 20
83.310474683544228
 30
0.0
 40
2.5
  0
CIRCLE
  5
9BDD
  8
0
 10
119.99999999999361
 20
83.310474683544228
 30
0.0
 40
4.0
  0
CIRCLE
  5
9F44
  8
3
 10
119.99999999999361
 20
83.310474683544228
 30
0.0
 40
2.0670000000002342
  0
LINE
  5
9FE9
  8
1
 10
126.99999999999361
 20
83.310474683544228
 30
0.0
 11
112.99999999999351
 21
83.310474683544228
 31
0.0
  0
LINE
  5
9FEB
  8
1
 10
119.99999999999361
 20
71.0
 30
0.0
 11
119.99999999999361
 21
37.0
 31
0.0
  0
LINE
  5
A002
  8
1
 10
119.99999999999361
 20
76.310474683544228
 30
0.0
 11
119.99999999999361
 21
90.310474683544214
 31
0.0
  0
TEXT
  5
A78E
  8
0
 62
     3
 10
105.0
 20
0.0
 30
0.0
 40
3.2000000000000002
  1
■クランプピンの取付け方法(下図)
  0
TEXT
  5
A78F
  8
0
 62
     3
 10
147.76666666666659
 20
-19.59476485530055
 30
0.0
 40
3.2000000000000002
  1
6mmのプレートの場合
 72
     1
 11
167.5
 21
-19.59476485530055
 31
0.0
  0
LINE
  5
A790
  8
0
 10
174.99999999999989
 20
-34.594764855300497
 30
0.0
 11
210.0
 21
-34.594764855300497
 31
0.0
  0
LINE
  5
A791
  8
1
 10
192.49999999999989
 20
-31.5947648553005
 30
0.0
 11
192.49999999999989
 21
-43.59476485530049
 31
0.0
  0
LINE
  5
A792
  8
0
 10
174.99999999999989
 20
-40.594764855300497
 30
0.0
 11
210.0
 21
-40.594764855300497
 31
0.0
  0
LINE
  5
A793
  8
1
 10
317.49999999999989
 20
-31.5947648553005
 30
0.0
 11
317.50000000000011
 21
-49.594764855300497
 31
0.0
  0
LINE
  5
A794
  8
0
 10
300.0
 20
-46.59476485530049
 30
0.0
 11
335.0
 21
-46.59476485530049
 31
0.0
  0
LINE
  5
A795
  8
0
 10
300.0
 20
-34.594764855300497
 30
0.0
 11
335.0
 21
-34.594764855300497
 31
0.0
  0
LINE
  5
A796
  8
3
 10
189.99999999999989
 20
-40.127764855300313
 30
0.0
 11
189.99999999999989
 21
-35.061764855300758
 31
0.0
  0
LINE
  5
A797
  8
0
 10
190.43299999999971
 20
-39.694764855300491
 30
0.0
 11
190.43299999999971
 21
-35.494764855300531
 31
0.0
  0
LINE
  5
A798
  8
0
 10
194.56700000000009
 20
-39.694764855300491
 30
0.0
 11
194.56700000000009
 21
-35.494764855300588
 31
0.0
  0
LINE
  5
A799
  8
3
 10
194.99999999999989
 20
-40.127764855300313
 30
0.0
 11
194.99999999999989
 21
-35.061764855300758
 31
0.0
  0
LINE
  5
A79A
  8
0
 10
189.5329999999997
 20
-40.594764855300518
 30
0.0
 11
190.43299999999971
 21
-39.694764855300491
 31
0.0
  0
LINE
  5
A79B
  8
0
 10
190.43299999999971
 20
-39.694764855300491
 30
0.0
 11
194.56700000000009
 21
-39.694764855300427
 31
0.0
  0
LINE
  5
A79C
  8
0
 10
194.56700000000009
 20
-39.694764855300427
 30
0.0
 11
195.46700000000021
 21
-40.594764855300518
 31
0.0
  0
LINE
  5
A79D
  8
0
 10
189.5329999999997
 20
-34.594764855300497
 30
0.0
 11
190.43299999999971
 21
-35.494764855300531
 31
0.0
  0
LINE
  5
A79E
  8
0
 10
190.43299999999971
 20
-35.494764855300531
 30
0.0
 11
194.56700000000009
 21
-35.494764855300588
 31
0.0
  0
LINE
  5
A79F
  8
0
 10
194.56700000000009
 20
-35.494764855300588
 30
0.0
 11
195.46700000000021
 21
-34.594764855300497
 31
0.0
  0
LINE
  5
A7A0
  8
0
 10
125.0
 20
-34.594764855300561
 30
0.0
 11
160.0
 21
-34.594764855300561
 31
0.0
  0
LINE
  5
A7A1
  8
0
 10
125.0
 20
-40.594764855300546
 30
0.0
 11
160.0
 21
-40.594764855300546
 31
0.0
  0
LINE
  5
A7A2
  8
3
 10
140.0
 20
-40.12776485530037
 30
0.0
 11
140.0
 21
-39.294764855300542
 31
0.0
  0
LINE
  5
A7A3
  8
3
 10
140.0
 20
-36.394764855300572
 30
0.0
 11
140.0
 21
-35.061764855300822
 31
0.0
  0
LINE
  5
A7A4
  8
0
 10
140.43299999999979
 20
-39.694764855300548
 30
0.0
 11
140.43299999999979
 21
-39.339081006918228
 31
0.0
  0
LINE
  5
A7A5
  8
0
 10
140.43299999999979
 20
-35.96176485530075
 30
0.0
 11
140.43299999999979
 21
-35.494764855300588
 31
0.0
  0
LINE
  5
A7A6
  8
0
 10
144.56700000000021
 20
-39.694764855300548
 30
0.0
 11
144.56700000000021
 21
-39.339081006918207
 31
0.0
  0
LINE
  5
A7A7
  8
0
 10
144.56700000000021
 20
-35.9617648553008
 30
0.0
 11
144.56700000000021
 21
-35.494764855300637
 31
0.0
  0
LINE
  5
A7A8
  8
3
 10
145.0
 20
-40.12776485530037
 30
0.0
 11
145.0
 21
-39.294764855300542
 31
0.0
  0
LINE
  5
A7A9
  8
3
 10
145.0
 20
-36.394764855300572
 30
0.0
 11
145.0
 21
-35.061764855300822
 31
0.0
  0
LINE
  5
A7AA
  8
0
 10
139.53299999999979
 20
-40.594764855300582
 30
0.0
 11
140.43299999999979
 21
-39.694764855300548
 31
0.0
  0
LINE
  5
A7AB
  8
0
 10
140.43299999999979
 20
-39.694764855300548
 30
0.0
 11
140.65000000000009
 21
-39.694764855300548
 31
0.0
  0
LINE
  5
A7AC
  8
0
 10
144.35000000000011
 20
-39.694764855300491
 30
0.0
 11
144.56700000000021
 21
-39.694764855300491
 31
0.0
  0
LINE
  5
A7AD
  8
0
 10
144.56700000000021
 20
-39.694764855300491
 30
0.0
 11
145.46700000000021
 21
-40.594764855300582
 31
0.0
  0
LINE
  5
A7AE
  8
0
 10
139.53299999999979
 20
-34.594764855300561
 30
0.0
 11
140.43299999999979
 21
-35.494764855300588
 31
0.0
  0
LINE
  5
A7AF
  8
0
 10
140.43299999999979
 20
-35.494764855300588
 30
0.0
 11
144.56700000000021
 21
-35.494764855300637
 31
0.0
  0
LINE
  5
A7B0
  8
0
 10
144.56700000000021
 20
-35.494764855300637
 30
0.0
 11
145.46700000000021
 21
-34.594764855300561
 31
0.0
  0
ARC
  5
A7B1
  8
0
 10
264.49999999999989
 20
-58.18055129292744
 30
0.0
 40
1.0
 50
180.0
 51
225.00000000000011
  0
ARC
  5
A7B2
  8
0
 10
270.49999999999989
 20
-58.18055129292744
 30
0.0
 40
1.0
 50
314.99999999999989
 51
0.0
  0
LINE
  5
A7B3
  8
0
 10
271.49999999999989
 20
-58.18055129292744
 30
0.0
 11
271.49999999999989
 21
-46.794764855300478
 31
0.0
  0
LINE
  5
A7B4
  8
0
 10
263.49999999999989
 20
-46.794764855300478
 30
0.0
 11
263.49999999999989
 21
-58.18055129292744
 31
0.0
  0
LINE
  5
A7B5
  8
0
 10
271.49999999999989
 20
-46.794764855300478
 30
0.0
 11
271.30000000000001
 21
-46.59476485530049
 31
0.0
  0
LINE
  5
A7B6
  8
0
 10
263.69999999999999
 20
-46.59476485530049
 30
0.0
 11
263.49999999999989
 21
-46.794764855300478
 31
0.0
  0
LINE
  5
A7B7
  8
0
 10
263.7928932188135
 20
-58.887658074113943
 30
0.0
 11
265.60710678118642
 21
-60.701871636487077
 31
0.0
  0
LINE
  5
A7B8
  8
0
 10
269.3928932188133
 20
-60.701871636487077
 30
0.0
 11
271.20710678118661
 21
-58.887658074113943
 31
0.0
  0
LINE
  5
A7B9
  8
0
 10
269.99999999999989
 20
-45.294764855300478
 30
0.0
 11
269.99999999999989
 21
-42.394764855300501
 31
0.0
  0
LINE
  5
A7BA
  8
0
 10
264.99999999999989
 20
-42.394764855300501
 30
0.0
 11
264.99999999999989
 21
-45.294764855300478
 31
0.0
  0
LINE
  5
A7BB
  8
0
 10
269.99999999999989
 20
-42.394764855300501
 30
0.0
 11
269.19999999999987
 21
-41.59476485530049
 31
0.0
  0
LINE
  5
A7BC
  8
0
 10
265.7999999999999
 20
-41.59476485530049
 30
0.0
 11
264.99999999999989
 21
-42.394764855300501
 31
0.0
  0
LINE
  5
A7BD
  8
0
 10
265.14999999999998
 20
-67.594764855300497
 30
0.0
 11
265.63845538595609
 21
-68.936784998626166
 31
0.0
  0
LINE
  5
A7BE
  8
0
 10
269.36154461404368
 20
-68.936784998626166
 30
0.0
 11
269.85000000000002
 21
-67.594764855300497
 31
0.0
  0
LINE
  5
A7BF
  8
0
 10
269.85000000000002
 20
-67.594764855300497
 30
0.0
 11
269.85000000000002
 21
-65.294764855300485
 31
0.0
  0
LINE
  5
A7C0
  8
0
 10
265.14999999999998
 20
-65.294764855300485
 30
0.0
 11
265.14999999999998
 21
-67.594764855300497
 31
0.0
  0
LINE
  5
A7C1
  8
0
 10
269.85000000000002
 20
-65.294764855300485
 30
0.0
 11
269.23397459621549
 21
-64.227777557192752
 31
0.0
  0
LINE
  5
A7C2
  8
0
 10
265.7660254037844
 20
-64.227777557192752
 30
0.0
 11
265.14999999999998
 21
-65.294764855300485
 31
0.0
  0
ARC
  5
A7C3
  8
0
 10
265.24999999999989
 20
-45.694764855300519
 30
0.0
 40
0.4000000000000057
 50
0.0
 51
90.0
  0
ARC
  5
A7C4
  8
0
 10
269.74999999999989
 20
-45.694764855300519
 30
0.0
 40
0.4000000000000057
 50
90.0
 51
180.0
  0
ARC
  5
A7C5
  8
0
 10
265.24999999999989
 20
-46.194764855300519
 30
0.0
 40
0.4000000000000057
 50
270.0
 51
0.0
  0
ARC
  5
A7C6
  8
0
 10
269.74999999999989
 20
-46.194764855300519
 30
0.0
 40
0.4000000000000057
 50
180.0
 51
270.0
  0
ARC
  5
A7C7
  8
0
 10
270.10000000000002
 20
-61.408978417673637
 30
0.0
 40
1.0
 50
134.9999999999998
 51
180.0
  0
ARC
  5
A7C8
  8
0
 10
264.89999999999998
 20
-61.408978417673637
 30
0.0
 40
1.0
 50
0.0
 51
45.000000000000149
  0
ARC
  5
A7C9
  8
0
 10
268.42185199325792
 20
-68.594764855300497
 30
0.0
 40
1.000000000000008
 50
270.0
 51
339.99999999999989
  0
ARC
  5
A7CA
  8
0
 10
266.57814800674203
 20
-68.594764855300497
 30
0.0
 40
1.000000000000008
 50
200.00000000000011
 51
270.0
  0
LINE
  5
A7CB
  8
0
 10
269.35000000000002
 20
-46.194764855300519
 30
0.0
 11
269.35000000000002
 21
-45.694764855300519
 31
0.0
  0
LINE
  5
A7CC
  8
0
 10
265.64999999999998
 20
-45.694764855300519
 30
0.0
 11
265.64999999999998
 21
-46.194764855300519
 31
0.0
  0
ARC
  5
A7CD
  8
0
 10
270.10000000000002
 20
-63.727777557192752
 30
0.0
 40
1.0
 50
180.0
 51
209.9999999999998
  0
ARC
  5
A7CE
  8
0
 10
264.89999999999998
 20
-63.727777557192752
 30
0.0
 40
1.0
 50
330.00000000000011
 51
0.0
  0
LINE
  5
A7CF
  8
0
 10
269.10000000000002
 20
-63.727777557192752
 30
0.0
 11
269.10000000000002
 21
-61.408978417673637
 31
0.0
  0
LINE
  5
A7D0
  8
0
 10
265.89999999999998
 20
-61.408978417673637
 30
0.0
 11
265.89999999999998
 21
-63.727777557192752
 31
0.0
  0
LINE
  5
A7D1
  8
0
 10
270.1457513110646
 20
-53.59476485530049
 30
0.0
 11
270.1457513110646
 21
-49.594764855300497
 31
0.0
  0
LINE
  5
A7D2
  8
0
 10
270.1457513110646
 20
-49.594764855300497
 30
0.0
 11
264.8542486889354
 21
-49.594764855300497
 31
0.0
  0
LINE
  5
A7D3
  8
0
 10
264.8542486889354
 20
-49.594764855300497
 30
0.0
 11
264.8542486889354
 21
-53.59476485530049
 31
0.0
  0
LINE
  5
A7D4
  8
0
 10
264.8542486889354
 20
-53.59476485530049
 30
0.0
 11
270.1457513110646
 21
-53.59476485530049
 31
0.0
  0
LINE
  5
A7D5
  8
0
 10
269.99999999999989
 20
-42.394764855300501
 30
0.0
 11
264.99999999999989
 21
-42.394764855300501
 31
0.0
  0
LINE
  5
A7D6
  8
0
 10
269.99999999999989
 20
-45.294764855300478
 30
0.0
 11
264.99999999999989
 21
-45.294764855300478
 31
0.0
  0
LINE
  5
A7D7
  8
0
 10
265.7999999999999
 20
-41.59476485530049
 30
0.0
 11
269.19999999999987
 21
-41.59476485530049
 31
0.0
  0
LINE
  5
A7D8
  8
0
 10
269.85000000000002
 20
-67.594764855300497
 30
0.0
 11
265.14999999999998
 21
-67.594764855300497
 31
0.0
  0
LINE
  5
A7D9
  8
0
 10
269.85000000000002
 20
-65.294764855300485
 30
0.0
 11
265.14999999999998
 21
-65.294764855300485
 31
0.0
  0
LINE
  5
A7DA
  8
0
 10
268.42185199324501
 20
-69.594764855300497
 30
0.0
 11
266.57814800674203
 21
-69.594764855300497
 31
0.0
  0
LINE
  5
A7DB
  8
0
 10
263.49999999999989
 20
-58.18055129292744
 30
0.0
 11
271.49999999999989
 21
-58.18055129292744
 31
0.0
  0
LINE
  5
A7DC
  8
0
 10
269.10000000000002
 20
-61.408978417673637
 30
0.0
 11
265.89999999999998
 21
-61.408978417673637
 31
0.0
  0
LINE
  5
A7DD
  8
0
 10
265.89999999999998
 20
-63.727777557192752
 30
0.0
 11
269.10000000000002
 21
-63.727777557192752
 31
0.0
  0
LINE
  5
A7DE
  8
3
 10
269.56700000000018
 20
-41.961764855300743
 30
0.0
 11
269.56700000000012
 21
-45.294764855300478
 31
0.0
  0
LINE
  5
A7DF
  8
3
 10
265.43299999999971
 20
-41.961764855300849
 30
0.0
 11
265.43299999999971
 21
-45.294764855300478
 31
0.0
  0
LINE
  5
A7E0
  8
3
 10
264.8542486889354
 20
-49.594764855300497
 30
0.0
 11
270.1457513110646
 21
-53.59476485530049
 31
0.0
  0
LINE
  5
A7E1
  8
3
 10
264.8542486889354
 20
-53.59476485530049
 30
0.0
 11
270.1457513110646
 21
-49.594764855300497
 31
0.0
  0
LINE
  5
A7E2
  8
1
 10
267.49999999999989
 20
-72.594764855300497
 30
0.0
 11
267.49999999999989
 21
-31.5947648553005
 31
0.0
  0
ARC
  5
A7E3
  8
0
 10
139.5
 20
-52.180551292927497
 30
0.0
 40
1.0
 50
180.0
 51
225.00000000000011
  0
ARC
  5
A7E4
  8
0
 10
145.5
 20
-52.180551292927497
 30
0.0
 40
1.0
 50
314.99999999999937
 51
0.0
  0
LINE
  5
A7E5
  8
0
 10
146.49999999999989
 20
-52.180551292927497
 30
0.0
 11
146.49999999999989
 21
-40.794764855300542
 31
0.0
  0
LINE
  5
A7E6
  8
0
 10
138.5
 20
-40.794764855300542
 30
0.0
 11
138.5
 21
-52.180551292927497
 31
0.0
  0
LINE
  5
A7E7
  8
0
 10
146.49999999999989
 20
-40.794764855300542
 30
0.0
 11
146.30000000000001
 21
-40.594764855300546
 31
0.0
  0
LINE
  5
A7E8
  8
0
 10
138.69999999999999
 20
-40.594764855300546
 30
0.0
 11
138.5
 21
-40.794764855300542
 31
0.0
  0
LINE
  5
A7E9
  8
0
 10
138.7928932188135
 20
-52.887658074114
 30
0.0
 11
140.6071067811865
 21
-54.701871636487141
 31
0.0
  0
LINE
  5
A7EA
  8
0
 10
144.39289321881341
 20
-54.701871636487141
 30
0.0
 11
146.20710678118661
 21
-52.887658074114
 31
0.0
  0
LINE
  5
A7EB
  8
0
 10
145.0
 20
-39.294764855300542
 30
0.0
 11
145.0
 21
-36.394764855300572
 31
0.0
  0
LINE
  5
A7EC
  8
0
 10
139.99999999999989
 20
-36.394764855300572
 30
0.0
 11
139.99999999999989
 21
-39.294764855300542
 31
0.0
  0
LINE
  5
A7ED
  8
0
 10
145.0
 20
-36.394764855300572
 30
0.0
 11
144.19999999999999
 21
-35.594764855300546
 31
0.0
  0
LINE
  5
A7EE
  8
0
 10
140.80000000000001
 20
-35.594764855300546
 30
0.0
 11
139.99999999999989
 21
-36.394764855300572
 31
0.0
  0
LINE
  5
A7EF
  8
0
 10
140.15000000000001
 20
-61.594764855300546
 30
0.0
 11
140.63845538595621
 21
-62.936784998626223
 31
0.0
  0
LINE
  5
A7F0
  8
0
 10
144.36154461404379
 20
-62.936784998626223
 30
0.0
 11
144.85000000000011
 21
-61.594764855300546
 31
0.0
  0
LINE
  5
A7F1
  8
0
 10
144.85000000000011
 20
-61.594764855300546
 30
0.0
 11
144.85000000000011
 21
-59.294764855300542
 31
0.0
  0
LINE
  5
A7F2
  8
0
 10
140.15000000000001
 20
-59.294764855300542
 30
0.0
 11
140.15000000000001
 21
-61.594764855300546
 31
0.0
  0
LINE
  5
A7F3
  8
0
 10
144.85000000000011
 20
-59.294764855300542
 30
0.0
 11
144.2339745962156
 21
-58.227777557192809
 31
0.0
  0
LINE
  5
A7F4
  8
0
 10
140.76602540378451
 20
-58.227777557192809
 30
0.0
 11
140.15000000000001
 21
-59.294764855300542
 31
0.0
  0
ARC
  5
A7F5
  8
0
 10
140.24999999999989
 20
-39.694764855300583
 30
0.0
 40
0.4000000000000057
 50
0.0
 51
90.0
  0
ARC
  5
A7F6
  8
0
 10
144.74999999999989
 20
-39.694764855300583
 30
0.0
 40
0.4000000000000057
 50
90.0
 51
180.0
  0
ARC
  5
A7F7
  8
0
 10
140.24999999999989
 20
-40.194764855300569
 30
0.0
 40
0.4000000000000057
 50
270.0
 51
0.0
  0
ARC
  5
A7F8
  8
0
 10
144.74999999999989
 20
-40.194764855300569
 30
0.0
 40
0.4000000000000057
 50
180.0
 51
270.0
  0
ARC
  5
A7F9
  8
0
 10
145.10000000000011
 20
-55.408978417673687
 30
0.0
 40
1.0
 50
134.9999999999998
 51
180.0
  0
ARC
  5
A7FA
  8
0
 10
139.90000000000001
 20
-55.408978417673687
 30
0.0
 40
1.0
 50
0.0
 51
45.000000000000149
  0
ARC
  5
A7FB
  8
0
 10
143.42185199325789
 20
-62.594764855300546
 30
0.0
 40
1.000000000000008
 50
270.0
 51
339.99999999999989
  0
ARC
  5
A7FC
  8
0
 10
141.57814800674211
 20
-62.594764855300546
 30
0.0
 40
1.000000000000008
 50
200.0
 51
270.0
  0
LINE
  5
A7FD
  8
0
 10
144.35000000000011
 20
-40.194764855300569
 30
0.0
 11
144.35000000000011
 21
-39.694764855300583
 31
0.0
  0
LINE
  5
A7FE
  8
0
 10
140.65000000000009
 20
-39.694764855300583
 30
0.0
 11
140.65000000000009
 21
-40.194764855300569
 31
0.0
  0
ARC
  5
A7FF
  8
0
 10
145.10000000000011
 20
-57.727777557192809
 30
0.0
 40
1.0
 50
180.0
 51
209.99999999999989
  0
ARC
  5
A800
  8
0
 10
139.90000000000001
 20
-57.727777557192809
 30
0.0
 40
1.0
 50
329.99999999999801
 51
0.0
  0
LINE
  5
A801
  8
0
 10
144.10000000000011
 20
-57.727777557192809
 30
0.0
 11
144.10000000000011
 21
-55.408978417673687
 31
0.0
  0
LINE
  5
A802
  8
0
 10
140.90000000000001
 20
-55.408978417673687
 30
0.0
 11
140.90000000000001
 21
-57.727777557192809
 31
0.0
  0
LINE
  5
A803
  8
0
 10
145.14575131106471
 20
-47.594764855300546
 30
0.0
 11
145.14575131106471
 21
-43.594764855300546
 31
0.0
  0
LINE
  5
A804
  8
0
 10
145.14575131106471
 20
-43.594764855300546
 30
0.0
 11
139.85424868893551
 21
-43.594764855300546
 31
0.0
  0
LINE
  5
A805
  8
0
 10
139.85424868893551
 20
-43.594764855300546
 30
0.0
 11
139.85424868893551
 21
-47.594764855300546
 31
0.0
  0
LINE
  5
A806
  8
0
 10
139.85424868893551
 20
-47.594764855300546
 30
0.0
 11
145.14575131106471
 21
-47.594764855300546
 31
0.0
  0
LINE
  5
A807
  8
0
 10
145.0
 20
-36.394764855300572
 30
0.0
 11
139.99999999999989
 21
-36.394764855300572
 31
0.0
  0
LINE
  5
A808
  8
0
 10
145.0
 20
-39.294764855300542
 30
0.0
 11
139.99999999999989
 21
-39.294764855300542
 31
0.0
  0
LINE
  5
A809
  8
0
 10
140.80000000000001
 20
-35.594764855300546
 30
0.0
 11
144.19999999999999
 21
-35.594764855300546
 31
0.0
  0
LINE
  5
A80A
  8
0
 10
144.85000000000011
 20
-61.594764855300546
 30
0.0
 11
140.15000000000001
 21
-61.594764855300546
 31
0.0
  0
LINE
  5
A80B
  8
0
 10
144.85000000000011
 20
-59.294764855300542
 30
0.0
 11
140.15000000000001
 21
-59.294764855300542
 31
0.0
  0
LINE
  5
A80C
  8
0
 10
143.4218519932451
 20
-63.594764855300561
 30
0.0
 11
141.57814800674211
 21
-63.594764855300561
 31
0.0
  0
LINE
  5
A80D
  8
0
 10
138.5
 20
-52.180551292927497
 30
0.0
 11
146.49999999999989
 21
-52.180551292927497
 31
0.0
  0
LINE
  5
A80E
  8
0
 10
144.10000000000011
 20
-55.408978417673687
 30
0.0
 11
140.90000000000001
 21
-55.408978417673687
 31
0.0
  0
LINE
  5
A80F
  8
0
 10
140.90000000000001
 20
-57.727777557192809
 30
0.0
 11
144.10000000000011
 21
-57.727777557192809
 31
0.0
  0
LINE
  5
A810
  8
3
 10
144.56700000000029
 20
-35.9617648553008
 30
0.0
 11
144.56700000000021
 21
-39.294764855300542
 31
0.0
  0
LINE
  5
A811
  8
3
 10
140.43299999999971
 20
-35.961764855300913
 30
0.0
 11
140.43299999999971
 21
-39.294764855300542
 31
0.0
  0
LINE
  5
A812
  8
3
 10
139.85424868893551
 20
-43.594764855300546
 30
0.0
 11
145.14575131106471
 21
-47.594764855300546
 31
0.0
  0
LINE
  5
A813
  8
3
 10
139.85424868893551
 20
-47.594764855300546
 30
0.0
 11
145.14575131106471
 21
-43.594764855300546
 31
0.0
  0
LINE
  5
A814
  8
1
 10
142.5
 20
-66.594764855300554
 30
0.0
 11
142.5
 21
-31.59476485530055
 31
0.0
  0
LINE
  5
A815
  8
3
 10
315.0
 20
-46.127764855300342
 30
0.0
 11
315.0
 21
-40.594764855300497
 31
0.0
  0
LINE
  5
A816
  8
0
 10
315.43299999999982
 20
-45.694764855300519
 30
0.0
 11
315.43299999999988
 21
-36.594764855300497
 31
0.0
  0
LINE
  5
A817
  8
0
 10
319.56700000000018
 20
-45.694764855300519
 30
0.0
 11
319.56700000000018
 21
-36.594764855300497
 31
0.0
  0
LINE
  5
A818
  8
3
 10
320.0
 20
-46.127764855300342
 30
0.0
 11
320.0
 21
-40.594764855300497
 31
0.0
  0
LINE
  5
A819
  8
0
 10
315.43299999999988
 20
-36.59476485530044
 30
0.0
 11
317.50000000000011
 21
-35.352785955770372
 31
0.0
  0
LINE
  5
A81A
  8
0
 10
319.56700000000018
 20
-36.594764855300497
 30
0.0
 11
317.50000000000011
 21
-35.352785955770372
 31
0.0
  0
LINE
  5
A81B
  8
0
 10
315.0
 20
-40.594764855300497
 30
0.0
 11
320.0
 21
-40.594764855300497
 31
0.0
  0
LINE
  5
A81C
  8
0
 10
315.43299999999988
 20
-36.594764855300497
 30
0.0
 11
319.56700000000018
 21
-36.594764855300497
 31
0.0
  0
LINE
  5
A81D
  8
3
 10
320.0
 20
-40.594764855300497
 30
0.0
 11
319.56700000000018
 21
-39.844786855623603
 31
0.0
  0
LINE
  5
A81E
  8
3
 10
315.00000000000023
 20
-40.594764855300497
 30
0.0
 11
315.43299999999999
 21
-39.844786855623603
 31
0.0
  0
LINE
  5
A81F
  8
0
 10
314.53299999999979
 20
-46.594764855300546
 30
0.0
 11
315.43299999999982
 21
-45.694764855300519
 31
0.0
  0
LINE
  5
A820
  8
0
 10
315.43299999999982
 20
-45.694764855300519
 30
0.0
 11
319.56700000000018
 21
-45.694764855300463
 31
0.0
  0
LINE
  5
A821
  8
0
 10
319.56700000000018
 20
-45.694764855300463
 30
0.0
 11
320.46700000000033
 21
-46.594764855300546
 31
0.0
  0
LINE
  5
A822
  8
0
 10
250.0
 20
-46.59476485530049
 30
0.0
 11
285.0
 21
-46.59476485530049
 31
0.0
  0
LINE
  5
A823
  8
0
 10
250.0
 20
-34.594764855300497
 30
0.0
 11
285.0
 21
-34.594764855300497
 31
0.0
  0
LINE
  5
A824
  8
3
 10
265.00000000000011
 20
-46.127764855300313
 30
0.0
 11
265.00000000000011
 21
-45.294764855300478
 31
0.0
  0
LINE
  5
A825
  8
3
 10
265.00000000000011
 20
-42.394764855300501
 30
0.0
 11
265.00000000000011
 21
-40.594764855300497
 31
0.0
  0
LINE
  5
A826
  8
0
 10
265.43299999999988
 20
-45.694764855300477
 30
0.0
 11
265.43299999999988
 21
-45.339081006918242
 31
0.0
  0
LINE
  5
A827
  8
0
 10
265.43299999999988
 20
-41.961764855300601
 30
0.0
 11
265.43299999999988
 21
-36.594764855300497
 31
0.0
  0
LINE
  5
A828
  8
0
 10
269.56700000000018
 20
-45.694764855300477
 30
0.0
 11
269.56700000000018
 21
-45.339081006918093
 31
0.0
  0
LINE
  5
A829
  8
0
 10
269.56700000000018
 20
-41.961764855300828
 30
0.0
 11
269.56700000000029
 21
-36.594764855300497
 31
0.0
  0
LINE
  5
A82A
  8
3
 10
270.00000000000011
 20
-46.127764855300313
 30
0.0
 11
270.00000000000011
 21
-45.294764855300478
 31
0.0
  0
LINE
  5
A82B
  8
3
 10
270.00000000000011
 20
-42.394764855300501
 30
0.0
 11
270.00000000000011
 21
-40.594764855300497
 31
0.0
  0
LINE
  5
A82C
  8
0
 10
265.43299999999988
 20
-36.59476485530044
 30
0.0
 11
267.50000000000011
 21
-35.352785955770372
 31
0.0
  0
LINE
  5
A82D
  8
0
 10
269.56700000000029
 20
-36.594764855300497
 30
0.0
 11
267.50000000000011
 21
-35.352785955770351
 31
0.0
  0
LINE
  5
A82E
  8
0
 10
265.00000000000011
 20
-40.594764855300497
 30
0.0
 11
270.00000000000011
 21
-40.594764855300497
 31
0.0
  0
LINE
  5
A82F
  8
0
 10
265.43299999999988
 20
-36.594764855300497
 30
0.0
 11
269.56700000000029
 21
-36.594764855300497
 31
0.0
  0
LINE
  5
A830
  8
3
 10
270.00000000000011
 20
-40.594764855300497
 30
0.0
 11
269.56700000000018
 21
-39.844786855623568
 31
0.0
  0
LINE
  5
A831
  8
3
 10
265.00000000000023
 20
-40.594764855300497
 30
0.0
 11
265.43299999999999
 21
-39.844786855623568
 31
0.0
  0
LINE
  5
A832
  8
0
 10
264.53299999999979
 20
-46.594764855300518
 30
0.0
 11
265.43299999999988
 21
-45.694764855300477
 31
0.0
  0
LINE
  5
A833
  8
0
 10
265.43299999999988
 20
-45.694764855300477
 30
0.0
 11
265.64999999999998
 21
-45.694764855300477
 31
0.0
  0
LINE
  5
A834
  8
0
 10
269.35000000000002
 20
-45.694764855300427
 30
0.0
 11
269.56700000000018
 21
-45.694764855300427
 31
0.0
  0
LINE
  5
A835
  8
0
 10
269.56700000000018
 20
-45.694764855300427
 30
0.0
 11
270.46700000000033
 21
-46.594764855300518
 31
0.0
  0
TEXT
  5
A836
  8
0
 62
     3
 10
268.92666666666679
 20
-19.59476485530055
 30
0.0
 40
3.2000000000000002
  1
6mm以上のプレートの場合
 72
     1
 11
292.50000000000011
 21
-19.59476485530055
 31
0.0
  0
TEXT
  5
AAB9
  8
0
 62
     3
 10
133.43333333333331
 20
-79.594764855300497
 30
0.0
 40
3.2000000000000002
  1
組付け状態
 72
     1
 11
142.5
 21
-79.594764855300497
 31
0.0
  0
POLYLINE
  5
AACC
  8
5
 66
     1
 10
0.0
 20
0.0
 30
0.0
 70
     1
  0
VERTEX
  5
AFA3
  8
5
 10
105.0
 20
-10.0
 30
0.0
  0
VERTEX
  5
AFA4
  8
5
 10
355.0
 20
-10.0
 30
0.0
  0
VERTEX
  5
AFA5
  8
5
 10
355.0
 20
-94.594764855300497
 30
0.0
  0
VERTEX
  5
AFA6
  8
5
 10
105.0
 20
-94.594764855300497
 30
0.0
  0
SEQEND
  5
AFA7
  8
5
  0
TEXT
  5
AACE
  8
0
 62
     3
 10
185.24666666666661
 20
-79.594764855300497
 30
0.0
 40
3.2000000000000002
  1
取付け穴
 72
     1
 11
192.5
 21
-79.594764855300497
 31
0.0
  0
TEXT
  5
AACF
  8
0
 62
     3
 10
258.43333333333322
 20
-79.594764855300497
 30
0.0
 40
3.2000000000000002
  1
組付け状態
 72
     1
 11
267.49999999999989
 21
-79.594764855300497
 31
0.0
  0
TEXT
  5
AAD0
  8
0
 62
     3
 10
310.24666666666661
 20
-79.594764855300497
 30
0.0
 40
3.2000000000000002
  1
取付け穴
 72
     1
 11
317.49999999999989
 21
-79.594764855300497
 31
0.0
  0
ARC
  5
ABDF
  8
0
 10
156.59431329113289
 20
51.41421356237305
 30
0.0
 40
1.0
 50
315.0000000000004
 51
0.000000000000007
  0
ARC
  5
ABE0
  8
0
 10
150.59431329113289
 20
51.41421356237305
 30
0.0
 40
1.0
 50
180.0
 51
225.00000000000011
  0
LINE
  5
ABE1
  8
0
 10
149.59431329113289
 20
51.41421356237305
 30
0.0
 11
149.59431329113289
 21
62.800000000000011
 31
0.0
  0
LINE
  5
ABE2
  8
0
 10
157.59431329113289
 20
62.800000000000011
 30
0.0
 11
157.59431329113289
 21
51.41421356237305
 31
0.0
  0
LINE
  5
ABE3
  8
0
 10
149.59431329113289
 20
62.800000000000011
 30
0.0
 11
149.79431329113291
 21
63.0
 31
0.0
  0
LINE
  5
ABE4
  8
0
 10
157.3943132911329
 20
63.0
 30
0.0
 11
157.59431329113289
 21
62.800000000000011
 31
0.0
  0
LINE
  5
ABE5
  8
0
 10
157.30142007231939
 20
50.707106781186553
 30
0.0
 11
155.48720650994639
 21
48.892893218813413
 31
0.0
  0
LINE
  5
ABE6
  8
0
 10
151.70142007231951
 20
48.892893218813413
 30
0.0
 11
149.88720650994631
 21
50.707106781186553
 31
0.0
  0
LINE
  5
ABE7
  8
0
 10
151.09431329113289
 20
64.300000000000011
 30
0.0
 11
151.09431329113289
 21
67.199999999999974
 31
0.0
  0
LINE
  5
ABE8
  8
0
 10
156.09431329113289
 20
67.199999999999974
 30
0.0
 11
156.09431329113289
 21
64.300000000000011
 31
0.0
  0
LINE
  5
ABE9
  8
0
 10
151.09431329113289
 20
67.199999999999974
 30
0.0
 11
151.8943132911329
 21
68.0
 31
0.0
  0
LINE
  5
ABEA
  8
0
 10
155.29431329113291
 20
68.0
 30
0.0
 11
156.09431329113289
 21
67.199999999999974
 31
0.0
  0
LINE
  5
ABEB
  8
0
 10
155.9443132911328
 20
42.0
 30
0.0
 11
155.45585790517671
 21
40.657979856674316
 31
0.0
  0
LINE
  5
ABEC
  8
0
 10
151.7327686770891
 20
40.657979856674316
 30
0.0
 11
151.24431329113281
 21
42.0
 31
0.0
  0
LINE
  5
ABED
  8
0
 10
151.24431329113281
 20
42.0
 30
0.0
 11
151.24431329113281
 21
44.300000000000011
 31
0.0
  0
LINE
  5
ABEE
  8
0
 10
155.9443132911328
 20
44.300000000000011
 30
0.0
 11
155.9443132911328
 21
42.0
 31
0.0
  0
LINE
  5
ABEF
  8
0
 10
151.24431329113281
 20
44.300000000000011
 30
0.0
 11
151.86033869491729
 21
45.366987298107738
 31
0.0
  0
LINE
  5
ABF0
  8
0
 10
155.32828788734841
 20
45.366987298107738
 30
0.0
 11
155.9443132911328
 21
44.300000000000011
 31
0.0
  0
ARC
  5
ABF1
  8
0
 10
155.84431329113289
 20
63.89999999999997
 30
0.0
 40
0.4000000000000057
 50
90.0
 51
180.0
  0
ARC
  5
ABF2
  8
0
 10
151.34431329113289
 20
63.89999999999997
 30
0.0
 40
0.4000000000000057
 50
0.000000000000007
 51
90.0
  0
ARC
  5
ABF3
  8
0
 10
155.84431329113289
 20
63.399999999999977
 30
0.0
 40
0.4000000000000057
 50
180.0
 51
270.0
  0
ARC
  5
ABF4
  8
0
 10
151.34431329113289
 20
63.399999999999977
 30
0.0
 40
0.4000000000000057
 50
270.0
 51
0.000000000000007
  0
ARC
  5
ABF5
  8
0
 10
150.99431329113281
 20
48.185786437626859
 30
0.0
 40
1.0
 50
0.000000000000007
 51
44.999999999999567
  0
ARC
  5
ABF6
  8
0
 10
156.1943132911328
 20
48.185786437626859
 30
0.0
 40
1.0
 50
135.0000000000004
 51
180.0
  0
ARC
  5
ABF7
  8
0
 10
152.67246129787489
 20
41.0
 30
0.0
 40
1.000000000000008
 50
200.0000000000006
 51
270.0
  0
ARC
  5
ABF8
  8
0
 10
154.51616528439081
 20
41.0
 30
0.0
 40
1.000000000000008
 50
270.0
 51
339.99999999999937
  0
LINE
  5
ABF9
  8
0
 10
151.74431329113281
 20
63.399999999999977
 30
0.0
 11
151.74431329113281
 21
63.89999999999997
 31
0.0
  0
LINE
  5
ABFA
  8
0
 10
155.4443132911328
 20
63.89999999999997
 30
0.0
 11
155.4443132911328
 21
63.399999999999977
 31
0.0
  0
ARC
  5
ABFB
  8
0
 10
150.99431329113281
 20
45.866987298107738
 30
0.0
 40
1.0
 50
329.99999999999869
 51
0.000000000000007
  0
ARC
  5
ABFC
  8
0
 10
156.1943132911328
 20
45.866987298107738
 30
0.0
 40
1.0
 50
180.0
 51
210.00000000000111
  0
LINE
  5
ABFD
  8
0
 10
151.99431329113281
 20
45.866987298107738
 30
0.0
 11
151.99431329113281
 21
48.185786437626859
 31
0.0
  0
LINE
  5
ABFE
  8
0
 10
155.1943132911328
 20
48.185786437626859
 30
0.0
 11
155.1943132911328
 21
45.866987298107738
 31
0.0
  0
LINE
  5
ABFF
  8
0
 10
150.94856198006821
 20
56.0
 30
0.0
 11
150.94856198006821
 21
60.0
 31
0.0
  0
LINE
  5
AC00
  8
0
 10
150.94856198006821
 20
60.0
 30
0.0
 11
156.24006460219741
 21
60.0
 31
0.0
  0
LINE
  5
AC01
  8
0
 10
156.24006460219741
 20
60.0
 30
0.0
 11
156.24006460219741
 21
56.0
 31
0.0
  0
LINE
  5
AC02
  8
0
 10
156.24006460219741
 20
56.0
 30
0.0
 11
150.94856198006821
 21
56.0
 31
0.0
  0
LINE
  5
AC03
  8
0
 10
157.3943132911329
 20
63.0
 30
0.0
 11
149.79431329113291
 21
63.0
 31
0.0
  0
LINE
  5
AC04
  8
0
 10
151.09431329113289
 20
67.199999999999974
 30
0.0
 11
156.09431329113289
 21
67.199999999999974
 31
0.0
  0
LINE
  5
AC05
  8
0
 10
151.09431329113289
 20
64.300000000000011
 30
0.0
 11
156.09431329113289
 21
64.300000000000011
 31
0.0
  0
LINE
  5
AC06
  8
0
 10
155.29431329113291
 20
68.0
 30
0.0
 11
151.8943132911329
 21
68.0
 31
0.0
  0
LINE
  5
AC07
  8
0
 10
151.24431329113281
 20
42.0
 30
0.0
 11
155.9443132911328
 21
42.0
 31
0.0
  0
LINE
  5
AC08
  8
0
 10
151.24431329113281
 20
44.300000000000011
 30
0.0
 11
155.9443132911328
 21
44.300000000000011
 31
0.0
  0
LINE
  5
AC09
  8
0
 10
152.67246129788779
 20
40.0
 30
0.0
 11
154.51616528439081
 21
40.0
 31
0.0
  0
LINE
  5
AC0A
  8
0
 10
157.59431329113289
 20
51.41421356237305
 30
0.0
 11
149.59431329113289
 21
51.41421356237305
 31
0.0
  0
LINE
  5
AC0B
  8
0
 10
151.99431329113281
 20
48.185786437626859
 30
0.0
 11
155.1943132911328
 21
48.185786437626859
 31
0.0
  0
LINE
  5
AC0C
  8
0
 10
155.1943132911328
 20
45.866987298107738
 30
0.0
 11
151.99431329113281
 21
45.866987298107738
 31
0.0
  0
LINE
  5
AC0D
  8
3
 10
151.5273132911326
 20
67.632999999999754
 30
0.0
 11
151.52731329113271
 21
64.300000000000011
 31
0.0
  0
LINE
  5
AC0E
  8
3
 10
155.66131329113321
 20
67.63299999999964
 30
0.0
 11
155.66131329113321
 21
64.300000000000011
 31
0.0
  0
LINE
  5
AC0F
  8
3
 10
156.24006460219741
 20
60.0
 30
0.0
 11
150.94856198006821
 21
56.0
 31
0.0
  0
LINE
  5
AC10
  8
3
 10
156.24006460219741
 20
56.0
 30
0.0
 11
150.94856198006821
 21
60.0
 31
0.0
  0
LINE
  5
AC11
  8
1
 10
153.59431329113289
 20
37.0
 30
0.0
 11
153.59431329113289
 21
71.0
 31
0.0
  0
TEXT
  5
AC77
  8
0
 62
     3
 10
0.0
 20
0.0
 30
0.0
 40
10.0
  1
QCBA0816-M5
  7
STANDARD1
  0
TEXT
  5
AD0C
  8
0
 62
     3
 10
105.0
 20
-7.0
 30
0.0
 40
3.2000000000000002
  1
■Installation Instructions for Ball-Lock Clamping Pins (see diagram below)
  0
TEXT
  5
AD0D
  8
0
 62
     3
 10
117.58799999999999
 20
-26.59476485530055
 30
0.0
 40
3.2000000000000002
  1
For installation on plate of 6 mm thickness.
 41
0.85
 72
     1
 11
167.5
 21
-26.59476485530055
 31
0.0
  0
TEXT
  5
AD0E
  8
0
 62
     3
 10
236.33200000000011
 20
-26.59476485530055
 30
0.0
 40
3.2000000000000002
  1
For installation on plate of over 6 mm thickness.
 41
0.85
 72
     1
 11
292.50000000000011
 21
-26.59476485530055
 31
0.0
  0
TEXT
  5
AD0F
  8
0
 62
     3
 10
121.28399999999991
 20
-86.594764855300497
 30
0.0
 40
3.2000000000000002
  1
Installed condition
 41
0.85
 72
     1
 11
142.5
 21
-86.594764855300497
 31
0.0
  0
TEXT
  5
AD10
  8
0
 62
     3
 10
173.7773333333333
 20
-86.594764855300497
 30
0.0
 40
3.2000000000000002
  1
Installation hole
 41
0.85
 72
     1
 11
192.5
 21
-86.594764855300497
 31
0.0
  0
TEXT
  5
AD11
  8
0
 62
     3
 10
246.28399999999991
 20
-86.594764855300497
 30
0.0
 40
3.2000000000000002
  1
Installed condition
 41
0.85
 72
     1
 11
267.49999999999989
 21
-86.594764855300497
 31
0.0
  0
TEXT
  5
AD12
  8
0
 62
     3
 10
298.77733333333322
 20
-86.594764855300497
 30
0.0
 40
3.2000000000000002
  1
Installation hole
 41
0.85
 72
     1
 11
317.49999999999989
 21
-86.594764855300497
 31
0.0
  0
ENDSEC
  0
EOF
