  0
SECTION
  2
HEADER
  9
$ACADVER
  1
AC1009
  9
$INSBASE
 10
0.0
 20
0.0
 30
0.0
  9
$EXTMIN
 10
0.0
 20
-166.60523514469941
 30
0.0
  9
$EXTMAX
 10
335.0
 20
152.0
 30
0.0
  9
$LIMMIN
 10
0.0
 20
0.0
  9
$LIMMAX
 10
375.0
 20
270.0
  9
$ORTHOMODE
 70
     1
  9
$REGENMODE
 70
     1
  9
$FILLMODE
 70
     1
  9
$QTEXTMODE
 70
     0
  9
$MIRRTEXT
 70
     0
  9
$DRAGMODE
 70
     2
  9
$LTSCALE
 40
5.0
  9
$OSMODE
 70
    37
  9
$ATTMODE
 70
     1
  9
$TEXTSIZE
 40
6.0
  9
$TRACEWID
 40
0.05
  9
$TEXTSTYLE
  7
STANDARD
  9
$CLAYER
  8
0
  9
$CELTYPE
  6
BYLAYER
  9
$CECOLOR
 62
   256
  9
$DIMSCALE
 40
1.0
  9
$DIMASZ
 40
3.0
  9
$DIMEXO
 40
2.0
  9
$DIMDLI
 40
0.3799999999999999
  9
$DIMRND
 40
0.0
  9
$DIMDLE
 40
0.0
  9
$DIMEXE
 40
2.0
  9
$DIMTP
 40
0.0
  9
$DIMTM
 40
0.0
  9
$DIMTXT
 40
3.2000000000000002
  9
$DIMCEN
 40
0.09
  9
$DIMTSZ
 40
0.0
  9
$DIMTOL
 70
     0
  9
$DIMLIM
 70
     0
  9
$DIMTIH
 70
     0
  9
$DIMTOH
 70
     0
  9
$DIMSE1
 70
     0
  9
$DIMSE2
 70
     0
  9
$DIMTAD
 70
     1
  9
$DIMZIN
 70
     0
  9
$DIMBLK
  1

  9
$DIMASO
 70
     0
  9
$DIMSHO
 70
     0
  9
$DIMPOST
  1

  9
$DIMAPOST
  1

  9
$DIMALT
 70
     0
  9
$DIMALTD
 70
     2
  9
$DIMALTF
 40
25.399999999999999
  9
$DIMLFAC
 40
1.0
  9
$DIMTOFL
 70
     0
  9
$DIMTVP
 40
0.0
  9
$DIMTIX
 70
     0
  9
$DIMSOXD
 70
     0
  9
$DIMSAH
 70
     0
  9
$DIMBLK1
  1

  9
$DIMBLK2
  1

  9
$DIMSTYLE
  2
STANDARD
  9
$DIMCLRD
 70
     0
  9
$DIMCLRE
 70
     0
  9
$DIMCLRT
 70
     0
  9
$DIMTFAC
 40
1.0
  9
$DIMGAP
 40
0.09
  9
$LUNITS
 70
     2
  9
$LUPREC
 70
     4
  9
$SKETCHINC
 40
0.1
  9
$FILLETRAD
 40
20.0
  9
$AUNITS
 70
     0
  9
$AUPREC
 70
     0
  9
$MENU
  1
E:\r13\win\SUPPORT\ACAD
  9
$ELEVATION
 40
0.0
  9
$PELEVATION
 40
0.0
  9
$THICKNESS
 40
0.0
  9
$LIMCHECK
 70
     0
  9
$BLIPMODE
 70
     0
  9
$CHAMFERA
 40
0.0
  9
$CHAMFERB
 40
0.0
  9
$SKPOLY
 70
     0
  9
$TDCREATE
 40
2449840.6320370371
  9
$TDUPDATE
 40
2456610.6947748498
  9
$TDINDWG
 40
0.5758036806
  9
$TDUSRTIMER
 40
0.5758036806
  9
$USRTIMER
 70
     1
  9
$ANGBASE
 50
0.0
  9
$ANGDIR
 70
     0
  9
$PDMODE
 70
     0
  9
$PDSIZE
 40
0.0
  9
$PLINEWID
 40
0.0
  9
$COORDS
 70
     1
  9
$SPLFRAME
 70
     0
  9
$SPLINETYPE
 70
     6
  9
$SPLINESEGS
 70
     8
  9
$ATTDIA
 70
     0
  9
$ATTREQ
 70
     1
  9
$HANDLING
 70
     1
  9
$HANDSEED
  5
B0B1
  9
$SURFTAB1
 70
     6
  9
$SURFTAB2
 70
     6
  9
$SURFTYPE
 70
     6
  9
$SURFU
 70
     6
  9
$SURFV
 70
     6
  9
$UCSNAME
  2

  9
$UCSORG
 10
0.0
 20
0.0
 30
0.0
  9
$UCSXDIR
 10
1.0
 20
0.0
 30
0.0
  9
$UCSYDIR
 10
0.0
 20
1.0
 30
0.0
  9
$PUCSNAME
  2

  9
$PUCSORG
 10
0.0
 20
0.0
 30
0.0
  9
$PUCSXDIR
 10
1.0
 20
0.0
 30
0.0
  9
$PUCSYDIR
 10
0.0
 20
1.0
 30
0.0
  9
$USERI1
 70
     0
  9
$USERI2
 70
     1
  9
$USERI3
 70
     0
  9
$USERI4
 70
     0
  9
$USERI5
 70
     0
  9
$USERR1
 40
0.0
  9
$USERR2
 40
0.0
  9
$USERR3
 40
0.0
  9
$USERR4
 40
0.0
  9
$USERR5
 40
0.0
  9
$WORLDVIEW
 70
     1
  9
$SHADEDGE
 70
     3
  9
$SHADEDIF
 70
    70
  9
$TILEMODE
 70
     1
  9
$MAXACTVP
 70
    16
  9
$PLIMCHECK
 70
     0
  9
$PEXTMIN
 10
1.0000000000000000E+020
 20
1.0000000000000000E+020
 30
1.0000000000000000E+020
  9
$PEXTMAX
 10
-1.0000000000000000E+020
 20
-1.0000000000000000E+020
 30
-1.0000000000000000E+020
  9
$PLIMMIN
 10
0.0
 20
0.0
  9
$PLIMMAX
 10
12.0
 20
9.0
  9
$UNITMODE
 70
     0
  9
$VISRETAIN
 70
     0
  9
$PLINEGEN
 70
     0
  9
$PSLTSCALE
 70
     0
  0
ENDSEC
  0
SECTION
  2
TABLES
  0
TABLE
  2
VPORT
 70
     1
  0
VPORT
  2
*ACTIVE
 70
     0
 10
0.0
 20
0.0
 11
1.0
 21
1.0
 12
166.32743362831849
 22
95.290378309769736
 13
0.0
 23
0.0
 14
10.0
 24
10.0
 15
10.0
 25
10.0
 16
0.0
 26
0.0
 36
1.0
 17
0.0
 27
0.0
 37
0.0
 40
190.5807566195395
 41
1.7454798331015291
 42
50.0
 43
0.0
 44
0.0
 50
0.0
 51
0.0
 71
     0
 72
   500
 73
     1
 74
     0
 75
     0
 76
     0
 77
     0
 78
     0
  0
ENDTAB
  0
TABLE
  2
LTYPE
 70
     4
  0
LTYPE
  2
CONTINUOUS
 70
     0
  3
Solid Line
 72
    65
 73
     0
 40
0.0
  0
LTYPE
  2
CENTER
 70
     0
  3
____ _ ____ _ ____ _ ____ _ ____ _ ____ _ ____
 72
    65
 73
     4
 40
2.0
 49
1.25
 49
-0.25
 49
0.25
 49
-0.25
  0
LTYPE
  2
PHANTOM2
 70
     0
  3
___ _ _ ___ _ _ ___ _ _ ___ _ _
 72
    65
 73
     6
 40
1.25
 49
0.625
 49
-0.125
 49
0.125
 49
-0.125
 49
0.125
 49
-0.125
  0
LTYPE
  2
PHANTOM
 70
     0
  3
_____ _ _ _____ _ _ _____ _ _ _____ _ _ ____
 72
    65
 73
     6
 40
2.5
 49
1.25
 49
-0.25
 49
0.25
 49
-0.25
 49
0.25
 49
-0.25
  0
ENDTAB
  0
TABLE
  2
LAYER
 70
     5
  0
LAYER
  2
0
 70
     0
 62
     7
  6
CONTINUOUS
  0
LAYER
  2
1
 70
     0
 62
     1
  6
CENTER
  0
LAYER
  2
3
 70
     0
 62
     3
  6
CONTINUOUS
  0
LAYER
  2
DEFPOINTS
 70
     0
 62
     7
  6
CONTINUOUS
  0
LAYER
  2
5
 70
     0
 62
     3
  6
PHANTOM
  0
ENDTAB
  0
TABLE
  2
STYLE
 70
     2
  0
STYLE
  2
STANDARD
 70
     0
 40
0.0
 41
1.0
 50
0.0
 71
     0
 42
6.0
  3
TXT
  4
BIGFONT
  0
STYLE
  2
STANDARD1
 70
     0
 40
0.0
 41
1.0
 50
0.0
 71
     0
 42
3.0
  3
txt
  4

  0
ENDTAB
  0
TABLE
  2
VIEW
 70
     1
  0
VIEW
  2
ALL
 70
     0
 40
270.0
 10
213.25689075630251
 20
135.0
 41
0.0
 11
0.0
 21
0.0
 31
1.0
 12
0.0
 22
0.0
 32
0.0
 42
0.0
 43
0.0
 44
0.0
 50
0.0
 71
     0
  0
ENDTAB
  0
TABLE
  2
UCS
 70
     0
  0
ENDTAB
  0
TABLE
  2
APPID
 70
     6
  0
APPID
  2
ACAD
 70
     0
  0
APPID
  2
ACAD_EXEMPT_FROM_CAD_STANDARDS
 70
     0
  0
APPID
  2
ACAD_MLEADERVER
 70
     0
  0
APPID
  2
ACAD_DSTYLE_DIMJAG
 70
     0
  0
APPID
  2
ACAD_DSTYLE_DIMTALN
 70
     0
  0
APPID
  2
ACAD_NAV_VCDISPLAY
 70
     0
  0
ENDTAB
  0
TABLE
  2
DIMSTYLE
 70
     1
  0
DIMSTYLE
  2
STANDARD
 70
     0
  3

  4

  5

  6

  7

 40
1.0
 41
0.18
 42
0.0625
 43
0.38
 44
0.18
 45
0.0
 46
0.0
 47
0.0
 48
0.0
140
0.18
141
0.09
142
0.0
143
25.399999999999999
144
1.0
145
0.0
146
1.0
147
0.09
 71
     0
 72
     0
 73
     1
 74
     1
 75
     0
 76
     0
 77
     0
 78
     0
170
     0
171
     2
172
     0
173
     0
174
     0
175
     0
176
     0
177
     0
178
     0
  0
ENDTAB
  0
ENDSEC
  0
SECTION
  2
BLOCKS
  0
BLOCK
  8
0
  2
$MODEL_SPACE
 70
     0
 10
0.0
 20
0.0
 30
0.0
  3
$MODEL_SPACE
  1

  0
ENDBLK
  5
126
  8
0
  0
BLOCK
 67
     1
  8
0
  2
$PAPER_SPACE
 70
     0
 10
0.0
 20
0.0
 30
0.0
  3
$PAPER_SPACE
  1

  0
ENDBLK
  5
124
 67
     1
  8
0
  0
ENDSEC
  0
SECTION
  2
ENTITIES
  0
ARC
  5
9B0C
  8
0
 10
143.324573519457
 20
139.00000000000011
 30
0.0
 40
1.7499999999999949
 50
132.52749856144911
 51
227.4725014385547
  0
ARC
  5
9B11
  8
0
 10
140.0
 20
139.0
 30
0.0
 40
5.0000000000000071
 50
284.47751218592992
 51
75.522487814070075
  0
ARC
  5
9B15
  8
0
 10
140.0
 20
139.0
 30
0.0
 40
5.0000000000000071
 50
104.4775121859299
 51
255.5224878140701
  0
LINE
  5
9B1F
  8
0
 10
138.74999999999989
 20
135.20032896160751
 30
0.0
 11
138.75
 21
129.07843258350789
 31
0.0
  0
LINE
  5
9B20
  8
0
 10
138.75
 20
148.92156741649219
 30
0.0
 11
138.75
 21
142.79967103839269
 31
0.0
  0
LINE
  5
9B21
  8
0
 10
141.25
 20
142.79967103839269
 30
0.0
 11
141.25
 21
148.92156741649219
 31
0.0
  0
LINE
  5
9B22
  8
0
 10
141.25
 20
129.07843258350789
 30
0.0
 11
141.24999999999989
 21
135.2003289616074
 31
0.0
  0
CIRCLE
  5
9B27
  8
0
 10
140.0
 20
139.00000000000011
 30
0.0
 40
2.5
  0
ARC
  5
9B29
  8
0
 10
138.3377132402714
 20
52.879165124598899
 30
0.0
 40
1.750000000000006
 50
252.52749856144769
 51
347.4725014385557
  0
ARC
  5
9B2A
  8
0
 10
143.324573519457
 20
50.000000000000057
 30
0.0
 40
1.749999999999998
 50
132.5274985614453
 51
227.4725014385547
  0
ARC
  5
9B2B
  8
0
 10
138.3377132402714
 20
47.120834875401208
 30
0.0
 40
1.7500000000000011
 50
12.527498561448169
 51
107.4725014385522
  0
LINE
  5
9B2C
  8
0
 10
141.0
 20
53.872983346207548
 30
0.0
 11
141.0
 21
55.306599664568701
 31
0.0
  0
LINE
  5
9B2D
  8
0
 10
139.0
 20
55.306599664568701
 30
0.0
 11
139.0
 21
53.872983346207548
 31
0.0
  0
ARC
  5
9B2E
  8
0
 10
140.0
 20
50.000000000000107
 30
0.0
 40
5.400000000000003
 50
100.6719292857608
 51
79.328070714239203
  0
CIRCLE
  5
9B31
  8
0
 10
140.0
 20
50.000000000000107
 30
0.0
 40
7.0000000000001821
  0
CIRCLE
  5
9B33
  8
0
 10
140.0
 20
50.000000000000107
 30
0.0
 40
6.3000000000001677
  0
CIRCLE
  5
9B35
  8
0
 10
140.0
 20
50.000000000000107
 30
0.0
 40
2.5000000000000031
  0
CIRCLE
  5
9B36
  8
0
 10
140.0
 20
50.000000000000107
 30
0.0
 40
4.0000000000000027
  0
CIRCLE
  5
9B37
  8
0
 10
140.0
 20
50.000000000000057
 30
0.0
 40
7.9999999999999956
  0
CIRCLE
  5
9B38
  8
0
 10
140.0
 20
50.0
 30
0.0
 40
10.0
  0
CIRCLE
  5
9D2F
  8
0
 10
140.0
 20
139.00000000000011
 30
0.0
 40
9.9999999999999432
  0
CIRCLE
  5
9D30
  8
0
 10
140.0
 20
139.00000000000011
 30
0.0
 40
3.9999999999999432
  0
ARC
  5
9D31
  8
0
 10
138.3377132402714
 20
141.8791651245989
 30
0.0
 40
1.749999999999996
 50
252.52749856144769
 51
347.47250143855263
  0
ARC
  5
9D32
  8
0
 10
138.3377132402714
 20
136.12083487540119
 30
0.0
 40
1.7499999999999709
 50
12.52749856144729
 51
107.4725014385522
  0
CIRCLE
  5
9E16
  8
3
 10
140.0
 20
50.000000000000107
 30
0.0
 40
7.1880962108012421
  0
LINE
  5
9E53
  8
1
 10
140.0
 20
37.0
 30
0.0
 11
140.0
 21
63.0
 31
0.0
  0
LINE
  5
9E55
  8
1
 10
127.0
 20
139.00000000000011
 30
0.0
 11
152.99999999999989
 21
139.00000000000011
 31
0.0
  0
LINE
  5
9E56
  8
1
 10
153.0
 20
50.000000000000107
 30
0.0
 11
127.0
 21
50.000000000000107
 31
0.0
  0
LINE
  5
9E5C
  8
1
 10
140.0
 20
126.0000000000002
 30
0.0
 11
140.0
 21
152.0
 31
0.0
  0
LINE
  5
A4ED
  8
0
 10
147.0
 20
80.888010851410939
 30
0.0
 11
147.0
 21
93.188010851410937
 31
0.0
  0
LINE
  5
A4EE
  8
0
 10
133.0
 20
93.188010851410937
 30
0.0
 11
133.0
 21
80.888010851410939
 31
0.0
  0
LINE
  5
A4EF
  8
0
 10
147.0
 20
93.188010851410937
 30
0.0
 11
146.7999999999999
 21
93.388010851410939
 31
0.0
  0
LINE
  5
A4F0
  8
0
 10
133.19999999999979
 20
93.388010851410939
 30
0.0
 11
133.0
 21
93.188010851410937
 31
0.0
  0
LINE
  5
A4F1
  8
0
 10
133.0
 20
80.888010851410939
 30
0.0
 11
133.5
 21
80.388010851410925
 31
0.0
  0
LINE
  5
A4F2
  8
0
 10
146.5
 20
80.388010851410925
 30
0.0
 11
147.0
 21
80.888010851410939
 31
0.0
  0
LINE
  5
A4F3
  8
0
 10
130.0
 20
106.5000000000001
 30
0.0
 11
130.5
 21
106.0000000000001
 31
0.0
  0
LINE
  5
A4F4
  8
0
 10
149.5
 20
106.0000000000001
 30
0.0
 11
150.0
 21
106.5000000000001
 31
0.0
  0
LINE
  5
A4F5
  8
0
 10
130.0
 20
108.5000000000001
 30
0.0
 11
130.0
 21
106.5000000000001
 31
0.0
  0
LINE
  5
A4F6
  8
0
 10
150.0
 20
106.5000000000001
 30
0.0
 11
150.0
 21
108.5000000000001
 31
0.0
  0
LINE
  5
A4F7
  8
0
 10
130.5
 20
109.0000000000001
 30
0.0
 11
130.0
 21
108.5000000000001
 31
0.0
  0
LINE
  5
A4F8
  8
0
 10
150.0
 20
108.5000000000001
 30
0.0
 11
149.5
 21
109.0000000000001
 31
0.0
  0
LINE
  5
A4F9
  8
0
 10
132.0
 20
95.000000000000114
 30
0.0
 11
133.0
 21
94.000000000000114
 31
0.0
  0
LINE
  5
A4FA
  8
0
 10
147.0
 20
94.000000000000114
 30
0.0
 11
148.0
 21
95.000000000000114
 31
0.0
  0
LINE
  5
A4FB
  8
0
 10
132.0
 20
103.5000000000001
 30
0.0
 11
132.0
 21
95.000000000000114
 31
0.0
  0
LINE
  5
A4FC
  8
0
 10
148.0
 20
95.000000000000114
 30
0.0
 11
148.0
 21
103.5000000000001
 31
0.0
  0
ARC
  5
A4FD
  8
0
 10
132.34999999999991
 20
104.3000000000001
 30
0.0
 40
0.8000000000000113
 50
270.0
 51
0.0
  0
ARC
  5
A4FE
  8
0
 10
147.65000000000009
 20
104.3000000000001
 30
0.0
 40
0.8000000000000113
 50
180.0
 51
270.0
  0
ARC
  5
A4FF
  8
0
 10
132.34999999999991
 20
105.2000000000001
 30
0.0
 40
0.8000000000000113
 50
0.0
 51
90.0
  0
ARC
  5
A500
  8
0
 10
147.65000000000009
 20
105.2000000000001
 30
0.0
 40
0.8000000000000113
 50
90.0
 51
180.0
  0
LINE
  5
A501
  8
0
 10
133.15000000000009
 20
105.2000000000001
 30
0.0
 11
133.15000000000009
 21
104.3000000000001
 31
0.0
  0
LINE
  5
A502
  8
0
 10
146.84999999999991
 20
104.3000000000001
 30
0.0
 11
146.84999999999991
 21
105.2000000000001
 31
0.0
  0
LINE
  5
A503
  8
0
 10
136.11198914858909
 20
80.388010851410925
 30
0.0
 11
136.5
 21
80.000000000000114
 31
0.0
  0
LINE
  5
A504
  8
0
 10
143.5
 20
80.000000000000114
 30
0.0
 11
143.8880108514108
 21
80.388010851410925
 31
0.0
  0
LINE
  5
A505
  8
0
 10
146.5
 20
80.388010851410925
 30
0.0
 11
133.5
 21
80.388010851410925
 31
0.0
  0
LINE
  5
A506
  8
0
 10
149.5
 20
106.0000000000001
 30
0.0
 11
130.5
 21
106.0000000000001
 31
0.0
  0
LINE
  5
A507
  8
0
 10
138.75
 20
109.0000000000001
 30
0.0
 11
138.75
 21
107.0000000000001
 31
0.0
  0
LINE
  5
A508
  8
0
 10
141.25
 20
107.0000000000001
 30
0.0
 11
138.75
 21
107.0000000000001
 31
0.0
  0
LINE
  5
A509
  8
0
 10
141.25
 20
107.0000000000001
 30
0.0
 11
141.25
 21
109.0000000000001
 31
0.0
  0
LINE
  5
A50A
  8
0
 10
130.5
 20
109.0000000000001
 30
0.0
 11
138.75
 21
109.0000000000001
 31
0.0
  0
LINE
  5
A50B
  8
0
 10
141.25
 20
109.0000000000001
 30
0.0
 11
149.5
 21
109.0000000000001
 31
0.0
  0
LINE
  5
A50C
  8
0
 10
132.0
 20
95.000000000000114
 30
0.0
 11
148.0
 21
95.000000000000114
 31
0.0
  0
LINE
  5
A50D
  8
0
 10
133.0
 20
94.000000000000114
 30
0.0
 11
147.00000000000011
 21
94.000000000000114
 31
0.0
  0
LINE
  5
A50E
  8
0
 10
132.0
 20
103.5000000000001
 30
0.0
 11
148.0
 21
103.5000000000001
 31
0.0
  0
LINE
  5
A50F
  8
0
 10
143.5
 20
80.000000000000114
 30
0.0
 11
136.5
 21
80.000000000000114
 31
0.0
  0
LINE
  5
A510
  8
0
 10
187.0
 20
93.188010851411008
 30
0.0
 11
186.7999999999999
 21
93.388010851410996
 31
0.0
  0
LINE
  5
A511
  8
0
 10
173.19999999999999
 20
93.388010851410939
 30
0.0
 11
173.0
 21
93.188010851410937
 31
0.0
  0
LINE
  5
A512
  8
0
 10
173.0
 20
80.888010851410939
 30
0.0
 11
173.5
 21
80.388010851410925
 31
0.0
  0
LINE
  5
A513
  8
0
 10
186.5
 20
80.388010851410925
 30
0.0
 11
187.0
 21
80.888010851410939
 31
0.0
  0
LINE
  5
A514
  8
0
 10
187.0
 20
80.888010851410939
 30
0.0
 11
187.0
 21
93.188010851411008
 31
0.0
  0
LINE
  5
A515
  8
0
 10
173.0
 20
93.188010851410937
 30
0.0
 11
173.0
 21
80.888010851410939
 31
0.0
  0
LINE
  5
A516
  8
0
 10
170.0
 20
106.5000000000001
 30
0.0
 11
170.5
 21
106.0000000000001
 31
0.0
  0
LINE
  5
A517
  8
0
 10
189.5
 20
106.0000000000001
 30
0.0
 11
190.0
 21
106.5000000000001
 31
0.0
  0
LINE
  5
A518
  8
0
 10
170.0
 20
107.0000000000001
 30
0.0
 11
170.0
 21
106.5000000000001
 31
0.0
  0
LINE
  5
A519
  8
0
 10
190.0
 20
106.5000000000001
 30
0.0
 11
190.0
 21
107.0000000000001
 31
0.0
  0
LINE
  5
A51A
  8
0
 10
172.0
 20
103.5000000000001
 30
0.0
 11
172.0
 21
95.000000000000114
 31
0.0
  0
LINE
  5
A51B
  8
0
 10
188.0
 20
95.000000000000114
 30
0.0
 11
188.0
 21
103.5000000000001
 31
0.0
  0
LINE
  5
A51C
  8
0
 10
172.0
 20
95.000000000000114
 30
0.0
 11
173.0
 21
94.000000000000114
 31
0.0
  0
LINE
  5
A51D
  8
0
 10
187.0
 20
94.000000000000114
 30
0.0
 11
188.0
 21
95.000000000000114
 31
0.0
  0
ARC
  5
A51E
  8
0
 10
172.35000000000011
 20
104.3000000000002
 30
0.0
 40
0.8000000000000113
 50
270.0
 51
0.0
  0
ARC
  5
A51F
  8
0
 10
187.64999999999981
 20
104.3000000000002
 30
0.0
 40
0.8000000000000113
 50
180.0
 51
270.0
  0
ARC
  5
A520
  8
0
 10
172.35000000000011
 20
105.2000000000001
 30
0.0
 40
0.8000000000000113
 50
0.0
 51
90.0
  0
ARC
  5
A521
  8
0
 10
187.64999999999981
 20
105.2000000000001
 30
0.0
 40
0.8000000000000113
 50
90.0
 51
180.0
  0
LINE
  5
A522
  8
0
 10
173.14999999999981
 20
105.2000000000001
 30
0.0
 11
173.14999999999981
 21
104.3000000000002
 31
0.0
  0
LINE
  5
A523
  8
0
 10
186.85000000000011
 20
104.3000000000002
 30
0.0
 11
186.85000000000011
 21
105.2000000000001
 31
0.0
  0
LINE
  5
A524
  8
0
 10
176.1119891485892
 20
80.388010851410925
 30
0.0
 11
176.5
 21
80.000000000000114
 31
0.0
  0
LINE
  5
A525
  8
0
 10
183.5
 20
80.000000000000114
 30
0.0
 11
183.8880108514108
 21
80.388010851410925
 31
0.0
  0
LINE
  5
A526
  8
0
 10
186.5
 20
80.388010851410925
 30
0.0
 11
173.5
 21
80.388010851410925
 31
0.0
  0
LINE
  5
A527
  8
0
 10
189.5
 20
106.0000000000001
 30
0.0
 11
170.5
 21
106.0000000000001
 31
0.0
  0
LINE
  5
A528
  8
0
 10
170.07843258350769
 20
107.0000000000001
 30
0.0
 11
170.0
 21
107.0000000000001
 31
0.0
  0
LINE
  5
A529
  8
0
 10
170.07843258350769
 20
107.0000000000001
 30
0.0
 11
170.07843258350769
 21
108.5000000000001
 31
0.0
  0
LINE
  5
A52A
  8
0
 10
189.92156741649231
 20
108.5000000000001
 30
0.0
 11
189.92156741649231
 21
107.0000000000001
 31
0.0
  0
LINE
  5
A52B
  8
0
 10
190.0
 20
107.0000000000001
 30
0.0
 11
189.92156741649231
 21
107.0000000000001
 31
0.0
  0
LINE
  5
A52C
  8
0
 10
170.5825958990813
 20
109.0000000000001
 30
0.0
 11
189.4174041009187
 21
109.0000000000001
 31
0.0
  0
LINE
  5
A52D
  8
0
 10
189.4174041009187
 20
109.0000000000001
 30
0.0
 11
189.92156741649231
 21
108.5000000000001
 31
0.0
  0
LINE
  5
A52E
  8
0
 10
172.0
 20
95.000000000000114
 30
0.0
 11
188.0
 21
95.000000000000114
 31
0.0
  0
LINE
  5
A52F
  8
0
 10
172.0
 20
103.5000000000001
 30
0.0
 11
188.0
 21
103.5000000000001
 31
0.0
  0
LINE
  5
A530
  8
0
 10
173.0
 20
94.000000000000114
 30
0.0
 11
187.0
 21
94.000000000000114
 31
0.0
  0
LINE
  5
A531
  8
0
 10
183.5
 20
80.000000000000114
 30
0.0
 11
176.5
 21
80.000000000000114
 31
0.0
  0
LINE
  5
A532
  8
0
 10
170.07843258350769
 20
108.5000000000001
 30
0.0
 11
170.5825958990813
 21
109.0000000000001
 31
0.0
  0
LINE
  5
A533
  8
3
 10
132.8119999999999
 20
103.5000000000001
 30
0.0
 11
132.8119999999999
 21
94.188000000000216
 31
0.0
  0
LINE
  5
A534
  8
3
 10
147.1880000000001
 20
103.5000000000001
 30
0.0
 11
147.1880000000001
 21
94.188000000000216
 31
0.0
  0
LINE
  5
A535
  8
3
 10
172.8119999999999
 20
103.5000000000001
 30
0.0
 11
172.8119999999999
 21
94.188000000000216
 31
0.0
  0
LINE
  5
A536
  8
3
 10
187.1880000000001
 20
103.5000000000001
 30
0.0
 11
187.1880000000001
 21
94.188000000000216
 31
0.0
  0
LINE
  5
A537
  8
1
 10
140.0
 20
112.0000000000001
 30
0.0
 11
140.0
 21
77.000000000000114
 31
0.0
  0
LINE
  5
A538
  8
1
 10
180.0
 20
112.0000000000001
 30
0.0
 11
180.0
 21
77.000000000000114
 31
0.0
  0
LINE
  5
A539
  8
0
 10
93.0
 20
93.188010851411008
 30
0.0
 11
93.200000000000045
 21
93.388010851410996
 31
0.0
  0
LINE
  5
A53A
  8
0
 10
106.7999999999999
 20
93.388010851410939
 30
0.0
 11
107.0
 21
93.188010851410937
 31
0.0
  0
LINE
  5
A53B
  8
0
 10
107.0
 20
80.888010851410939
 30
0.0
 11
106.5
 21
80.388010851410925
 31
0.0
  0
LINE
  5
A53C
  8
0
 10
93.499999999999986
 20
80.388010851410925
 30
0.0
 11
93.0
 21
80.888010851410939
 31
0.0
  0
LINE
  5
A53D
  8
0
 10
93.0
 20
80.888010851410939
 30
0.0
 11
93.0
 21
93.188010851411008
 31
0.0
  0
LINE
  5
A53E
  8
0
 10
107.0
 20
93.188010851410937
 30
0.0
 11
107.0
 21
80.888010851410939
 31
0.0
  0
LINE
  5
A53F
  8
0
 10
110.0
 20
106.5000000000001
 30
0.0
 11
109.5
 21
106.0000000000001
 31
0.0
  0
LINE
  5
A540
  8
0
 10
90.5
 20
106.0000000000001
 30
0.0
 11
90.0
 21
106.5000000000001
 31
0.0
  0
LINE
  5
A541
  8
0
 10
110.0
 20
107.0000000000001
 30
0.0
 11
110.0
 21
106.5000000000001
 31
0.0
  0
LINE
  5
A542
  8
0
 10
90.0
 20
106.5000000000001
 30
0.0
 11
90.0
 21
107.0000000000001
 31
0.0
  0
LINE
  5
A543
  8
0
 10
108.0
 20
103.5000000000001
 30
0.0
 11
108.0
 21
95.000000000000114
 31
0.0
  0
LINE
  5
A544
  8
0
 10
92.0
 20
95.000000000000114
 30
0.0
 11
92.0
 21
103.5000000000001
 31
0.0
  0
LINE
  5
A545
  8
0
 10
108.0
 20
95.000000000000114
 30
0.0
 11
107.0
 21
94.000000000000114
 31
0.0
  0
LINE
  5
A546
  8
0
 10
93.0
 20
94.000000000000114
 30
0.0
 11
92.0
 21
95.000000000000114
 31
0.0
  0
ARC
  5
A547
  8
0
 10
107.64999999999981
 20
104.3000000000002
 30
0.0
 40
0.8000000000000113
 50
180.0
 51
270.0
  0
ARC
  5
A548
  8
0
 10
92.350000000000136
 20
104.3000000000002
 30
0.0
 40
0.8000000000000113
 50
270.0
 51
0.0
  0
ARC
  5
A549
  8
0
 10
107.64999999999981
 20
105.2000000000001
 30
0.0
 40
0.8000000000000113
 50
90.0
 51
180.0
  0
ARC
  5
A54A
  8
0
 10
92.350000000000136
 20
105.2000000000001
 30
0.0
 40
0.8000000000000113
 50
0.0
 51
90.0
  0
LINE
  5
A54B
  8
0
 10
106.85000000000009
 20
105.2000000000001
 30
0.0
 11
106.85000000000009
 21
104.3000000000002
 31
0.0
  0
LINE
  5
A54C
  8
0
 10
93.149999999999864
 20
104.3000000000002
 30
0.0
 11
93.149999999999864
 21
105.2000000000001
 31
0.0
  0
LINE
  5
A54D
  8
0
 10
103.8880108514108
 20
80.388010851410925
 30
0.0
 11
103.5
 21
80.000000000000114
 31
0.0
  0
LINE
  5
A54E
  8
0
 10
96.5
 20
80.000000000000114
 30
0.0
 11
96.111989148589146
 21
80.388010851410925
 31
0.0
  0
LINE
  5
A54F
  8
0
 10
93.499999999999986
 20
80.388010851410925
 30
0.0
 11
106.5
 21
80.388010851410925
 31
0.0
  0
LINE
  5
A550
  8
0
 10
90.5
 20
106.0000000000001
 30
0.0
 11
109.5
 21
106.0000000000001
 31
0.0
  0
LINE
  5
A551
  8
0
 10
109.92156741649229
 20
107.0000000000001
 30
0.0
 11
110.0
 21
107.0000000000001
 31
0.0
  0
LINE
  5
A552
  8
0
 10
109.92156741649229
 20
107.0000000000001
 30
0.0
 11
109.92156741649229
 21
108.5000000000001
 31
0.0
  0
LINE
  5
A553
  8
0
 10
90.078432583507734
 20
108.5000000000001
 30
0.0
 11
90.078432583507734
 21
107.0000000000001
 31
0.0
  0
LINE
  5
A554
  8
0
 10
90.0
 20
107.0000000000001
 30
0.0
 11
90.078432583507734
 21
107.0000000000001
 31
0.0
  0
LINE
  5
A555
  8
0
 10
109.4174041009187
 20
109.0000000000001
 30
0.0
 11
90.582595899081298
 21
109.0000000000001
 31
0.0
  0
LINE
  5
A556
  8
0
 10
90.582595899081298
 20
109.0000000000001
 30
0.0
 11
90.078432583507734
 21
108.5000000000001
 31
0.0
  0
LINE
  5
A557
  8
0
 10
108.0
 20
95.000000000000114
 30
0.0
 11
92.0
 21
95.000000000000114
 31
0.0
  0
LINE
  5
A558
  8
0
 10
108.0
 20
103.5000000000001
 30
0.0
 11
92.0
 21
103.5000000000001
 31
0.0
  0
LINE
  5
A559
  8
0
 10
107.0
 20
94.000000000000114
 30
0.0
 11
93.0
 21
94.000000000000114
 31
0.0
  0
LINE
  5
A55A
  8
0
 10
96.5
 20
80.000000000000114
 30
0.0
 11
103.5
 21
80.000000000000114
 31
0.0
  0
LINE
  5
A55B
  8
0
 10
109.92156741649229
 20
108.5000000000001
 30
0.0
 11
109.4174041009187
 21
109.0000000000001
 31
0.0
  0
LINE
  5
A55C
  8
3
 10
107.1880000000001
 20
103.5000000000001
 30
0.0
 11
107.1880000000001
 21
94.188000000000216
 31
0.0
  0
LINE
  5
A55D
  8
3
 10
92.811999999999884
 20
103.5000000000001
 30
0.0
 11
92.811999999999884
 21
94.188000000000216
 31
0.0
  0
LINE
  5
A55E
  8
1
 10
100.0
 20
112.0000000000001
 30
0.0
 11
100.0
 21
77.000000000000114
 31
0.0
  0
LINE
  5
A55F
  8
0
 10
144.7437038534965
 20
93.388010851410939
 30
0.0
 11
144.65153295379599
 21
93.454149171578877
 31
0.0
  0
LINE
  5
A560
  8
0
 10
135.25
 20
93.600000000000136
 30
0.0
 11
135.25
 21
93.388010851410939
 31
0.0
  0
ARC
  5
A561
  8
0
 10
134.84999999999999
 20
93.600000000000136
 30
0.0
 40
0.3999999999999986
 50
0.0
 51
90.0
  0
ARC
  5
A562
  8
0
 10
145.12024718118079
 20
93.600029979943599
 30
0.0
 40
0.3999700543183903
 50
90.17719059161395
 51
163.91407998552091
  0
LINE
  5
A563
  8
0
 10
133.19999999999979
 20
93.388010851410939
 30
0.0
 11
146.80000000000001
 21
93.388010851410939
 31
0.0
  0
ARC
  5
A564
  8
0
 10
137.65159628683651
 20
92.392309755302563
 30
0.0
 40
1.3547659307561839
 50
63.054543744949328
 51
116.9454562550506
  0
POLYLINE
  5
A565
  8
0
 66
     1
 10
0.0
 20
0.0
 30
0.0
 70
   128
  0
VERTEX
  5
B05B
  8
0
 10
138.26549774472701
 20
93.600000000000136
 30
0.0
  0
VERTEX
  5
B05C
  8
0
 10
138.485860280743
 20
93.476223876895446
 30
0.0
  0
VERTEX
  5
B05D
  8
0
 10
138.60105698197501
 20
93.388010851410939
 30
0.0
  0
SEQEND
  5
B05E
  8
0
  0
POLYLINE
  5
A566
  8
0
 66
     1
 10
0.0
 20
0.0
 30
0.0
 70
   128
  0
VERTEX
  5
B05F
  8
0
 10
136.76998493656831
 20
93.388010851410939
 30
0.0
  0
VERTEX
  5
B060
  8
0
 10
136.82637612514031
 20
93.448958170418678
 30
0.0
  0
VERTEX
  5
B061
  8
0
 10
137.03769482894609
 20
93.600000000000136
 30
0.0
  0
SEQEND
  5
B062
  8
0
  0
POLYLINE
  5
A567
  8
0
 66
     1
 10
0.0
 20
0.0
 30
0.0
 70
   128
  0
VERTEX
  5
B063
  8
0
 10
144.6968074263269
 20
93.600000000000136
 30
0.0
  0
VERTEX
  5
B064
  8
0
 10
144.66230009962339
 20
93.495674503008331
 30
0.0
  0
VERTEX
  5
B065
  8
0
 10
144.62948612631561
 20
93.388010851410939
 30
0.0
  0
SEQEND
  5
B066
  8
0
  0
POLYLINE
  5
A568
  8
0
 66
     1
 10
0.0
 20
0.0
 30
0.0
 70
   128
  0
VERTEX
  5
B067
  8
0
 10
144.73593704519391
 20
93.710853099053281
 30
0.0
  0
VERTEX
  5
B068
  8
0
 10
144.73307938096201
 20
93.703537621095847
 30
0.0
  0
VERTEX
  5
B069
  8
0
 10
144.6968074263269
 20
93.600000000000136
 30
0.0
  0
SEQEND
  5
B06A
  8
0
  0
LINE
  5
A569
  8
0
 10
95.249999999999957
 20
93.600000000000136
 30
0.0
 11
95.249999999999957
 21
93.388010851410939
 31
0.0
  0
LINE
  5
A56A
  8
0
 10
104.75
 20
93.388010851410939
 30
0.0
 11
104.75
 21
93.600000000000136
 31
0.0
  0
ARC
  5
A56B
  8
0
 10
94.849999999999966
 20
93.600000000000136
 30
0.0
 40
0.3999999999999986
 50
0.0
 51
90.0
  0
ARC
  5
A56C
  8
0
 10
105.15000000000001
 20
93.600000000000136
 30
0.0
 40
0.3999999999999986
 50
90.0
 51
180.0
  0
POLYLINE
  5
A56D
  8
0
 66
     1
 10
0.0
 20
0.0
 30
0.0
 70
   128
  0
VERTEX
  5
B06B
  8
0
 10
96.286881624086391
 20
93.600000000000136
 30
0.0
  0
VERTEX
  5
B06C
  8
0
 10
96.437612314170806
 20
93.476223876895446
 30
0.0
  0
VERTEX
  5
B06D
  8
0
 10
96.519472050764051
 20
93.388010851410939
 30
0.0
  0
SEQEND
  5
B06E
  8
0
  0
POLYLINE
  5
A56E
  8
0
 66
     1
 10
0.0
 20
0.0
 30
0.0
 70
   128
  0
VERTEX
  5
B06F
  8
0
 10
95.462231410140717
 20
93.388010851410939
 30
0.0
  0
VERTEX
  5
B070
  8
0
 10
95.484458141185925
 20
93.448958170418678
 30
0.0
  0
VERTEX
  5
B071
  8
0
 10
95.578009280148507
 20
93.600000000000136
 30
0.0
  0
SEQEND
  5
B072
  8
0
  0
POLYLINE
  5
A56F
  8
0
 66
     1
 10
0.0
 20
0.0
 30
0.0
 70
   128
  0
VERTEX
  5
B073
  8
0
 10
104.42199071985149
 20
93.600000000000136
 30
0.0
  0
VERTEX
  5
B074
  8
0
 10
104.5022084481472
 20
93.476223876895446
 30
0.0
  0
VERTEX
  5
B075
  8
0
 10
104.5380155143588
 20
93.388010851410939
 30
0.0
  0
SEQEND
  5
B076
  8
0
  0
POLYLINE
  5
A570
  8
0
 66
     1
 10
0.0
 20
0.0
 30
0.0
 70
   128
  0
VERTEX
  5
B077
  8
0
 10
103.4809869806419
 20
93.388010851410939
 30
0.0
  0
VERTEX
  5
B078
  8
0
 10
103.5342059222576
 20
93.448958170418678
 30
0.0
  0
VERTEX
  5
B079
  8
0
 10
103.7131183759136
 20
93.600000000000136
 30
0.0
  0
SEQEND
  5
B07A
  8
0
  0
POLYLINE
  5
A571
  8
0
 66
     1
 10
0.0
 20
0.0
 30
0.0
 70
   128
  0
VERTEX
  5
B07B
  8
0
 10
103.7131183759136
 20
93.600000000000136
 30
0.0
  0
VERTEX
  5
B07C
  8
0
 10
103.8803605410082
 20
93.695747476985389
 30
0.0
  0
VERTEX
  5
B07D
  8
0
 10
104.0368953515768
 20
93.743612704585246
 30
0.0
  0
VERTEX
  5
B07E
  8
0
 10
104.1853138743671
 20
93.743785894605878
 30
0.0
  0
VERTEX
  5
B07F
  8
0
 10
104.30645769709611
 20
93.699464204383787
 30
0.0
  0
VERTEX
  5
B080
  8
0
 10
104.4125591158124
 20
93.611003342484096
 30
0.0
  0
VERTEX
  5
B081
  8
0
 10
104.42199071985149
 20
93.600000000000136
 30
0.0
  0
SEQEND
  5
B082
  8
0
  0
POLYLINE
  5
A572
  8
0
 66
     1
 10
0.0
 20
0.0
 30
0.0
 70
   128
  0
VERTEX
  5
B083
  8
0
 10
95.578009280148507
 20
93.600000000000136
 30
0.0
  0
VERTEX
  5
B084
  8
0
 10
95.687273301322165
 20
93.695747476985389
 30
0.0
  0
VERTEX
  5
B085
  8
0
 10
95.813723470193622
 20
93.743612704585246
 30
0.0
  0
VERTEX
  5
B086
  8
0
 10
95.962031820425494
 20
93.743785894605878
 30
0.0
  0
VERTEX
  5
B087
  8
0
 10
96.111060467800598
 20
93.699464204383787
 30
0.0
  0
VERTEX
  5
B088
  8
0
 10
96.270937943804782
 20
93.611003342484096
 30
0.0
  0
VERTEX
  5
B089
  8
0
 10
96.286881624086391
 20
93.600000000000136
 30
0.0
  0
SEQEND
  5
B08A
  8
0
  0
ARC
  5
A573
  8
0
 10
185.14999999999989
 20
93.600000000000136
 30
0.0
 40
0.4000000000000057
 50
90.0
 51
180.0
  0
ARC
  5
A574
  8
0
 10
174.84999999999999
 20
93.600000000000136
 30
0.0
 40
0.4000000000000057
 50
0.0
 51
90.0
  0
LINE
  5
A575
  8
0
 10
175.25
 20
93.600000000000136
 30
0.0
 11
175.25
 21
93.388010851410939
 31
0.0
  0
LINE
  5
A576
  8
0
 10
184.75
 20
93.388010851410939
 30
0.0
 11
184.75
 21
93.600000000000136
 31
0.0
  0
ARC
  5
A577
  8
0
 10
180.0
 20
92.000000000000682
 30
0.0
 40
1.749999999999472
 50
66.104491813831416
 51
113.8955081861686
  0
POLYLINE
  5
A578
  8
0
 66
     1
 10
0.0
 20
0.0
 30
0.0
 70
   128
  0
VERTEX
  5
B08B
  8
0
 10
179.29112765606209
 20
93.600000000000136
 30
0.0
  0
VERTEX
  5
B08C
  8
0
 10
179.09145292854399
 20
93.495674503008331
 30
0.0
  0
VERTEX
  5
B08D
  8
0
 10
178.9426172620733
 20
93.388010851410939
 30
0.0
  0
SEQEND
  5
B08E
  8
0
  0
ARC
  5
A579
  8
0
 10
180.18547943532559
 20
92.343334350127634
 30
0.0
 40
1.3613040411146009
 50
50.121755085194081
 51
67.388596039655184
  0
LINE
  5
A57A
  8
0
 10
93.200000000000045
 20
93.388010851410996
 30
0.0
 11
106.7999999999999
 21
93.388010851410939
 31
0.0
  0
LINE
  5
A57B
  8
0
 10
173.19999999999999
 20
93.388010851410939
 30
0.0
 11
186.7999999999999
 21
93.388010851410996
 31
0.0
  0
LINE
  5
AA4A
  8
0
 10
129.5
 20
-63.206754003889763
 30
0.0
 11
129.5
 21
-50.906754003889752
 31
0.0
  0
LINE
  5
AA4B
  8
0
 10
115.5
 20
-50.906754003889752
 30
0.0
 11
115.5
 21
-63.206754003889763
 31
0.0
  0
LINE
  5
AA4C
  8
0
 10
129.5
 20
-50.906754003889752
 30
0.0
 11
129.2999999999999
 21
-50.706754003889763
 31
0.0
  0
LINE
  5
AA4D
  8
0
 10
115.6999999999998
 20
-50.706754003889763
 30
0.0
 11
115.5
 21
-50.906754003889752
 31
0.0
  0
LINE
  5
AA4E
  8
0
 10
115.5
 20
-63.206754003889763
 30
0.0
 11
116.0
 21
-63.706754003889763
 31
0.0
  0
LINE
  5
AA4F
  8
0
 10
129.0
 20
-63.706754003889763
 30
0.0
 11
129.5
 21
-63.206754003889763
 31
0.0
  0
LINE
  5
AA50
  8
0
 10
112.5
 20
-37.594764855300561
 30
0.0
 11
113.0
 21
-38.094764855300561
 31
0.0
  0
LINE
  5
AA51
  8
0
 10
132.0
 20
-38.094764855300561
 30
0.0
 11
132.5
 21
-37.594764855300561
 31
0.0
  0
LINE
  5
AA52
  8
0
 10
113.0
 20
-35.094764855300561
 30
0.0
 11
112.5
 21
-35.594764855300561
 31
0.0
  0
LINE
  5
AA53
  8
0
 10
132.5
 20
-35.594764855300561
 30
0.0
 11
132.0
 21
-35.094764855300561
 31
0.0
  0
LINE
  5
AA54
  8
0
 10
114.5
 20
-49.094764855300561
 30
0.0
 11
115.5
 21
-50.094764855300561
 31
0.0
  0
LINE
  5
AA55
  8
0
 10
129.5
 20
-50.094764855300561
 30
0.0
 11
130.5
 21
-49.094764855300561
 31
0.0
  0
LINE
  5
AA56
  8
0
 10
114.5
 20
-48.594764855300333
 30
0.0
 11
114.5
 21
-49.094764855300561
 31
0.0
  0
LINE
  5
AA57
  8
0
 10
130.5
 20
-49.094764855300561
 30
0.0
 11
130.5
 21
-48.594764855300333
 31
0.0
  0
ARC
  5
AA58
  8
0
 10
114.84999999999989
 20
-39.794764855300549
 30
0.0
 40
0.8000000000000113
 50
270.0
 51
0.0
  0
ARC
  5
AA59
  8
0
 10
130.15000000000009
 20
-39.794764855300549
 30
0.0
 40
0.8000000000000113
 50
180.0
 51
270.0
  0
ARC
  5
AA5A
  8
0
 10
114.84999999999989
 20
-38.894764855300572
 30
0.0
 40
0.8000000000000113
 50
0.0
 51
90.0
  0
ARC
  5
AA5B
  8
0
 10
130.15000000000009
 20
-38.894764855300572
 30
0.0
 40
0.8000000000000113
 50
90.0
 51
180.0
  0
LINE
  5
AA5C
  8
0
 10
115.65000000000011
 20
-38.894764855300572
 30
0.0
 11
115.65000000000011
 21
-39.794764855300549
 31
0.0
  0
LINE
  5
AA5D
  8
0
 10
129.34999999999991
 20
-39.794764855300549
 30
0.0
 11
129.34999999999991
 21
-38.894764855300572
 31
0.0
  0
LINE
  5
AA5E
  8
0
 10
118.6119891485891
 20
-63.706754003889763
 30
0.0
 11
119.0
 21
-64.094764855300554
 31
0.0
  0
LINE
  5
AA5F
  8
0
 10
126.0
 20
-64.094764855300554
 30
0.0
 11
126.3880108514108
 21
-63.706754003889763
 31
0.0
  0
LINE
  5
AA60
  8
0
 10
129.0
 20
-63.706754003889763
 30
0.0
 11
116.0
 21
-63.706754003889763
 31
0.0
  0
LINE
  5
AA61
  8
0
 10
121.25
 20
-35.094764855300561
 30
0.0
 11
121.25
 21
-37.094764855300561
 31
0.0
  0
LINE
  5
AA62
  8
0
 10
123.75
 20
-37.094764855300561
 30
0.0
 11
121.25
 21
-37.094764855300561
 31
0.0
  0
LINE
  5
AA63
  8
0
 10
123.75
 20
-37.094764855300561
 30
0.0
 11
123.75
 21
-35.094764855300561
 31
0.0
  0
LINE
  5
AA64
  8
0
 10
114.5
 20
-49.094764855300561
 30
0.0
 11
130.5
 21
-49.094764855300561
 31
0.0
  0
LINE
  5
AA65
  8
0
 10
115.5
 20
-50.094764855300561
 30
0.0
 11
129.50000000000011
 21
-50.094764855300561
 31
0.0
  0
LINE
  5
AA66
  8
0
 10
126.0
 20
-64.094764855300554
 30
0.0
 11
119.0
 21
-64.094764855300554
 31
0.0
  0
LINE
  5
AA67
  8
3
 10
115.3119999999999
 20
-48.59476485530039
 30
0.0
 11
115.3119999999999
 21
-49.906764855300459
 31
0.0
  0
LINE
  5
AA68
  8
3
 10
129.6880000000001
 20
-48.59476485530039
 30
0.0
 11
129.6880000000001
 21
-49.906764855300459
 31
0.0
  0
LINE
  5
AA69
  8
1
 10
122.5
 20
-31.594764855300561
 30
0.0
 11
122.5
 21
-67.094764855300554
 31
0.0
  0
LINE
  5
AA6A
  8
0
 10
117.75
 20
-50.494764855300531
 30
0.0
 11
117.75
 21
-50.706754003889763
 31
0.0
  0
ARC
  5
AA6B
  8
0
 10
117.34999999999999
 20
-50.494764855300531
 30
0.0
 40
0.3999999999999986
 50
0.0
 51
90.0
  0
ARC
  5
AA6C
  8
0
 10
127.6202471811808
 20
-50.494734875357068
 30
0.0
 40
0.3999700543183903
 50
90.17719059161395
 51
163.9140799855208
  0
LINE
  5
AA6D
  8
0
 10
115.6999999999998
 20
-50.706754003889763
 30
0.0
 11
129.30000000000001
 21
-50.706754003889763
 31
0.0
  0
POLYLINE
  5
AA6E
  8
0
 66
     1
 10
0.0
 20
0.0
 30
0.0
 70
   128
  0
VERTEX
  5
B093
  8
0
 10
127.1968074263269
 20
-50.494764855300531
 30
0.0
  0
VERTEX
  5
B094
  8
0
 10
127.16230009962339
 20
-50.599090352292343
 30
0.0
  0
VERTEX
  5
B095
  8
0
 10
127.1294861263156
 20
-50.706754003889763
 30
0.0
  0
SEQEND
  5
B096
  8
0
  0
POLYLINE
  5
AA6F
  8
0
 66
     1
 10
0.0
 20
0.0
 30
0.0
 70
   128
  0
VERTEX
  5
B097
  8
0
 10
127.23593704519389
 20
-50.383911756247393
 30
0.0
  0
VERTEX
  5
B098
  8
0
 10
127.233079380962
 20
-50.391227234204827
 30
0.0
  0
VERTEX
  5
B099
  8
0
 10
127.1968074263269
 20
-50.494764855300531
 30
0.0
  0
SEQEND
  5
B09A
  8
0
  0
LINE
  5
AA70
  8
0
 10
155.0
 20
-40.594764855300561
 30
0.0
 11
190.0
 21
-40.594764855300561
 31
0.0
  0
LINE
  5
AA71
  8
0
 10
164.0
 20
-40.094764855300561
 30
0.0
 11
181.0
 21
-40.094764855300561
 31
0.0
  0
LINE
  5
AA72
  8
0
 10
155.0
 20
-34.594764855300561
 30
0.0
 11
190.0
 21
-34.594764855300561
 31
0.0
  0
LINE
  5
AA73
  8
0
 10
162.5
 20
-38.094764855300561
 30
0.0
 11
182.49999999999989
 21
-38.094764855300561
 31
0.0
  0
LINE
  5
AA74
  8
0
 10
162.5
 20
-35.094764855300561
 30
0.0
 11
182.49999999999989
 21
-35.094764855300561
 31
0.0
  0
LINE
  5
AA75
  8
1
 10
172.5
 20
-43.594764855300561
 30
0.0
 11
172.5
 21
-31.594764855300561
 31
0.0
  0
LINE
  5
AA76
  8
0
 10
181.0
 20
-40.094764855300561
 30
0.0
 11
181.0
 21
-38.094764855300561
 31
0.0
  0
LINE
  5
AA77
  8
0
 10
164.0
 20
-40.094764855300561
 30
0.0
 11
163.99999999999989
 21
-38.094764855300561
 31
0.0
  0
LINE
  5
AA78
  8
0
 10
182.5
 20
-38.094764855300561
 30
0.0
 11
182.49999999999989
 21
-35.094764855300561
 31
0.0
  0
LINE
  5
AA79
  8
0
 10
162.5
 20
-38.094764855300561
 30
0.0
 11
162.5
 21
-35.094764855300561
 31
0.0
  0
LINE
  5
AA7A
  8
0
 10
162.5
 20
-35.094764855300561
 30
0.0
 11
162.0
 21
-34.594764855300561
 31
0.0
  0
LINE
  5
AA7B
  8
0
 10
182.5
 20
-35.094764855300561
 30
0.0
 11
183.0
 21
-34.594764855300561
 31
0.0
  0
LINE
  5
AA7C
  8
0
 10
181.0
 20
-40.094764855300561
 30
0.0
 11
181.5
 21
-40.594764855300561
 31
0.0
  0
LINE
  5
AA7D
  8
0
 10
164.0
 20
-40.094764855300561
 30
0.0
 11
163.5
 21
-40.594764855300561
 31
0.0
  0
LINE
  5
AA7E
  8
0
 10
105.0
 20
-40.594764855300561
 30
0.0
 11
140.0
 21
-40.594764855300561
 31
0.0
  0
LINE
  5
AA7F
  8
0
 10
114.0
 20
-40.094764855300561
 30
0.0
 11
115.5916198487095
 21
-40.094764855300561
 31
0.0
  0
LINE
  5
AA80
  8
0
 10
129.40838015129049
 20
-40.094764855300561
 30
0.0
 11
131.0
 21
-40.094764855300561
 31
0.0
  0
LINE
  5
AA81
  8
0
 10
105.0
 20
-34.594764855300561
 30
0.0
 11
140.0
 21
-34.594764855300561
 31
0.0
  0
LINE
  5
AA82
  8
0
 10
112.5
 20
-38.094764855300561
 30
0.0
 11
132.49999999999989
 21
-38.094764855300561
 31
0.0
  0
LINE
  5
AA83
  8
0
 10
112.5
 20
-35.094764855300561
 30
0.0
 11
121.25
 21
-35.094764855300561
 31
0.0
  0
LINE
  5
AA84
  8
0
 10
123.75
 20
-35.094764855300561
 30
0.0
 11
132.49999999999989
 21
-35.094764855300561
 31
0.0
  0
LINE
  5
AA85
  8
0
 10
131.0
 20
-40.094764855300561
 30
0.0
 11
131.0
 21
-38.094764855300561
 31
0.0
  0
LINE
  5
AA86
  8
0
 10
114.0
 20
-40.094764855300561
 30
0.0
 11
113.9999999999999
 21
-38.094764855300561
 31
0.0
  0
LINE
  5
AA87
  8
0
 10
132.5
 20
-38.094764855300561
 30
0.0
 11
132.49999999999989
 21
-35.094764855300561
 31
0.0
  0
LINE
  5
AA88
  8
0
 10
112.5
 20
-38.094764855300561
 30
0.0
 11
112.5
 21
-35.094764855300561
 31
0.0
  0
LINE
  5
AA89
  8
0
 10
112.5
 20
-35.094764855300561
 30
0.0
 11
112.0
 21
-34.594764855300561
 31
0.0
  0
LINE
  5
AA8A
  8
0
 10
132.5
 20
-35.094764855300561
 30
0.0
 11
133.0
 21
-34.594764855300561
 31
0.0
  0
LINE
  5
AA8B
  8
0
 10
131.0
 20
-40.094764855300561
 30
0.0
 11
131.5
 21
-40.594764855300561
 31
0.0
  0
LINE
  5
AA8C
  8
0
 10
114.0
 20
-40.094764855300561
 30
0.0
 11
113.5
 21
-40.594764855300561
 31
0.0
  0
ARC
  5
AA8D
  8
0
 10
132.89229404736761
 20
-46.728739473162911
 30
0.0
 40
6.1339746178626706
 50
90.000028169602658
 51
124.38424729781229
  0
ARC
  5
AA8E
  8
0
 10
122.5
 20
-63.522968181865942
 30
0.0
 40
22.928203326565392
 50
72.412046317092162
 51
107.5879536829416
  0
ARC
  5
AA8F
  8
0
 10
112.1076951630391
 20
-46.728739473162911
 30
0.0
 40
6.1339746178626706
 50
55.615752702187613
 51
89.999971830394088
  0
LINE
  5
AA90
  8
0
 10
134.4999999999925
 20
-40.594764855300333
 30
0.0
 11
136.35640644926011
 21
-41.666561618510492
 31
0.0
  0
LINE
  5
AA91
  8
0
 10
110.4999999999925
 20
-40.594764855300333
 30
0.0
 11
108.6435935507144
 21
-41.666561618516631
 31
0.0
  0
LINE
  5
AA92
  8
0
 10
115.57179677536161
 20
-47.522968092084483
 30
0.0
 11
115.57179677536161
 21
-41.66656161851504
 31
0.0
  0
LINE
  5
AA93
  8
0
 10
108.6435935507144
 20
-41.666561618516631
 30
0.0
 11
108.6435935507144
 21
-47.522968092084263
 31
0.0
  0
LINE
  5
AA94
  8
0
 10
129.42820322462481
 20
-47.52296809208881
 30
0.0
 11
129.42820322462481
 21
-41.666561618511849
 31
0.0
  0
LINE
  5
AA95
  8
0
 10
136.35640644926011
 20
-41.666561618510492
 30
0.0
 11
136.35640644926011
 21
-47.522968092090402
 31
0.0
  0
LINE
  5
AA96
  8
0
 10
134.4999999999925
 20
-48.594764855300333
 30
0.0
 11
110.4999999999925
 21
-48.594764855300333
 31
0.0
  0
LINE
  5
AA97
  8
0
 10
110.4999999999925
 20
-48.594764855300333
 30
0.0
 11
108.6435935507144
 21
-47.522968092084263
 31
0.0
  0
LINE
  5
AA98
  8
0
 10
134.4999999999925
 20
-48.594764855300333
 30
0.0
 11
136.35640644926011
 21
-47.522968092090402
 31
0.0
  0
ARC
  5
AA99
  8
0
 10
112.1076951630391
 20
-42.460790237437749
 30
0.0
 40
6.1339746178626706
 50
270.00002816960267
 51
304.38424729781229
  0
ARC
  5
AA9A
  8
0
 10
122.5
 20
-25.666561528734949
 30
0.0
 40
22.928203326565392
 50
252.41204631705841
 51
287.58795368290782
  0
ARC
  5
AA9B
  8
0
 10
132.89229404736761
 20
-42.460790237437749
 30
0.0
 40
6.1339746178626706
 50
235.61575270218759
 51
269.99997183039409
  0
LINE
  5
AA9C
  8
0
 10
230.0000000000002
 20
-34.594764855300561
 30
0.0
 11
265.00000000000011
 21
-34.594764855300561
 31
0.0
  0
LINE
  5
AA9D
  8
0
 10
230.0000000000002
 20
-44.594764855300561
 30
0.0
 11
265.00000000000011
 21
-44.594764855300561
 31
0.0
  0
LINE
  5
AA9E
  8
0
 10
237.5
 20
-38.094764855300447
 30
0.0
 11
257.5
 21
-38.094764855300447
 31
0.0
  0
LINE
  5
AA9F
  8
0
 10
257.5
 20
-35.094764855300618
 30
0.0
 11
257.5
 21
-38.094764855300447
 31
0.0
  0
LINE
  5
AAA0
  8
0
 10
237.5
 20
-35.094764855300447
 30
0.0
 11
237.5
 21
-38.094764855300447
 31
0.0
  0
LINE
  5
AAA1
  8
0
 10
239.0000000000002
 20
-44.094764855300546
 30
0.0
 11
239.0
 21
-38.094764855300447
 31
0.0
  0
LINE
  5
AAA2
  8
0
 10
256.00000000000011
 20
-44.094764855300269
 30
0.0
 11
256.0
 21
-38.094764855300447
 31
0.0
  0
LINE
  5
AAA3
  8
0
 10
237.5
 20
-35.094764855300447
 30
0.0
 11
237.0
 21
-34.594764855300447
 31
0.0
  0
LINE
  5
AAA4
  8
0
 10
237.5
 20
-35.094764855300447
 30
0.0
 11
246.25
 21
-35.094764855300447
 31
0.0
  0
LINE
  5
AAA5
  8
0
 10
248.75
 20
-35.094764855300447
 30
0.0
 11
257.5
 21
-35.094764855300447
 31
0.0
  0
LINE
  5
AAA6
  8
0
 10
257.50000000000023
 20
-35.094764855300447
 30
0.0
 11
258.00000000000023
 21
-34.594764855300447
 31
0.0
  0
LINE
  5
AAA7
  8
0
 10
239.0000000000002
 20
-44.094764855300546
 30
0.0
 11
238.5000000000002
 21
-44.594764855300561
 31
0.0
  0
LINE
  5
AAA8
  8
0
 10
239.0000000000002
 20
-44.094764855300546
 30
0.0
 11
239.5
 21
-44.094764855300546
 31
0.0
  0
LINE
  5
AAA9
  8
0
 10
255.5
 20
-44.094764855300546
 30
0.0
 11
256.00000000000011
 21
-44.094764855300546
 31
0.0
  0
LINE
  5
AAAA
  8
0
 10
256.00000000000028
 20
-44.094764855300546
 30
0.0
 11
256.50000000000028
 21
-44.594764855300561
 31
0.0
  0
LINE
  5
AAAB
  8
0
 10
279.99999999999972
 20
-34.594764855300561
 30
0.0
 11
314.99999999999972
 21
-34.594764855300561
 31
0.0
  0
LINE
  5
AAAC
  8
0
 10
279.99999999999972
 20
-44.594764855300561
 30
0.0
 11
314.99999999999972
 21
-44.594764855300561
 31
0.0
  0
LINE
  5
AAAD
  8
0
 10
287.49999999999937
 20
-38.094764855300447
 30
0.0
 11
307.49999999999937
 21
-38.094764855300447
 31
0.0
  0
LINE
  5
AAAE
  8
1
 10
297.4999999999996
 20
-31.594764855300451
 30
0.0
 11
297.4999999999996
 21
-47.594764855300561
 31
0.0
  0
LINE
  5
AAAF
  8
0
 10
307.49999999999937
 20
-35.094764855300618
 30
0.0
 11
307.49999999999937
 21
-38.094764855300447
 31
0.0
  0
LINE
  5
AAB0
  8
0
 10
287.49999999999937
 20
-35.094764855300447
 30
0.0
 11
287.49999999999937
 21
-38.094764855300447
 31
0.0
  0
LINE
  5
AAB1
  8
0
 10
288.99999999999972
 20
-44.094764855300546
 30
0.0
 11
288.99999999999937
 21
-38.094764855300447
 31
0.0
  0
LINE
  5
AAB2
  8
0
 10
305.9999999999996
 20
-44.094764855300269
 30
0.0
 11
305.99999999999937
 21
-38.094764855300447
 31
0.0
  0
LINE
  5
AAB3
  8
0
 10
287.49999999999937
 20
-35.094764855300447
 30
0.0
 11
286.99999999999937
 21
-34.594764855300447
 31
0.0
  0
LINE
  5
AAB4
  8
0
 10
287.49999999999937
 20
-35.094764855300447
 30
0.0
 11
307.49999999999937
 21
-35.094764855300447
 31
0.0
  0
LINE
  5
AAB5
  8
0
 10
307.49999999999972
 20
-35.094764855300447
 30
0.0
 11
307.9999999999996
 21
-34.594764855300447
 31
0.0
  0
LINE
  5
AAB6
  8
0
 10
288.99999999999972
 20
-44.094764855300546
 30
0.0
 11
288.49999999999972
 21
-44.594764855300561
 31
0.0
  0
LINE
  5
AAB7
  8
0
 10
288.99999999999972
 20
-44.094764855300546
 30
0.0
 11
305.9999999999996
 21
-44.094764855300546
 31
0.0
  0
LINE
  5
AAB8
  8
0
 10
305.99999999999977
 20
-44.094764855300546
 30
0.0
 11
306.49999999999977
 21
-44.594764855300561
 31
0.0
  0
LINE
  5
AAB9
  8
0
 10
254.5
 20
-63.206754003889593
 30
0.0
 11
254.5
 21
-52.594764855300561
 31
0.0
  0
LINE
  5
AABA
  8
0
 10
240.49999999999989
 20
-52.594764855300561
 30
0.0
 11
240.5
 21
-63.206754003889593
 31
0.0
  0
LINE
  5
AABB
  8
0
 10
240.5
 20
-63.206754003889593
 30
0.0
 11
241.0
 21
-63.706754003889593
 31
0.0
  0
LINE
  5
AABC
  8
0
 10
254.0
 20
-63.706754003889593
 30
0.0
 11
254.5
 21
-63.206754003889593
 31
0.0
  0
LINE
  5
AABD
  8
0
 10
237.5
 20
-37.594764855300447
 30
0.0
 11
238.0
 21
-38.094764855300447
 31
0.0
  0
LINE
  5
AABE
  8
0
 10
257.0
 20
-38.094764855300447
 30
0.0
 11
257.5
 21
-37.594764855300447
 31
0.0
  0
LINE
  5
AABF
  8
0
 10
238.0
 20
-35.094764855300447
 30
0.0
 11
237.5
 21
-35.594764855300447
 31
0.0
  0
LINE
  5
AAC0
  8
0
 10
257.5
 20
-35.594764855300447
 30
0.0
 11
257.0
 21
-35.094764855300447
 31
0.0
  0
LINE
  5
AAC1
  8
0
 10
239.5
 20
-40.59476485530044
 30
0.0
 11
239.5
 21
-44.594764855300447
 31
0.0
  0
LINE
  5
AAC2
  8
0
 10
255.5
 20
-44.594764855300447
 30
0.0
 11
255.5
 21
-40.59476485530044
 31
0.0
  0
ARC
  5
AAC3
  8
0
 10
239.84999999999991
 20
-39.794764855300443
 30
0.0
 40
0.8000000000000113
 50
270.0
 51
0.0
  0
ARC
  5
AAC4
  8
0
 10
255.15000000000009
 20
-39.794764855300443
 30
0.0
 40
0.8000000000000113
 50
180.0
 51
270.0
  0
ARC
  5
AAC5
  8
0
 10
239.84999999999991
 20
-38.894764855300458
 30
0.0
 40
0.8000000000000113
 50
0.0
 51
90.0
  0
ARC
  5
AAC6
  8
0
 10
255.15000000000009
 20
-38.894764855300458
 30
0.0
 40
0.8000000000000113
 50
90.0
 51
180.0
  0
LINE
  5
AAC7
  8
0
 10
240.65000000000009
 20
-38.894764855300458
 30
0.0
 11
240.65000000000009
 21
-39.794764855300443
 31
0.0
  0
LINE
  5
AAC8
  8
0
 10
254.34999999999991
 20
-39.794764855300443
 30
0.0
 11
254.34999999999991
 21
-38.894764855300458
 31
0.0
  0
LINE
  5
AAC9
  8
0
 10
243.61198914858909
 20
-63.706754003889593
 30
0.0
 11
244.0
 21
-64.09476485530044
 31
0.0
  0
LINE
  5
AACA
  8
0
 10
251.0
 20
-64.09476485530044
 30
0.0
 11
251.38801085141091
 21
-63.706754003889593
 31
0.0
  0
LINE
  5
AACB
  8
0
 10
254.0
 20
-63.706754003889593
 30
0.0
 11
241.0
 21
-63.706754003889593
 31
0.0
  0
LINE
  5
AACC
  8
0
 10
246.25
 20
-35.094764855300447
 30
0.0
 11
246.25
 21
-37.094764855300447
 31
0.0
  0
LINE
  5
AACD
  8
0
 10
248.75
 20
-37.094764855300447
 30
0.0
 11
246.25
 21
-37.094764855300447
 31
0.0
  0
LINE
  5
AACE
  8
0
 10
248.75
 20
-37.094764855300447
 30
0.0
 11
248.75
 21
-35.094764855300447
 31
0.0
  0
LINE
  5
AACF
  8
0
 10
239.5
 20
-40.59476485530044
 30
0.0
 11
255.5
 21
-40.59476485530044
 31
0.0
  0
LINE
  5
AAD0
  8
0
 10
251.0
 20
-64.09476485530044
 30
0.0
 11
244.0
 21
-64.09476485530044
 31
0.0
  0
LINE
  5
AAD1
  8
3
 10
240.3119999999999
 20
-40.59476485530044
 30
0.0
 11
240.3119999999999
 21
-44.594764855300447
 31
0.0
  0
LINE
  5
AAD2
  8
3
 10
254.6880000000001
 20
-40.59476485530044
 30
0.0
 11
254.6880000000001
 21
-44.594764855300447
 31
0.0
  0
LINE
  5
AAD3
  8
1
 10
247.5
 20
-31.594764855300561
 30
0.0
 11
247.5
 21
-67.09476485530044
 31
0.0
  0
ARC
  5
AAD4
  8
0
 10
257.89229404736773
 20
-50.728739473163031
 30
0.0
 40
6.1339746178626706
 50
90.000028169602658
 51
124.38424729781229
  0
ARC
  5
AAD5
  8
0
 10
247.5
 20
-67.522968181866105
 30
0.0
 40
22.928203326565392
 50
72.412046317092162
 51
107.5879536829416
  0
ARC
  5
AAD6
  8
0
 10
237.1076951630391
 20
-50.728739473163031
 30
0.0
 40
6.1339746178626706
 50
55.615752702187578
 51
89.999971830394088
  0
LINE
  5
AAD7
  8
0
 10
259.4999999999925
 20
-44.594764855300447
 30
0.0
 11
261.35640644926002
 21
-45.666561618510599
 31
0.0
  0
LINE
  5
AAD8
  8
0
 10
235.4999999999925
 20
-44.594764855300447
 30
0.0
 11
233.6435935507144
 21
-45.666561618516852
 31
0.0
  0
LINE
  5
AAD9
  8
0
 10
240.57179677536161
 20
-51.522968092084596
 30
0.0
 11
240.57179677536161
 21
-45.66656161851521
 31
0.0
  0
LINE
  5
AADA
  8
0
 10
233.6435935507144
 20
-45.666561618516852
 30
0.0
 11
233.6435935507144
 21
-51.52296809208444
 31
0.0
  0
LINE
  5
AADB
  8
0
 10
254.42820322462481
 20
-51.522968092089037
 30
0.0
 11
254.42820322462481
 21
-45.66656161851202
 31
0.0
  0
LINE
  5
AADC
  8
0
 10
261.35640644926002
 20
-45.666561618510599
 30
0.0
 11
261.35640644926002
 21
-51.522968092090508
 31
0.0
  0
LINE
  5
AADD
  8
0
 10
259.4999999999925
 20
-52.594764855300561
 30
0.0
 11
235.4999999999925
 21
-52.594764855300561
 31
0.0
  0
LINE
  5
AADE
  8
0
 10
235.4999999999925
 20
-52.594764855300561
 30
0.0
 11
233.6435935507144
 21
-51.52296809208444
 31
0.0
  0
LINE
  5
AADF
  8
0
 10
259.4999999999925
 20
-52.594764855300561
 30
0.0
 11
261.35640644926002
 21
-51.522968092090508
 31
0.0
  0
ARC
  5
AAE0
  8
0
 10
237.1076951630391
 20
-46.460790237437926
 30
0.0
 40
6.1339746178626706
 50
270.00002816960267
 51
304.38424729781229
  0
ARC
  5
AAE1
  8
0
 10
247.5
 20
-29.66656152873518
 30
0.0
 40
22.928203326565392
 50
252.41204631705841
 51
287.58795368290782
  0
ARC
  5
AAE2
  8
0
 10
257.89229404736773
 20
-46.460790237437926
 30
0.0
 40
6.1339746178626706
 50
235.61575270218719
 51
269.99997183039409
  0
LINE
  5
AAE3
  8
0
 10
155.0
 20
-109.60523514469941
 30
0.0
 11
190.0
 21
-109.60523514469941
 31
0.0
  0
LINE
  5
AAE4
  8
0
 10
162.5
 20
-113.10523514469941
 30
0.0
 11
182.50000000000011
 21
-113.10523514469941
 31
0.0
  0
LINE
  5
AAE5
  8
1
 10
172.5
 20
-106.60523514469941
 30
0.0
 11
172.5
 21
-124.60523514469941
 31
0.0
  0
LINE
  5
AAE6
  8
0
 10
182.50000000000011
 20
-110.10523514469941
 30
0.0
 11
182.50000000000011
 21
-113.10523514469941
 31
0.0
  0
LINE
  5
AAE7
  8
0
 10
162.5
 20
-110.10523514469941
 30
0.0
 11
162.5
 21
-113.10523514469941
 31
0.0
  0
LINE
  5
AAE8
  8
3
 10
180.5
 20
-113.79323514469949
 30
0.0
 11
180.5
 21
-120.9172351446994
 31
0.0
  0
LINE
  5
AAE9
  8
0
 10
179.6880000000001
 20
-114.60523514469941
 30
0.0
 11
179.6880000000001
 21
-120.10523514469951
 31
0.0
  0
LINE
  5
AAEA
  8
0
 10
165.3119999999999
 20
-114.60523514469941
 30
0.0
 11
165.3119999999999
 21
-120.10523514469941
 31
0.0
  0
LINE
  5
AAEB
  8
0
 10
163.8119999999999
 20
-113.10523514469941
 30
0.0
 11
165.3119999999999
 21
-114.60523514469941
 31
0.0
  0
LINE
  5
AAEC
  8
3
 10
164.5
 20
-113.79323514469959
 30
0.0
 11
164.5
 21
-120.91723514469921
 31
0.0
  0
LINE
  5
AAED
  8
0
 10
165.3119999999999
 20
-114.60523514469941
 30
0.0
 11
179.6880000000001
 21
-114.60523514469941
 31
0.0
  0
LINE
  5
AAEE
  8
0
 10
155.0
 20
-121.60523514469941
 30
0.0
 11
190.0
 21
-121.60523514469941
 31
0.0
  0
LINE
  5
AAEF
  8
0
 10
162.5
 20
-110.10523514469941
 30
0.0
 11
162.0
 21
-109.60523514469941
 31
0.0
  0
LINE
  5
AAF0
  8
0
 10
162.5
 20
-110.10523514469941
 30
0.0
 11
182.50000000000011
 21
-110.10523514469941
 31
0.0
  0
LINE
  5
AAF1
  8
0
 10
182.50000000000011
 20
-110.10523514469951
 30
0.0
 11
183.0
 21
-109.60523514469951
 31
0.0
  0
LINE
  5
AAF2
  8
0
 10
105.0
 20
-109.60523514469941
 30
0.0
 11
140.0
 21
-109.60523514469941
 31
0.0
  0
LINE
  5
AAF3
  8
0
 10
112.5
 20
-113.10523514469941
 30
0.0
 11
132.50000000000011
 21
-113.10523514469941
 31
0.0
  0
LINE
  5
AAF4
  8
0
 10
132.50000000000011
 20
-110.10523514469941
 30
0.0
 11
132.50000000000011
 21
-113.10523514469941
 31
0.0
  0
LINE
  5
AAF5
  8
0
 10
112.5
 20
-110.10523514469941
 30
0.0
 11
112.5
 21
-113.10523514469941
 31
0.0
  0
LINE
  5
AAF6
  8
3
 10
130.5
 20
-113.79323514469949
 30
0.0
 11
130.5
 21
-115.60523514469941
 31
0.0
  0
LINE
  5
AAF7
  8
0
 10
129.6880000000001
 20
-114.60523514469941
 30
0.0
 11
129.6880000000001
 21
-115.45834769242759
 31
0.0
  0
LINE
  5
AAF8
  8
0
 10
115.3119999999999
 20
-114.60523514469929
 30
0.0
 11
115.3119999999999
 21
-115.45834769242769
 31
0.0
  0
LINE
  5
AAF9
  8
3
 10
114.5
 20
-113.79323514469949
 30
0.0
 11
114.5
 21
-115.60523514469941
 31
0.0
  0
LINE
  5
AAFA
  8
0
 10
115.312
 20
-114.60523514469941
 30
0.0
 11
115.6500000000002
 21
-114.60523514469941
 31
0.0
  0
LINE
  5
AAFB
  8
0
 10
129.34999999999999
 20
-114.60523514469941
 30
0.0
 11
129.6880000000001
 21
-114.60523514469941
 31
0.0
  0
LINE
  5
AAFC
  8
0
 10
105.0
 20
-121.60523514469941
 30
0.0
 11
114.5000000000001
 21
-121.60523514469941
 31
0.0
  0
LINE
  5
AAFD
  8
0
 10
130.50000000000011
 20
-121.60523514469941
 30
0.0
 11
140.0
 21
-121.60523514469941
 31
0.0
  0
LINE
  5
AAFE
  8
0
 10
112.5
 20
-110.10523514469941
 30
0.0
 11
112.0
 21
-109.60523514469941
 31
0.0
  0
LINE
  5
AAFF
  8
0
 10
112.5
 20
-110.10523514469941
 30
0.0
 11
121.2500000000001
 21
-110.10523514469941
 31
0.0
  0
LINE
  5
AB00
  8
0
 10
123.7500000000001
 20
-110.10523514469941
 30
0.0
 11
132.50000000000011
 21
-110.10523514469941
 31
0.0
  0
LINE
  5
AB01
  8
0
 10
132.50000000000011
 20
-110.10523514469951
 30
0.0
 11
133.0
 21
-109.60523514469951
 31
0.0
  0
LINE
  5
AB02
  8
0
 10
129.50000000000011
 20
-138.21722429328861
 30
0.0
 11
129.50000000000011
 21
-125.9172242932886
 31
0.0
  0
LINE
  5
AB03
  8
0
 10
115.5000000000001
 20
-125.9172242932886
 30
0.0
 11
115.5000000000001
 21
-138.21722429328861
 31
0.0
  0
LINE
  5
AB04
  8
0
 10
129.50000000000011
 20
-125.9172242932886
 30
0.0
 11
129.3000000000001
 21
-125.7172242932886
 31
0.0
  0
LINE
  5
AB05
  8
0
 10
115.6999999999999
 20
-125.7172242932886
 30
0.0
 11
115.5000000000001
 21
-125.9172242932886
 31
0.0
  0
LINE
  5
AB06
  8
0
 10
115.5000000000001
 20
-138.21722429328861
 30
0.0
 11
116.0000000000001
 21
-138.71722429328861
 31
0.0
  0
LINE
  5
AB07
  8
0
 10
129.00000000000011
 20
-138.71722429328861
 30
0.0
 11
129.50000000000011
 21
-138.21722429328861
 31
0.0
  0
LINE
  5
AB08
  8
0
 10
112.5000000000001
 20
-112.60523514469941
 30
0.0
 11
113.0000000000001
 21
-113.10523514469941
 31
0.0
  0
LINE
  5
AB09
  8
0
 10
132.00000000000011
 20
-113.10523514469941
 30
0.0
 11
132.50000000000011
 21
-112.60523514469941
 31
0.0
  0
LINE
  5
AB0A
  8
0
 10
113.0000000000001
 20
-110.10523514469941
 30
0.0
 11
112.5000000000001
 21
-110.60523514469941
 31
0.0
  0
LINE
  5
AB0B
  8
0
 10
132.50000000000011
 20
-110.60523514469941
 30
0.0
 11
132.00000000000011
 21
-110.10523514469941
 31
0.0
  0
LINE
  5
AB0C
  8
0
 10
114.5000000000001
 20
-124.10523514469941
 30
0.0
 11
115.5000000000001
 21
-125.10523514469941
 31
0.0
  0
LINE
  5
AB0D
  8
0
 10
129.50000000000011
 20
-125.10523514469941
 30
0.0
 11
130.50000000000011
 21
-124.10523514469941
 31
0.0
  0
LINE
  5
AB0E
  8
0
 10
114.5000000000001
 20
-115.60523514469941
 30
0.0
 11
114.5000000000001
 21
-124.10523514469941
 31
0.0
  0
LINE
  5
AB0F
  8
0
 10
130.50000000000011
 20
-124.10523514469941
 30
0.0
 11
130.50000000000011
 21
-115.60523514469941
 31
0.0
  0
ARC
  5
AB10
  8
0
 10
114.84999999999999
 20
-114.80523514469949
 30
0.0
 40
0.8000000000000113
 50
270.0
 51
0.0
  0
ARC
  5
AB11
  8
0
 10
130.1500000000002
 20
-114.80523514469949
 30
0.0
 40
0.8000000000000113
 50
180.0
 51
270.0
  0
ARC
  5
AB12
  8
0
 10
114.84999999999999
 20
-113.9052351446995
 30
0.0
 40
0.8000000000000113
 50
0.0
 51
90.0
  0
ARC
  5
AB13
  8
0
 10
130.1500000000002
 20
-113.9052351446995
 30
0.0
 40
0.8000000000000113
 50
90.0
 51
180.0
  0
LINE
  5
AB14
  8
0
 10
115.6500000000002
 20
-113.9052351446995
 30
0.0
 11
115.6500000000002
 21
-114.80523514469949
 31
0.0
  0
LINE
  5
AB15
  8
0
 10
129.34999999999999
 20
-114.80523514469949
 30
0.0
 11
129.34999999999999
 21
-113.9052351446995
 31
0.0
  0
LINE
  5
AB16
  8
0
 10
118.6119891485892
 20
-138.71722429328861
 30
0.0
 11
119.0000000000001
 21
-139.10523514469941
 31
0.0
  0
LINE
  5
AB17
  8
0
 10
126.0000000000001
 20
-139.10523514469941
 30
0.0
 11
126.388010851411
 21
-138.71722429328861
 31
0.0
  0
LINE
  5
AB18
  8
0
 10
129.00000000000011
 20
-138.71722429328861
 30
0.0
 11
116.0000000000001
 21
-138.71722429328861
 31
0.0
  0
LINE
  5
AB19
  8
0
 10
121.2500000000001
 20
-110.10523514469941
 30
0.0
 11
121.2500000000001
 21
-112.10523514469941
 31
0.0
  0
LINE
  5
AB1A
  8
0
 10
123.7500000000001
 20
-112.10523514469941
 30
0.0
 11
121.2500000000001
 21
-112.10523514469941
 31
0.0
  0
LINE
  5
AB1B
  8
0
 10
123.7500000000001
 20
-112.10523514469941
 30
0.0
 11
123.7500000000001
 21
-110.10523514469941
 31
0.0
  0
LINE
  5
AB1C
  8
0
 10
114.5000000000001
 20
-124.10523514469941
 30
0.0
 11
130.50000000000011
 21
-124.10523514469941
 31
0.0
  0
LINE
  5
AB1D
  8
0
 10
115.5000000000001
 20
-125.10523514469941
 30
0.0
 11
129.5000000000002
 21
-125.10523514469941
 31
0.0
  0
LINE
  5
AB1E
  8
0
 10
114.5000000000001
 20
-115.60523514469941
 30
0.0
 11
130.50000000000011
 21
-115.60523514469941
 31
0.0
  0
LINE
  5
AB1F
  8
0
 10
126.0000000000001
 20
-139.10523514469941
 30
0.0
 11
119.0000000000001
 21
-139.10523514469941
 31
0.0
  0
LINE
  5
AB20
  8
3
 10
115.312
 20
-115.60523514469941
 30
0.0
 11
115.312
 21
-124.9172351446993
 31
0.0
  0
LINE
  5
AB21
  8
3
 10
129.68800000000019
 20
-115.60523514469941
 30
0.0
 11
129.68800000000019
 21
-124.9172351446993
 31
0.0
  0
LINE
  5
AB22
  8
1
 10
122.5000000000001
 20
-106.60523514469941
 30
0.0
 11
122.5000000000001
 21
-142.10523514469941
 31
0.0
  0
LINE
  5
AB23
  8
0
 10
117.7500000000001
 20
-125.5052351446994
 30
0.0
 11
117.7500000000001
 21
-125.7172242932886
 31
0.0
  0
ARC
  5
AB24
  8
0
 10
117.35000000000009
 20
-125.5052351446994
 30
0.0
 40
0.3999999999999986
 50
0.0
 51
90.0
  0
ARC
  5
AB25
  8
0
 10
127.6202471811809
 20
-125.50520516475601
 30
0.0
 40
0.3999700543183903
 50
90.17719059161395
 51
163.9140799855208
  0
LINE
  5
AB26
  8
0
 10
115.6999999999999
 20
-125.7172242932886
 30
0.0
 11
129.3000000000001
 21
-125.7172242932886
 31
0.0
  0
POLYLINE
  5
AB27
  8
0
 66
     1
 10
0.0
 20
0.0
 30
0.0
 70
   128
  0
VERTEX
  5
B09B
  8
0
 10
127.196807426327
 20
-125.5052351446994
 30
0.0
  0
VERTEX
  5
B09C
  8
0
 10
127.16230009962349
 20
-125.6095606416912
 30
0.0
  0
VERTEX
  5
B09D
  8
0
 10
127.1294861263157
 20
-125.7172242932886
 30
0.0
  0
SEQEND
  5
B09E
  8
0
  0
POLYLINE
  5
AB28
  8
0
 66
     1
 10
0.0
 20
0.0
 30
0.0
 70
   128
  0
VERTEX
  5
B09F
  8
0
 10
127.23593704519401
 20
-125.3943820456463
 30
0.0
  0
VERTEX
  5
B0A0
  8
0
 10
127.2330793809621
 20
-125.4016975236037
 30
0.0
  0
VERTEX
  5
B0A1
  8
0
 10
127.196807426327
 20
-125.5052351446994
 30
0.0
  0
SEQEND
  5
B0A2
  8
0
  0
LINE
  5
AB29
  8
0
 10
230.0
 20
-109.60523514469941
 30
0.0
 11
265.0
 21
-109.60523514469941
 31
0.0
  0
LINE
  5
AB2A
  8
0
 10
230.0
 20
-141.60523514469941
 30
0.0
 11
265.0
 21
-141.60523514469941
 31
0.0
  0
LINE
  5
AB2B
  8
0
 10
280.0
 20
-109.60523514469941
 30
0.0
 11
315.0
 21
-109.60523514469941
 31
0.0
  0
LINE
  5
AB2C
  8
0
 10
280.0
 20
-141.60523514469941
 30
0.0
 11
315.0
 21
-141.60523514469941
 31
0.0
  0
LINE
  5
AB2D
  8
0
 10
290.3119999999999
 20
-141.10523514469941
 30
0.0
 11
304.68800000000022
 21
-141.10523514469941
 31
0.0
  0
LINE
  5
AB2E
  8
0
 10
287.50000000000011
 20
-113.10523514469941
 30
0.0
 11
307.50000000000011
 21
-113.10523514469941
 31
0.0
  0
LINE
  5
AB2F
  8
0
 10
290.3119999999999
 20
-114.60523514469941
 30
0.0
 11
288.8119999999999
 21
-113.10523514469941
 31
0.0
  0
LINE
  5
AB30
  8
0
 10
289.50000000000011
 20
-126.10523514469941
 30
0.0
 11
305.50000000000011
 21
-126.10523514469941
 31
0.0
  0
LINE
  5
AB31
  8
0
 10
307.50000000000011
 20
-110.10523514469941
 30
0.0
 11
307.50000000000011
 21
-113.10523514469941
 31
0.0
  0
LINE
  5
AB32
  8
0
 10
287.50000000000011
 20
-110.10523514469941
 30
0.0
 11
287.50000000000011
 21
-113.10523514469941
 31
0.0
  0
LINE
  5
AB33
  8
3
 10
305.5
 20
-113.79323514469949
 30
0.0
 11
305.50000000000011
 21
-126.10523514469941
 31
0.0
  0
LINE
  5
AB34
  8
0
 10
304.6880000000001
 20
-114.60523514469941
 30
0.0
 11
304.68800000000022
 21
-141.10523514469941
 31
0.0
  0
LINE
  5
AB35
  8
0
 10
290.3119999999999
 20
-114.60523514469941
 30
0.0
 11
290.31199999999978
 21
-141.10523514469941
 31
0.0
  0
LINE
  5
AB36
  8
3
 10
289.50000000000011
 20
-113.79323514469949
 30
0.0
 11
289.50000000000011
 21
-126.10523514469941
 31
0.0
  0
LINE
  5
AB37
  8
0
 10
290.3119999999999
 20
-114.60523514469941
 30
0.0
 11
304.6880000000001
 21
-114.60523514469941
 31
0.0
  0
LINE
  5
AB38
  8
0
 10
287.50000000000011
 20
-110.10523514469941
 30
0.0
 11
287.00000000000011
 21
-109.60523514469941
 31
0.0
  0
LINE
  5
AB39
  8
0
 10
287.50000000000011
 20
-110.10523514469941
 30
0.0
 11
307.50000000000011
 21
-110.10523514469941
 31
0.0
  0
LINE
  5
AB3A
  8
0
 10
307.50000000000011
 20
-110.10523514469951
 30
0.0
 11
308.0
 21
-109.60523514469951
 31
0.0
  0
LINE
  5
AB3B
  8
0
 10
289.81199999999978
 20
-141.60523514469941
 30
0.0
 11
290.31199999999978
 21
-141.10523514469941
 31
0.0
  0
LINE
  5
AB3C
  8
0
 10
304.68800000000022
 20
-141.10523514469941
 30
0.0
 11
305.18800000000022
 21
-141.60523514469941
 31
0.0
  0
LINE
  5
AB3D
  8
0
 10
240.3119999999999
 20
-141.10523514469941
 30
0.0
 11
254.68800000000019
 21
-141.10523514469941
 31
0.0
  0
LINE
  5
AB3E
  8
0
 10
239.81199999999981
 20
-141.60523514469941
 30
0.0
 11
240.3119999999999
 21
-141.10523514469941
 31
0.0
  0
LINE
  5
AB3F
  8
0
 10
254.68800000000019
 20
-141.10523514469941
 30
0.0
 11
255.1880000000001
 21
-141.60523514469941
 31
0.0
  0
LINE
  5
AB40
  8
0
 10
239.50000000000011
 20
-126.10523514469941
 30
0.0
 11
240.3119999999999
 21
-126.10523514469941
 31
0.0
  0
LINE
  5
AB41
  8
0
 10
254.68800000000019
 20
-126.10523514469941
 30
0.0
 11
255.50000000000011
 21
-126.10523514469941
 31
0.0
  0
LINE
  5
AB42
  8
0
 10
254.68799999999999
 20
-114.60523514469951
 30
0.0
 11
254.68800000000019
 21
-115.45834769242769
 31
0.0
  0
LINE
  5
AB43
  8
0
 10
254.68800000000019
 20
-124.9172351446993
 30
0.0
 11
254.68800000000019
 21
-141.10523514469941
 31
0.0
  0
LINE
  5
AB44
  8
0
 10
240.3119999999999
 20
-114.60523514469951
 30
0.0
 11
240.3119999999999
 21
-115.45834769242769
 31
0.0
  0
LINE
  5
AB45
  8
0
 10
240.3119999999999
 20
-124.9172351446993
 30
0.0
 11
240.3119999999999
 21
-141.10523514469941
 31
0.0
  0
LINE
  5
AB46
  8
0
 10
237.5
 20
-113.10523514469941
 30
0.0
 11
257.50000000000011
 21
-113.10523514469941
 31
0.0
  0
LINE
  5
AB47
  8
0
 10
257.50000000000011
 20
-110.10523514469941
 30
0.0
 11
257.50000000000011
 21
-113.10523514469941
 31
0.0
  0
LINE
  5
AB48
  8
0
 10
237.5
 20
-110.10523514469941
 30
0.0
 11
237.5
 21
-113.10523514469941
 31
0.0
  0
LINE
  5
AB49
  8
0
 10
240.3119999999999
 20
-114.60523514469941
 30
0.0
 11
240.65000000000009
 21
-114.60523514469929
 31
0.0
  0
LINE
  5
AB4A
  8
0
 10
254.34999999999991
 20
-114.60523514469951
 30
0.0
 11
254.68799999999999
 21
-114.60523514469951
 31
0.0
  0
LINE
  5
AB4B
  8
0
 10
237.5
 20
-110.10523514469941
 30
0.0
 11
237.0
 21
-109.60523514469941
 31
0.0
  0
LINE
  5
AB4C
  8
0
 10
237.5
 20
-110.10523514469941
 30
0.0
 11
246.25
 21
-110.10523514469941
 31
0.0
  0
LINE
  5
AB4D
  8
0
 10
248.75
 20
-110.10523514469941
 30
0.0
 11
257.50000000000011
 21
-110.10523514469941
 31
0.0
  0
LINE
  5
AB4E
  8
0
 10
257.50000000000011
 20
-110.10523514469951
 30
0.0
 11
258.0
 21
-109.60523514469951
 31
0.0
  0
LINE
  5
AB4F
  8
0
 10
254.5
 20
-138.21722429328861
 30
0.0
 11
254.5
 21
-125.9172242932886
 31
0.0
  0
LINE
  5
AB50
  8
0
 10
240.5
 20
-125.9172242932886
 30
0.0
 11
240.5
 21
-138.21722429328861
 31
0.0
  0
LINE
  5
AB51
  8
0
 10
254.5
 20
-125.9172242932886
 30
0.0
 11
254.30000000000001
 21
-125.7172242932886
 31
0.0
  0
LINE
  5
AB52
  8
0
 10
240.69999999999979
 20
-125.7172242932886
 30
0.0
 11
240.5
 21
-125.9172242932886
 31
0.0
  0
LINE
  5
AB53
  8
0
 10
240.5
 20
-138.21722429328861
 30
0.0
 11
241.0
 21
-138.71722429328861
 31
0.0
  0
LINE
  5
AB54
  8
0
 10
254.0
 20
-138.71722429328861
 30
0.0
 11
254.5
 21
-138.21722429328861
 31
0.0
  0
LINE
  5
AB55
  8
0
 10
237.5
 20
-112.60523514469941
 30
0.0
 11
238.0
 21
-113.10523514469941
 31
0.0
  0
LINE
  5
AB56
  8
0
 10
257.0
 20
-113.10523514469941
 30
0.0
 11
257.5
 21
-112.60523514469941
 31
0.0
  0
LINE
  5
AB57
  8
0
 10
238.0
 20
-110.10523514469941
 30
0.0
 11
237.5
 21
-110.60523514469941
 31
0.0
  0
LINE
  5
AB58
  8
0
 10
257.5
 20
-110.60523514469941
 30
0.0
 11
257.0
 21
-110.10523514469941
 31
0.0
  0
LINE
  5
AB59
  8
0
 10
239.5
 20
-124.10523514469941
 30
0.0
 11
240.5
 21
-125.10523514469941
 31
0.0
  0
LINE
  5
AB5A
  8
0
 10
254.5
 20
-125.10523514469941
 30
0.0
 11
255.5
 21
-124.10523514469941
 31
0.0
  0
LINE
  5
AB5B
  8
0
 10
239.5
 20
-115.60523514469941
 30
0.0
 11
239.5
 21
-124.10523514469941
 31
0.0
  0
LINE
  5
AB5C
  8
0
 10
255.5
 20
-124.10523514469941
 30
0.0
 11
255.5
 21
-115.60523514469941
 31
0.0
  0
ARC
  5
AB5D
  8
0
 10
239.84999999999991
 20
-114.80523514469949
 30
0.0
 40
0.8000000000000113
 50
270.0
 51
0.0
  0
ARC
  5
AB5E
  8
0
 10
255.15000000000009
 20
-114.80523514469949
 30
0.0
 40
0.8000000000000113
 50
180.0
 51
270.0
  0
ARC
  5
AB5F
  8
0
 10
239.84999999999991
 20
-113.9052351446995
 30
0.0
 40
0.8000000000000113
 50
0.0
 51
90.0
  0
ARC
  5
AB60
  8
0
 10
255.15000000000009
 20
-113.9052351446995
 30
0.0
 40
0.8000000000000113
 50
90.0
 51
180.0
  0
LINE
  5
AB61
  8
0
 10
240.65000000000009
 20
-113.9052351446995
 30
0.0
 11
240.65000000000009
 21
-114.80523514469949
 31
0.0
  0
LINE
  5
AB62
  8
0
 10
254.34999999999991
 20
-114.80523514469949
 30
0.0
 11
254.34999999999991
 21
-113.9052351446995
 31
0.0
  0
LINE
  5
AB63
  8
0
 10
243.61198914858909
 20
-138.71722429328861
 30
0.0
 11
244.0
 21
-139.10523514469941
 31
0.0
  0
LINE
  5
AB64
  8
0
 10
251.0
 20
-139.10523514469941
 30
0.0
 11
251.38801085141091
 21
-138.71722429328861
 31
0.0
  0
LINE
  5
AB65
  8
0
 10
254.0
 20
-138.71722429328861
 30
0.0
 11
241.0
 21
-138.71722429328861
 31
0.0
  0
LINE
  5
AB66
  8
0
 10
246.25
 20
-110.10523514469941
 30
0.0
 11
246.25
 21
-112.10523514469941
 31
0.0
  0
LINE
  5
AB67
  8
0
 10
248.75
 20
-112.10523514469941
 30
0.0
 11
246.25
 21
-112.10523514469941
 31
0.0
  0
LINE
  5
AB68
  8
0
 10
248.75
 20
-112.10523514469941
 30
0.0
 11
248.75
 21
-110.10523514469941
 31
0.0
  0
LINE
  5
AB69
  8
0
 10
239.5
 20
-124.10523514469941
 30
0.0
 11
255.5
 21
-124.10523514469941
 31
0.0
  0
LINE
  5
AB6A
  8
0
 10
240.5
 20
-125.10523514469941
 30
0.0
 11
254.50000000000011
 21
-125.10523514469941
 31
0.0
  0
LINE
  5
AB6B
  8
0
 10
239.5
 20
-115.60523514469941
 30
0.0
 11
255.5
 21
-115.60523514469941
 31
0.0
  0
LINE
  5
AB6C
  8
0
 10
251.0
 20
-139.10523514469941
 30
0.0
 11
244.0
 21
-139.10523514469941
 31
0.0
  0
LINE
  5
AB6D
  8
3
 10
240.3119999999999
 20
-115.60523514469941
 30
0.0
 11
240.3119999999999
 21
-124.9172351446993
 31
0.0
  0
LINE
  5
AB6E
  8
3
 10
254.6880000000001
 20
-115.60523514469941
 30
0.0
 11
254.6880000000001
 21
-124.9172351446993
 31
0.0
  0
LINE
  5
AB6F
  8
1
 10
247.5
 20
-106.60523514469941
 30
0.0
 11
247.5
 21
-144.60523514469941
 31
0.0
  0
LINE
  5
AB70
  8
0
 10
242.75
 20
-125.5052351446994
 30
0.0
 11
242.75
 21
-125.7172242932886
 31
0.0
  0
ARC
  5
AB71
  8
0
 10
242.34999999999999
 20
-125.5052351446994
 30
0.0
 40
0.3999999999999986
 50
0.0
 51
90.0
  0
ARC
  5
AB72
  8
0
 10
252.62024718118079
 20
-125.50520516475601
 30
0.0
 40
0.3999700543183903
 50
90.17719059161395
 51
163.9140799855208
  0
LINE
  5
AB73
  8
0
 10
240.69999999999979
 20
-125.7172242932886
 30
0.0
 11
254.30000000000001
 21
-125.7172242932886
 31
0.0
  0
POLYLINE
  5
AB74
  8
0
 66
     1
 10
0.0
 20
0.0
 30
0.0
 70
   128
  0
VERTEX
  5
B0A3
  8
0
 10
252.1968074263269
 20
-125.5052351446994
 30
0.0
  0
VERTEX
  5
B0A4
  8
0
 10
252.16230009962351
 20
-125.6095606416912
 30
0.0
  0
VERTEX
  5
B0A5
  8
0
 10
252.12948612631561
 20
-125.7172242932886
 30
0.0
  0
SEQEND
  5
B0A6
  8
0
  0
POLYLINE
  5
AB75
  8
0
 66
     1
 10
0.0
 20
0.0
 30
0.0
 70
   128
  0
VERTEX
  5
B0A7
  8
0
 10
252.23593704519399
 20
-125.3943820456463
 30
0.0
  0
VERTEX
  5
B0A8
  8
0
 10
252.2330793809621
 20
-125.4016975236037
 30
0.0
  0
VERTEX
  5
B0A9
  8
0
 10
252.1968074263269
 20
-125.5052351446994
 30
0.0
  0
SEQEND
  5
B0AA
  8
0
  0
LINE
  5
AB76
  8
3
 10
239.5
 20
-124.10523514469941
 30
0.0
 11
239.5
 21
-126.10523514469941
 31
0.0
  0
LINE
  5
AB77
  8
3
 10
255.5
 20
-124.10523514469941
 30
0.0
 11
255.5
 21
-126.10523514469941
 31
0.0
  0
LINE
  5
AB78
  8
3
 10
239.5
 20
-115.60523514469941
 30
0.0
 11
239.5
 21
-113.79323514469959
 31
0.0
  0
LINE
  5
AB79
  8
3
 10
255.5
 20
-115.60523514469941
 30
0.0
 11
255.49999999999989
 21
-113.79323514469959
 31
0.0
  0
LINE
  5
AB7A
  8
1
 10
297.5
 20
-106.60523514469941
 30
0.0
 11
297.5
 21
-144.60523514469941
 31
0.0
  0
TEXT
  5
AB7B
  8
0
 62
     3
 10
85.0
 20
0.0
 30
0.0
 40
3.2000000000000002
  1
■ボールインキャッチャーの取付け方法(下図)
  0
TEXT
  5
AB7C
  8
0
 62
     3
 10
113.43333333333329
 20
-74.094764855300554
 30
0.0
 40
3.2000000000000002
  1
組付け状態
 72
     1
 11
122.5
 21
-74.094764855300554
 31
0.0
  0
TEXT
  5
AB7D
  8
0
 62
     3
 10
253.8866666666668
 20
-19.594764855300561
 30
0.0
 40
3.2000000000000002
  1
10mmのベースの場合
 72
     1
 11
272.50000000000011
 21
-19.594764855300561
 31
0.0
  0
TEXT
  5
AB7E
  8
0
 62
     3
 10
119.3933333333333
 20
-94.605235144699435
 30
0.0
 40
3.2000000000000002
  1
10mmを超えるベースへの取付け
 72
     1
 11
147.5
 21
-94.605235144699435
 31
0.0
  0
TEXT
  5
AB7F
  8
0
 62
     3
 10
255.6466666666667
 20
-94.605235144699435
 30
0.0
 40
3.2000000000000002
  1
ブロックへの取付け
 72
     1
 11
272.5
 21
-94.605235144699435
 31
0.0
  0
LINE
  5
AB80
  8
3
 10
239.50000000000011
 20
-126.10523514469941
 30
0.0
 11
240.3119999999999
 21
-127.51166040044519
 31
0.0
  0
LINE
  5
AB81
  8
3
 10
255.5
 20
-126.10523514469941
 30
0.0
 11
254.68800000000019
 21
-127.511660400445
 31
0.0
  0
LINE
  5
AB82
  8
3
 10
289.50000000000011
 20
-126.10523514469941
 30
0.0
 11
290.3119999999999
 21
-127.51166040044519
 31
0.0
  0
LINE
  5
AB83
  8
3
 10
305.5
 20
-126.10523514469941
 30
0.0
 11
304.68800000000022
 21
-127.511660400445
 31
0.0
  0
LINE
  5
AB89
  8
0
 10
181.1880000000001
 20
-113.10523514469941
 30
0.0
 11
179.6880000000001
 21
-114.60523514469941
 31
0.0
  0
LINE
  5
AB8A
  8
0
 10
163.8119999999999
 20
-121.60523514469941
 30
0.0
 11
165.3119999999999
 21
-120.10523514469941
 31
0.0
  0
LINE
  5
AB8B
  8
0
 10
181.1880000000001
 20
-121.60523514469951
 30
0.0
 11
179.6880000000001
 21
-120.10523514469951
 31
0.0
  0
LINE
  5
AB8C
  8
0
 10
165.3119999999999
 20
-120.10523514469941
 30
0.0
 11
179.6880000000001
 21
-120.10523514469951
 31
0.0
  0
LINE
  5
AB8D
  8
0
 10
113.812
 20
-113.10523514469941
 30
0.0
 11
115.312
 21
-114.60523514469941
 31
0.0
  0
LINE
  5
AB8E
  8
0
 10
131.1880000000001
 20
-113.10523514469941
 30
0.0
 11
129.6880000000001
 21
-114.60523514469941
 31
0.0
  0
LINE
  5
AB8F
  8
0
 10
113.812
 20
-121.60523514469941
 30
0.0
 11
114.5000000000001
 21
-120.9172351446993
 31
0.0
  0
LINE
  5
AB90
  8
0
 10
131.1880000000001
 20
-121.60523514469951
 30
0.0
 11
130.50000000000011
 21
-120.9172351446994
 31
0.0
  0
LINE
  5
AB91
  8
0
 10
304.6880000000001
 20
-114.60523514469941
 30
0.0
 11
306.1880000000001
 21
-113.10523514469941
 31
0.0
  0
LINE
  5
AB92
  8
0
 10
240.3119999999999
 20
-114.60523514469941
 30
0.0
 11
238.8119999999999
 21
-113.10523514469941
 31
0.0
  0
LINE
  5
AB93
  8
0
 10
254.6880000000001
 20
-114.60523514469941
 30
0.0
 11
256.1880000000001
 21
-113.10523514469941
 31
0.0
  0
POLYLINE
  5
ABDB
  8
5
 66
     1
 10
0.0
 20
0.0
 30
0.0
 70
     1
  0
VERTEX
  5
B0AB
  8
5
 10
85.0
 20
-10.0
 30
0.0
  0
VERTEX
  5
B0AC
  8
5
 10
335.0
 20
-10.0
 30
0.0
  0
VERTEX
  5
B0AD
  8
5
 10
335.0
 20
-166.60523514469941
 30
0.0
  0
VERTEX
  5
B0AE
  8
5
 10
85.0
 20
-166.60523514469941
 30
0.0
  0
SEQEND
  5
B0AF
  8
5
  0
TEXT
  5
AC2C
  8
0
 62
     3
 10
129.68666666666661
 20
-19.594764855300561
 30
0.0
 40
3.2000000000000002
  1
6mmのベースの場合
 72
     1
 11
147.5
 21
-19.594764855300561
 31
0.0
  0
TEXT
  5
AC2E
  8
0
 62
     3
 10
165.2466666666667
 20
-74.094764855300554
 30
0.0
 40
3.2000000000000002
  1
取付け穴
 72
     1
 11
172.5
 21
-74.094764855300554
 31
0.0
  0
TEXT
  5
AC3F
  8
0
 62
     3
 10
238.43333333333339
 20
-74.094764855300554
 30
0.0
 40
3.2000000000000002
  1
組付け状態
 72
     1
 11
247.5
 21
-74.094764855300554
 31
0.0
  0
TEXT
  5
AC40
  8
0
 62
     3
 10
290.24666666666673
 20
-74.094764855300554
 30
0.0
 40
3.2000000000000002
  1
取付け穴
 72
     1
 11
297.5
 21
-74.094764855300554
 31
0.0
  0
TEXT
  5
AC41
  8
0
 62
     3
 10
113.43333333333339
 20
-151.60523514469941
 30
0.0
 40
3.2000000000000002
  1
組付け状態
 72
     1
 11
122.5000000000001
 21
-151.60523514469941
 31
0.0
  0
TEXT
  5
AC42
  8
0
 62
     3
 10
165.24666666666681
 20
-151.60523514469941
 30
0.0
 40
3.2000000000000002
  1
取付け穴
 72
     1
 11
172.50000000000011
 21
-151.60523514469941
 31
0.0
  0
TEXT
  5
AC43
  8
0
 62
     3
 10
238.43333333333339
 20
-151.60523514469941
 30
0.0
 40
3.2000000000000002
  1
組付け状態
 72
     1
 11
247.5
 21
-151.60523514469941
 31
0.0
  0
TEXT
  5
AC44
  8
0
 62
     3
 10
290.24666666666673
 20
-151.60523514469941
 30
0.0
 40
3.2000000000000002
  1
取付け穴
 72
     1
 11
297.5
 21
-151.60523514469941
 31
0.0
  0
TEXT
  5
ADB6
  8
0
 62
     3
 10
0.0
 20
0.0
 30
0.0
 40
10.0
  1
QCBA0816A
  7
STANDARD1
  0
TEXT
  5
AE9B
  8
0
 62
     3
 10
85.0
 20
-7.0
 30
0.0
 40
3.2000000000000002
  1
■Installation Instructions for "Standard" Ball-Lock Clamping Receptacles (see diagram below)
 41
0.85
  0
TEXT
  5
AE9C
  8
0
 62
     3
 10
101.28400000000001
 20
-81.094764855300554
 30
0.0
 40
3.2000000000000002
  1
Installed condition
 41
0.85
 72
     1
 11
122.5
 21
-81.094764855300554
 31
0.0
  0
TEXT
  5
AE9D
  8
0
 62
     3
 10
221.9080000000001
 20
-26.594764855300561
 30
0.0
 40
3.2000000000000002
  1
For installation on plate of 10 mm thickness.
 41
0.85
 72
     1
 11
272.50000000000011
 21
-26.594764855300561
 31
0.0
  0
TEXT
  5
AE9E
  8
0
 62
     3
 10
90.652000000000015
 20
-101.60523514469941
 30
0.0
 40
3.2000000000000002
  1
For installation on plate of over 10 mm thickness.
 41
0.85
 72
     1
 11
147.5
 21
-101.60523514469941
 31
0.0
  0
TEXT
  5
AE9F
  8
0
 62
     3
 10
243.98533333333339
 20
-101.60523514469941
 30
0.0
 40
3.2000000000000002
  1
For installation on block.
 41
0.85
 72
     1
 11
272.5
 21
-101.60523514469941
 31
0.0
  0
TEXT
  5
AEA0
  8
0
 62
     3
 10
97.587999999999994
 20
-26.594764855300561
 30
0.0
 40
3.2000000000000002
  1
For installation on plate of 6 mm thickness.
 41
0.85
 72
     1
 11
147.5
 21
-26.594764855300561
 31
0.0
  0
TEXT
  5
AEA1
  8
0
 62
     3
 10
153.7773333333333
 20
-81.094764855300554
 30
0.0
 40
3.2000000000000002
  1
Installation hole
 41
0.85
 72
     1
 11
172.5
 21
-81.094764855300554
 31
0.0
  0
TEXT
  5
AEA2
  8
0
 62
     3
 10
226.28399999999999
 20
-81.094764855300554
 30
0.0
 40
3.2000000000000002
  1
Installed condition
 41
0.85
 72
     1
 11
247.5
 21
-81.094764855300554
 31
0.0
  0
TEXT
  5
AEA3
  8
0
 62
     3
 10
278.77733333333327
 20
-81.094764855300554
 30
0.0
 40
3.2000000000000002
  1
Installation hole
 41
0.85
 72
     1
 11
297.5
 21
-81.094764855300554
 31
0.0
  0
TEXT
  5
AEA4
  8
0
 62
     3
 10
101.28400000000011
 20
-158.60523514469941
 30
0.0
 40
3.2000000000000002
  1
Installed condition
 41
0.85
 72
     1
 11
122.5000000000001
 21
-158.60523514469941
 31
0.0
  0
TEXT
  5
AEA5
  8
0
 62
     3
 10
153.77733333333339
 20
-158.60523514469941
 30
0.0
 40
3.2000000000000002
  1
Installation hole
 41
0.85
 72
     1
 11
172.50000000000011
 21
-158.60523514469941
 31
0.0
  0
TEXT
  5
AEA6
  8
0
 62
     3
 10
226.28399999999999
 20
-158.60523514469941
 30
0.0
 40
3.2000000000000002
  1
Installed condition
 41
0.85
 72
     1
 11
247.5
 21
-158.60523514469941
 31
0.0
  0
TEXT
  5
AEA7
  8
0
 62
     3
 10
278.77733333333327
 20
-158.60523514469941
 30
0.0
 40
3.2000000000000002
  1
Installation hole
 41
0.85
 72
     1
 11
297.5
 21
-158.60523514469941
 31
0.0
  0
ENDSEC
  0
EOF
