  0
SECTION
  2
HEADER
  9
$ACADVER
  1
AC1009
  9
$INSBASE
 10
0.0
 20
0.0
 30
0.0
  9
$EXTMIN
 10
0.0
 20
-139.60523514469941
 30
0.0
  9
$EXTMAX
 10
383.80437348160638
 20
140.0
 30
0.0
  9
$LIMMIN
 10
0.0
 20
0.0
  9
$LIMMAX
 10
187.5
 20
135.0
  9
$ORTHOMODE
 70
     1
  9
$REGENMODE
 70
     1
  9
$FILLMODE
 70
     1
  9
$QTEXTMODE
 70
     0
  9
$MIRRTEXT
 70
     0
  9
$DRAGMODE
 70
     2
  9
$LTSCALE
 40
5.0
  9
$OSMODE
 70
    37
  9
$ATTMODE
 70
     1
  9
$TEXTSIZE
 40
0.2
  9
$TRACEWID
 40
0.05
  9
$TEXTSTYLE
  7
STANDARD
  9
$CLAYER
  8
0
  9
$CELTYPE
  6
BYLAYER
  9
$CECOLOR
 62
   256
  9
$DIMSCALE
 40
0.5
  9
$DIMASZ
 40
3.0
  9
$DIMEXO
 40
2.0
  9
$DIMDLI
 40
0.3799999999999999
  9
$DIMRND
 40
0.0
  9
$DIMDLE
 40
0.0
  9
$DIMEXE
 40
2.0
  9
$DIMTP
 40
0.0
  9
$DIMTM
 40
0.0
  9
$DIMTXT
 40
3.2000000000000002
  9
$DIMCEN
 40
0.09
  9
$DIMTSZ
 40
0.0
  9
$DIMTOL
 70
     0
  9
$DIMLIM
 70
     0
  9
$DIMTIH
 70
     0
  9
$DIMTOH
 70
     0
  9
$DIMSE1
 70
     0
  9
$DIMSE2
 70
     0
  9
$DIMTAD
 70
     1
  9
$DIMZIN
 70
     8
  9
$DIMBLK
  1

  9
$DIMASO
 70
     0
  9
$DIMSHO
 70
     0
  9
$DIMPOST
  1

  9
$DIMAPOST
  1

  9
$DIMALT
 70
     0
  9
$DIMALTD
 70
     2
  9
$DIMALTF
 40
25.399999999999999
  9
$DIMLFAC
 40
1.0
  9
$DIMTOFL
 70
     0
  9
$DIMTVP
 40
1.6000000000000001
  9
$DIMTIX
 70
     1
  9
$DIMSOXD
 70
     0
  9
$DIMSAH
 70
     0
  9
$DIMBLK1
  1

  9
$DIMBLK2
  1

  9
$DIMSTYLE
  2
STANDARD
  9
$DIMCLRD
 70
     0
  9
$DIMCLRE
 70
     0
  9
$DIMCLRT
 70
     0
  9
$DIMTFAC
 40
1.0
  9
$DIMGAP
 40
1.0
  9
$LUNITS
 70
     2
  9
$LUPREC
 70
     4
  9
$SKETCHINC
 40
0.1
  9
$FILLETRAD
 40
0.4
  9
$AUNITS
 70
     0
  9
$AUPREC
 70
     0
  9
$MENU
  1
E:\r13\win\SUPPORT\ACAD
  9
$ELEVATION
 40
0.0
  9
$PELEVATION
 40
0.0
  9
$THICKNESS
 40
0.0
  9
$LIMCHECK
 70
     0
  9
$BLIPMODE
 70
     0
  9
$CHAMFERA
 40
0.0
  9
$CHAMFERB
 40
0.0
  9
$SKPOLY
 70
     0
  9
$TDCREATE
 40
2451824.6906229062
  9
$TDUPDATE
 40
2456814.5996641782
  9
$TDINDWG
 40
0.3391318981
  9
$TDUSRTIMER
 40
0.3391318981
  9
$USRTIMER
 70
     1
  9
$ANGBASE
 50
0.0
  9
$ANGDIR
 70
     0
  9
$PDMODE
 70
     0
  9
$PDSIZE
 40
0.0
  9
$PLINEWID
 40
0.0
  9
$COORDS
 70
     1
  9
$SPLFRAME
 70
     0
  9
$SPLINETYPE
 70
     6
  9
$SPLINESEGS
 70
     8
  9
$ATTDIA
 70
     0
  9
$ATTREQ
 70
     1
  9
$HANDLING
 70
     1
  9
$HANDSEED
  5
6839
  9
$SURFTAB1
 70
     6
  9
$SURFTAB2
 70
     6
  9
$SURFTYPE
 70
     6
  9
$SURFU
 70
     6
  9
$SURFV
 70
     6
  9
$UCSNAME
  2

  9
$UCSORG
 10
0.0
 20
0.0
 30
0.0
  9
$UCSXDIR
 10
1.0
 20
0.0
 30
0.0
  9
$UCSYDIR
 10
0.0
 20
1.0
 30
0.0
  9
$PUCSNAME
  2

  9
$PUCSORG
 10
0.0
 20
0.0
 30
0.0
  9
$PUCSXDIR
 10
1.0
 20
0.0
 30
0.0
  9
$PUCSYDIR
 10
0.0
 20
1.0
 30
0.0
  9
$USERI1
 70
     0
  9
$USERI2
 70
     1
  9
$USERI3
 70
     0
  9
$USERI4
 70
     0
  9
$USERI5
 70
     0
  9
$USERR1
 40
0.0
  9
$USERR2
 40
0.0
  9
$USERR3
 40
0.0
  9
$USERR4
 40
0.0
  9
$USERR5
 40
0.0
  9
$WORLDVIEW
 70
     1
  9
$SHADEDGE
 70
     3
  9
$SHADEDIF
 70
    70
  9
$TILEMODE
 70
     1
  9
$MAXACTVP
 70
    16
  9
$PLIMCHECK
 70
     0
  9
$PEXTMIN
 10
1.0000000000000000E+020
 20
1.0000000000000000E+020
 30
1.0000000000000000E+020
  9
$PEXTMAX
 10
-1.0000000000000000E+020
 20
-1.0000000000000000E+020
 30
-1.0000000000000000E+020
  9
$PLIMMIN
 10
0.0
 20
0.0
  9
$PLIMMAX
 10
12.0
 20
9.0
  9
$UNITMODE
 70
     0
  9
$VISRETAIN
 70
     0
  9
$PLINEGEN
 70
     0
  9
$PSLTSCALE
 70
     0
  0
ENDSEC
  0
SECTION
  2
TABLES
  0
TABLE
  2
VPORT
 70
     1
  0
VPORT
  2
*ACTIVE
 70
     0
 10
0.0
 20
0.0
 11
1.0
 21
1.0
 12
226.91237830319889
 22
130.0
 13
0.0
 23
0.0
 14
5.0
 24
5.0
 15
5.0
 25
5.0
 16
0.0
 26
0.0
 36
1.0
 17
0.0
 27
0.0
 37
0.0
 40
260.0
 41
1.7454798331015291
 42
50.0
 43
0.0
 44
0.0
 50
0.0
 51
0.0
 71
     0
 72
   500
 73
     1
 74
     0
 75
     0
 76
     0
 77
     0
 78
     2
  0
ENDTAB
  0
TABLE
  2
LTYPE
 70
     4
  0
LTYPE
  2
CONTINUOUS
 70
     0
  3
Solid Line
 72
    65
 73
     0
 40
0.0
  0
LTYPE
  2
CENTER
 70
     0
  3
____ _ ____ _ ____ _ ____ _ ____ _ ____ _ ____
 72
    65
 73
     4
 40
2.0
 49
1.25
 49
-0.25
 49
0.25
 49
-0.25
  0
LTYPE
  2
PHANTOM2
 70
     0
  3
___ _ _ ___ _ _ ___ _ _ ___ _ _
 72
    65
 73
     6
 40
1.25
 49
0.625
 49
-0.125
 49
0.125
 49
-0.125
 49
0.125
 49
-0.125
  0
LTYPE
  2
PHANTOM
 70
     0
  3
_____ _ _ _____ _ _ _____ _ _ _____ _ _ ____
 72
    65
 73
     6
 40
2.5
 49
1.25
 49
-0.25
 49
0.25
 49
-0.25
 49
0.25
 49
-0.25
  0
ENDTAB
  0
TABLE
  2
LAYER
 70
     5
  0
LAYER
  2
0
 70
     0
 62
     7
  6
CONTINUOUS
  0
LAYER
  2
1
 70
     0
 62
     1
  6
CENTER
  0
LAYER
  2
3
 70
     0
 62
     3
  6
CONTINUOUS
  0
LAYER
  2
DEFPOINTS
 70
     0
 62
     7
  6
CONTINUOUS
  0
LAYER
  2
5
 70
     0
 62
     3
  6
PHANTOM
  0
ENDTAB
  0
TABLE
  2
STYLE
 70
     2
  0
STYLE
  2
STANDARD
 70
     0
 40
0.0
 41
1.0
 50
0.0
 71
     0
 42
0.2
  3
TXT
  4
BIGFONT
  0
STYLE
  2
STANDARD1
 70
     0
 40
0.0
 41
1.0
 50
0.0
 71
     0
 42
3.0
  3
txt
  4

  0
ENDTAB
  0
TABLE
  2
VIEW
 70
     0
  0
ENDTAB
  0
TABLE
  2
UCS
 70
     0
  0
ENDTAB
  0
TABLE
  2
APPID
 70
     8
  0
APPID
  2
ACAD
 70
     0
  0
APPID
  2
ACAD_MLEADERVER
 70
     0
  0
APPID
  2
ACAD_EXEMPT_FROM_CAD_STANDARDS
 70
     0
  0
APPID
  2
ACAD_DSTYLE_DIMJAG
 70
     0
  0
APPID
  2
ACAD_DSTYLE_DIMTALN
 70
     0
  0
APPID
  2
ACAD_NAV_VCDISPLAY
 70
     0
  0
APPID
  2
ACADANNOTATIVE
 70
     0
  0
APPID
  2
ACAD_PSEXT
 70
     0
  0
ENDTAB
  0
TABLE
  2
DIMSTYLE
 70
     1
  0
DIMSTYLE
  2
STANDARD
 70
     0
  3

  4

  5

  6

  7

 40
1.0
 41
0.18
 42
0.0625
 43
0.38
 44
0.18
 45
0.0
 46
0.0
 47
0.0
 48
0.0
140
0.18
141
0.09
142
0.0
143
25.399999999999999
144
1.0
145
0.0
146
1.0
147
0.09
 71
     0
 72
     0
 73
     1
 74
     1
 75
     0
 76
     0
 77
     0
 78
     0
170
     0
171
     2
172
     0
173
     0
174
     0
175
     0
176
     0
177
     0
178
     0
  0
ENDTAB
  0
ENDSEC
  0
SECTION
  2
BLOCKS
  0
BLOCK
  8
0
  2
$MODEL_SPACE
 70
     0
 10
0.0
 20
0.0
 30
0.0
  3
$MODEL_SPACE
  1

  0
ENDBLK
  5
9
  8
0
  0
BLOCK
 67
     1
  8
0
  2
$PAPER_SPACE
 70
     0
 10
0.0
 20
0.0
 30
0.0
  3
$PAPER_SPACE
  1

  0
ENDBLK
  5
E
 67
     1
  8
0
  0
ENDSEC
  0
SECTION
  2
ENTITIES
  0
LINE
  5
4B9B
  8
0
 10
90.0
 20
94.499999999999986
 30
0.0
 11
90.5
 21
93.999999999999986
 31
0.0
  0
LINE
  5
4B9C
  8
0
 10
109.5
 20
93.999999999999986
 30
0.0
 11
110.0
 21
94.499999999999986
 31
0.0
  0
LINE
  5
4B9D
  8
0
 10
110.0
 20
94.499999999999986
 30
0.0
 11
110.0
 21
96.499999999999986
 31
0.0
  0
LINE
  5
4B9E
  8
0
 10
90.0
 20
96.499999999999986
 30
0.0
 11
90.0
 21
94.499999999999986
 31
0.0
  0
LINE
  5
4B9F
  8
0
 10
110.0
 20
96.499999999999986
 30
0.0
 11
109.5
 21
96.999999999999986
 31
0.0
  0
LINE
  5
4BA0
  8
0
 10
90.5
 20
96.999999999999986
 30
0.0
 11
90.0
 21
96.499999999999986
 31
0.0
  0
LINE
  5
4BA1
  8
0
 10
108.0
 20
80.999999999999986
 30
0.0
 11
108.0
 21
91.499999999999986
 31
0.0
  0
LINE
  5
4BA2
  8
0
 10
92.0
 20
91.499999999999986
 30
0.0
 11
92.0
 21
80.999999999999986
 31
0.0
  0
LINE
  5
4BA3
  8
0
 10
92.0
 20
80.999999999999986
 30
0.0
 11
93.0
 21
79.999999999999986
 31
0.0
  0
LINE
  5
4BA4
  8
0
 10
107.0
 20
79.999999999999986
 30
0.0
 11
108.0
 21
80.999999999999986
 31
0.0
  0
ARC
  5
4BA5
  8
0
 10
107.65000000000001
 20
92.299999999999955
 30
0.0
 40
0.8000000000000113
 50
180.0
 51
270.0
  0
ARC
  5
4BA6
  8
0
 10
92.350000000000023
 20
92.299999999999955
 30
0.0
 40
0.8000000000000113
 50
270.0
 51
0.0
  0
ARC
  5
4BA7
  8
0
 10
92.350000000000023
 20
93.200000000000031
 30
0.0
 40
0.7999999999999972
 50
0.0
 51
90.0
  0
ARC
  5
4BA8
  8
0
 10
107.65000000000001
 20
93.200000000000031
 30
0.0
 40
0.7999999999999972
 50
90.0
 51
180.0
  0
LINE
  5
4BA9
  8
0
 10
106.84999999999999
 20
92.299999999999955
 30
0.0
 11
106.84999999999999
 21
93.200000000000031
 31
0.0
  0
LINE
  5
4BAA
  8
0
 10
93.149999999999963
 20
93.200000000000031
 30
0.0
 11
93.149999999999963
 21
92.299999999999955
 31
0.0
  0
LINE
  5
4BAB
  8
0
 10
109.5
 20
93.999999999999986
 30
0.0
 11
90.5
 21
93.999999999999986
 31
0.0
  0
LINE
  5
4BAE
  8
0
 10
98.75
 20
94.999999999999986
 30
0.0
 11
98.75
 21
96.999999999999986
 31
0.0
  0
LINE
  5
4BAF
  8
0
 10
101.25
 20
94.999999999999986
 30
0.0
 11
98.75
 21
94.999999999999986
 31
0.0
  0
LINE
  5
4BB0
  8
0
 10
101.25
 20
96.999999999999986
 30
0.0
 11
101.25
 21
94.999999999999986
 31
0.0
  0
LINE
  5
4BB2
  8
0
 10
101.25
 20
96.999999999999986
 30
0.0
 11
109.5
 21
96.999999999999986
 31
0.0
  0
LINE
  5
4BB4
  8
0
 10
90.5
 20
96.999999999999986
 30
0.0
 11
98.75
 21
96.999999999999986
 31
0.0
  0
LINE
  5
4BB6
  8
0
 10
108.0
 20
91.499999999999986
 30
0.0
 11
92.0
 21
91.499999999999986
 31
0.0
  0
LINE
  5
4BB8
  8
0
 10
108.0
 20
80.999999999999986
 30
0.0
 11
92.0
 21
80.999999999999986
 31
0.0
  0
LINE
  5
4BBA
  8
0
 10
107.0
 20
79.999999999999986
 30
0.0
 11
93.0
 21
79.999999999999986
 31
0.0
  0
LINE
  5
4BBF
  8
3
 10
92.812000000000012
 20
80.187999999999974
 30
0.0
 11
92.812000000000012
 21
91.646887452271784
 31
0.0
  0
LINE
  5
4BC1
  8
3
 10
107.188
 20
80.187999999999974
 30
0.0
 11
107.188
 21
91.646887452271784
 31
0.0
  0
CIRCLE
  5
4BE4
  8
0
 10
100.0
 20
50.000000000000099
 30
0.0
 40
7.999999999999992
  0
CIRCLE
  5
4BE5
  8
3
 10
100.0
 20
50.000000000000099
 30
0.0
 40
7.1879999999999882
  0
CIRCLE
  5
4BE6
  8
0
 10
100.0
 20
50.000000000000099
 30
0.0
 40
6.2499999999999956
  0
CIRCLE
  5
4BE7
  8
0
 10
100.0
 20
50.0
 30
0.0
 40
4.9999999999999956
  0
CIRCLE
  5
4BE9
  8
0
 10
100.0
 20
50.0
 30
0.0
 40
10.0
  0
LINE
  5
4BED
  8
0
 10
101.25
 20
117.07843258350771
 30
0.0
 11
101.25
 21
122.15877081724059
 31
0.0
  0
LINE
  5
4BEF
  8
0
 10
101.25
 20
131.84122918275921
 30
0.0
 11
101.25
 21
136.92156741649219
 31
0.0
  0
LINE
  5
4BF2
  8
0
 10
98.75
 20
122.15877081724059
 30
0.0
 11
98.75
 21
117.07843258350771
 31
0.0
  0
LINE
  5
4BF3
  8
0
 10
98.75
 20
136.92156741649219
 30
0.0
 11
98.75
 21
131.84122918275921
 31
0.0
  0
LINE
  5
4C73
  8
1
 10
100.0
 20
100.0
 30
0.0
 11
100.0
 21
76.999999999999943
 31
0.0
  0
LINE
  5
4C74
  8
0
 10
150.0
 20
94.499999999999986
 30
0.0
 11
149.5
 21
93.999999999999986
 31
0.0
  0
LINE
  5
4C75
  8
0
 10
130.5
 20
93.999999999999986
 30
0.0
 11
130.0
 21
94.499999999999986
 31
0.0
  0
LINE
  5
4C76
  8
0
 10
130.0
 20
94.499999999999986
 30
0.0
 11
130.0
 21
94.999999999999986
 31
0.0
  0
LINE
  5
4C77
  8
0
 10
150.0
 20
94.999999999999986
 30
0.0
 11
150.0
 21
94.499999999999986
 31
0.0
  0
LINE
  5
4C78
  8
0
 10
132.0
 20
80.999999999999986
 30
0.0
 11
132.0
 21
91.499999999999986
 31
0.0
  0
LINE
  5
4C79
  8
0
 10
148.0
 20
91.499999999999986
 30
0.0
 11
148.0
 21
80.999999999999986
 31
0.0
  0
LINE
  5
4C7A
  8
0
 10
148.0
 20
80.999999999999986
 30
0.0
 11
147.0
 21
79.999999999999986
 31
0.0
  0
LINE
  5
4C7B
  8
0
 10
133.0
 20
79.999999999999986
 30
0.0
 11
132.0
 21
80.999999999999986
 31
0.0
  0
ARC
  5
4C7C
  8
0
 10
132.34999999999991
 20
92.299999999999955
 30
0.0
 40
0.8000000000000113
 50
270.0
 51
0.0
  0
ARC
  5
4C7D
  8
0
 10
147.64999999999989
 20
92.299999999999955
 30
0.0
 40
0.8000000000000113
 50
180.0
 51
270.0
  0
ARC
  5
4C7E
  8
0
 10
147.64999999999989
 20
93.200000000000031
 30
0.0
 40
0.8000000000000113
 50
90.0
 51
180.0
  0
ARC
  5
4C7F
  8
0
 10
132.34999999999991
 20
93.200000000000031
 30
0.0
 40
0.8000000000000113
 50
0.0
 51
90.0
  0
LINE
  5
4C80
  8
0
 10
133.15000000000001
 20
92.299999999999955
 30
0.0
 11
133.15000000000001
 21
93.200000000000031
 31
0.0
  0
LINE
  5
4C81
  8
0
 10
146.84999999999991
 20
93.200000000000031
 30
0.0
 11
146.84999999999991
 21
92.299999999999955
 31
0.0
  0
LINE
  5
4C82
  8
0
 10
130.5
 20
93.999999999999986
 30
0.0
 11
149.5
 21
93.999999999999986
 31
0.0
  0
LINE
  5
4C84
  8
0
 10
149.4174041009187
 20
96.999999999999986
 30
0.0
 11
130.5825958990813
 21
96.999999999999986
 31
0.0
  0
LINE
  5
4C85
  8
0
 10
130.5825958990813
 20
96.999999999999986
 30
0.0
 11
130.07843258350769
 21
96.499999999999986
 31
0.0
  0
POLYLINE
  5
4C87
  8
0
 66
     1
 10
0.0
 20
0.0
 30
0.0
 70
   128
  0
VERTEX
  5
682B
  8
0
 10
149.92156741649211
 20
96.499999999999986
 30
0.0
  0
VERTEX
  5
682C
  8
0
 10
149.6389183432853
 20
96.780367968460723
 30
0.0
  0
VERTEX
  5
682D
  8
0
 10
149.4174041009187
 20
96.999999999999986
 30
0.0
  0
SEQEND
  5
682E
  8
0
  0
LINE
  5
4C88
  8
0
 10
149.92156741649211
 20
96.499999999999986
 30
0.0
 11
149.92156741649211
 21
94.999999999999986
 31
0.0
  0
LINE
  5
4C89
  8
0
 10
130.07843258350769
 20
94.999999999999986
 30
0.0
 11
130.07843258350769
 21
96.499999999999986
 31
0.0
  0
LINE
  5
4C8A
  8
0
 10
130.0
 20
94.999999999999986
 30
0.0
 11
130.07843258350769
 21
94.999999999999986
 31
0.0
  0
LINE
  5
4C8B
  8
0
 10
149.92156741649211
 20
94.999999999999986
 30
0.0
 11
150.0
 21
94.999999999999986
 31
0.0
  0
LINE
  5
4C8C
  8
0
 10
132.0
 20
91.499999999999986
 30
0.0
 11
148.0
 21
91.499999999999986
 31
0.0
  0
LINE
  5
4C8D
  8
0
 10
132.0
 20
80.999999999999986
 30
0.0
 11
148.0
 21
80.999999999999986
 31
0.0
  0
LINE
  5
4C8E
  8
0
 10
133.0
 20
79.999999999999986
 30
0.0
 11
147.0
 21
79.999999999999986
 31
0.0
  0
LINE
  5
4C8F
  8
3
 10
147.18799999999999
 20
80.187999999999974
 30
0.0
 11
147.18799999999999
 21
91.646887452271784
 31
0.0
  0
LINE
  5
4C90
  8
3
 10
132.81200000000001
 20
80.187999999999974
 30
0.0
 11
132.81200000000001
 21
91.646887452271784
 31
0.0
  0
LINE
  5
4C91
  8
1
 10
140.0
 20
100.0
 30
0.0
 11
140.0
 21
76.999999999999986
 31
0.0
  0
LINE
  5
4C92
  8
1
 10
100.0
 20
140.0
 30
0.0
 11
100.0
 21
113.9999999999999
 31
0.0
  0
LINE
  5
4C94
  8
1
 10
87.0
 20
127.0
 30
0.0
 11
113.0
 21
127.0
 31
0.0
  0
LINE
  5
4C95
  8
1
 10
100.0
 20
62.999999999999993
 30
0.0
 11
100.0
 21
36.999999999999993
 31
0.0
  0
LINE
  5
4C96
  8
1
 10
87.0
 20
50.0
 30
0.0
 11
113.0
 21
50.0
 31
0.0
  0
CIRCLE
  5
4FE6
  8
0
 10
100.0
 20
127.0
 30
0.0
 40
10.0
  0
CIRCLE
  5
4FE7
  8
0
 10
100.0
 20
127.0
 30
0.0
 40
5.0
  0
TEXT
  5
5E3F
  8
0
 62
     3
 10
113.80437348160631
 20
0.0
 30
0.0
 40
3.2000000000000002
  1
■取付け方法 (下図)
  0
TEXT
  5
5E44
  8
0
 62
     3
 10
118.80437348160631
 20
-106.60523514469929
 30
0.0
 40
3.2000000000000002
  1
ケースを使用しない場合
  0
LINE
  5
5E45
  8
0
 10
139.51637348160619
 20
-51.594764855300461
 30
0.0
 11
174.51637348160619
 21
-51.594764855300603
 31
0.0
  0
LINE
  5
5E46
  8
0
 10
147.01637348160631
 20
-55.094764855300447
 30
0.0
 11
167.01637348160631
 21
-55.094764855300447
 31
0.0
  0
LINE
  5
5E47
  8
0
 10
167.01637348160631
 20
-52.094764855300447
 30
0.0
 11
167.01637348160631
 21
-55.094764855300447
 31
0.0
  0
LINE
  5
5E48
  8
0
 10
147.01637348160631
 20
-52.094764855300447
 30
0.0
 11
147.01637348160631
 21
-55.094764855300447
 31
0.0
  0
LINE
  5
5E49
  8
0
 10
148.51637348160631
 20
-57.094764855300447
 30
0.0
 11
148.51637348160631
 21
-55.094764855300447
 31
0.0
  0
LINE
  5
5E4A
  8
0
 10
165.51637348160631
 20
-57.094764855300603
 30
0.0
 11
165.51637348160631
 21
-55.094764855300447
 31
0.0
  0
LINE
  5
5E4B
  8
0
 10
139.51637348160619
 20
-57.594764855300447
 30
0.0
 11
174.51637348160619
 21
-57.594764855300447
 31
0.0
  0
LINE
  5
5E54
  8
0
 10
278.80437348160649
 20
-51.594764855300582
 30
0.0
 11
313.80437348160649
 21
-51.594764855300582
 31
0.0
  0
LINE
  5
5E55
  8
0
 10
286.3043734816066
 20
-55.094764855300582
 30
0.0
 11
306.3043734816066
 21
-55.094764855300582
 31
0.0
  0
LINE
  5
5E56
  8
1
 10
296.3043734816066
 20
-48.594764855300582
 30
0.0
 11
296.3043734816066
 21
-72.094764855300554
 31
0.0
  0
LINE
  5
5E57
  8
0
 10
306.3043734816066
 20
-52.094764855300582
 30
0.0
 11
306.3043734816066
 21
-55.094764855300582
 31
0.0
  0
LINE
  5
5E58
  8
0
 10
286.3043734816066
 20
-52.094764855300582
 30
0.0
 11
286.3043734816066
 21
-55.094764855300582
 31
0.0
  0
LINE
  5
5E59
  8
3
 10
304.3043734816066
 20
-55.782764855300542
 30
0.0
 11
304.3043734816066
 21
-57.594764855300582
 31
0.0
  0
LINE
  5
5E5A
  8
0
 10
303.49237348160688
 20
-56.594764855300241
 30
0.0
 11
303.49237348160659
 21
-57.447877403028791
 31
0.0
  0
LINE
  5
5E5B
  8
0
 10
289.11637348160639
 20
-56.594764855300546
 30
0.0
 11
289.11637348160639
 21
-57.44787740302894
 31
0.0
  0
LINE
  5
5E5C
  8
3
 10
288.3043734816066
 20
-55.782764855300741
 30
0.0
 11
288.3043734816066
 21
-57.594764855300582
 31
0.0
  0
LINE
  5
5E5D
  8
0
 10
289.11637348160639
 20
-56.594764855300546
 30
0.0
 11
289.45437348160658
 21
-56.594764855300546
 31
0.0
  0
LINE
  5
5E5E
  8
0
 10
278.80437348160649
 20
-63.594764855300561
 30
0.0
 11
288.3043734816066
 21
-63.594764855300561
 31
0.0
  0
LINE
  5
5E70
  8
0
 10
139.51637348160631
 20
-121.60523514469941
 30
0.0
 11
174.51637348160631
 21
-121.60523514469929
 31
0.0
  0
LINE
  5
5E71
  8
1
 10
157.01637348160639
 20
-118.60523514469929
 30
0.0
 11
157.01637348160639
 21
-132.60523514469929
 31
0.0
  0
LINE
  5
5E72
  8
0
 10
162.01637348160639
 20
-122.60523514469929
 30
0.0
 11
162.01637348160639
 21
-126.60523514469929
 31
0.0
  0
LINE
  5
5E73
  8
0
 10
152.01637348160639
 20
-122.60523514469929
 30
0.0
 11
152.01637348160639
 21
-126.60523514469929
 31
0.0
  0
LINE
  5
5E74
  8
0
 10
152.01637348160639
 20
-126.60523514469929
 30
0.0
 11
162.01637348160639
 21
-126.60523514469929
 31
0.0
  0
LINE
  5
5E75
  8
0
 10
150.7462028893892
 20
-128.80523514469931
 30
0.0
 11
163.28654407382359
 21
-128.80523514469931
 31
0.0
  0
LINE
  5
5E76
  8
0
 10
139.51637348160631
 20
-129.60523514469929
 30
0.0
 11
174.51637348160631
 21
-129.60523514469929
 31
0.0
  0
LINE
  5
5E77
  8
0
 10
152.01637348160639
 20
-122.60523514469929
 30
0.0
 11
151.01637348160639
 21
-121.60523514469929
 31
0.0
  0
LINE
  5
5E78
  8
0
 10
152.01637348160639
 20
-122.60523514469929
 30
0.0
 11
162.01637348160639
 21
-122.60523514469929
 31
0.0
  0
LINE
  5
5E79
  8
0
 10
162.01637348160639
 20
-122.60523514469929
 30
0.0
 11
163.01637348160639
 21
-121.60523514469919
 31
0.0
  0
LINE
  5
5E7A
  8
0
 10
162.01637348160639
 20
-126.60523514469929
 30
0.0
 11
163.28654407382359
 21
-128.80523514469931
 31
0.0
  0
LINE
  5
5E7B
  8
0
 10
152.01637348160639
 20
-126.60523514469929
 30
0.0
 11
150.7462028893892
 21
-128.80523514469931
 31
0.0
  0
LINE
  5
5E7C
  8
0
 10
150.7462028893892
 20
-128.80523514469931
 30
0.0
 11
150.7462028893892
 21
-129.60523514469929
 31
0.0
  0
LINE
  5
5E7D
  8
0
 10
163.28654407382359
 20
-128.80523514469931
 30
0.0
 11
163.28654407382359
 21
-129.60523514469929
 31
0.0
  0
LINE
  5
5E7E
  8
0
 10
147.01637348160631
 20
-52.094764855300447
 30
0.0
 11
146.51637348160631
 21
-51.594764855300461
 31
0.0
  0
LINE
  5
5E7F
  8
0
 10
167.01637348160631
 20
-52.094764855300653
 30
0.0
 11
167.51637348160631
 21
-51.594764855300653
 31
0.0
  0
LINE
  5
5E80
  8
0
 10
147.01637348160631
 20
-52.094764855300447
 30
0.0
 11
167.01637348160631
 21
-52.094764855300447
 31
0.0
  0
LINE
  5
5E81
  8
0
 10
148.51637348160631
 20
-57.094764855300447
 30
0.0
 11
148.01637348160631
 21
-57.594764855300447
 31
0.0
  0
LINE
  5
5E82
  8
0
 10
165.51637348160631
 20
-57.094764855300447
 30
0.0
 11
166.01637348160631
 21
-57.594764855300447
 31
0.0
  0
LINE
  5
5E83
  8
0
 10
148.51637348160631
 20
-57.094764855300603
 30
0.0
 11
150.10799333031591
 21
-57.094764855300603
 31
0.0
  0
LINE
  5
5E8A
  8
0
 10
286.3043734816066
 20
-52.094764855300582
 30
0.0
 11
285.8043734816066
 21
-51.594764855300582
 31
0.0
  0
LINE
  5
5E8B
  8
0
 10
286.3043734816066
 20
-52.094764855300582
 30
0.0
 11
306.3043734816066
 21
-52.094764855300582
 31
0.0
  0
LINE
  5
5E8C
  8
0
 10
306.3043734816066
 20
-52.094764855300667
 30
0.0
 11
306.8043734816066
 21
-51.594764855300667
 31
0.0
  0
LINE
  5
5E90
  8
0
 10
189.51637348160631
 20
-51.594764855300468
 30
0.0
 11
224.51637348160631
 21
-51.594764855300468
 31
0.0
  0
LINE
  5
5E91
  8
0
 10
197.01637348160631
 20
-55.094764855300468
 30
0.0
 11
217.01637348160639
 21
-55.094764855300468
 31
0.0
  0
LINE
  5
5E92
  8
1
 10
207.01637348160631
 20
-48.594764855300468
 30
0.0
 11
207.01637348160631
 21
-60.594764855300468
 31
0.0
  0
LINE
  5
5E93
  8
0
 10
217.01637348160639
 20
-52.094764855300461
 30
0.0
 11
217.01637348160639
 21
-55.094764855300468
 31
0.0
  0
LINE
  5
5E94
  8
0
 10
197.01637348160631
 20
-52.094764855300461
 30
0.0
 11
197.01637348160631
 21
-55.094764855300468
 31
0.0
  0
LINE
  5
5E95
  8
0
 10
198.51637348160639
 20
-57.094764855300461
 30
0.0
 11
198.51637348160639
 21
-55.094764855300468
 31
0.0
  0
LINE
  5
5E96
  8
0
 10
215.51637348160639
 20
-57.09476485530061
 30
0.0
 11
215.51637348160639
 21
-55.094764855300468
 31
0.0
  0
LINE
  5
5E97
  8
0
 10
189.51637348160631
 20
-57.594764855300468
 30
0.0
 11
224.51637348160631
 21
-57.594764855300468
 31
0.0
  0
LINE
  5
5E9E
  8
0
 10
328.80437348160649
 20
-51.594764855300582
 30
0.0
 11
363.80437348160649
 21
-51.594764855300582
 31
0.0
  0
LINE
  5
5E9F
  8
0
 10
336.3043734816066
 20
-55.094764855300582
 30
0.0
 11
356.3043734816066
 21
-55.094764855300582
 31
0.0
  0
LINE
  5
5EA0
  8
0
 10
339.1163734816065
 20
-56.594764855300582
 30
0.0
 11
337.61637348160639
 21
-55.094764855300582
 31
0.0
  0
LINE
  5
5EA1
  8
1
 10
346.3043734816066
 20
-48.594764855300582
 30
0.0
 11
346.3043734816066
 21
-66.594764855300582
 31
0.0
  0
LINE
  5
5EA2
  8
0
 10
356.3043734816066
 20
-52.094764855300582
 30
0.0
 11
356.3043734816066
 21
-55.094764855300582
 31
0.0
  0
LINE
  5
5EA3
  8
0
 10
336.3043734816066
 20
-52.094764855300582
 30
0.0
 11
336.3043734816066
 21
-55.094764855300582
 31
0.0
  0
LINE
  5
5EA4
  8
3
 10
354.30437348160649
 20
-55.782764855300542
 30
0.0
 11
354.3043734816066
 21
-62.906764855300601
 31
0.0
  0
LINE
  5
5EA5
  8
0
 10
353.49237348160671
 20
-56.594764855300468
 30
0.0
 11
353.49237348160659
 21
-62.094764855300667
 31
0.0
  0
LINE
  5
5EA6
  8
0
 10
339.1163734816065
 20
-56.594764855300582
 30
0.0
 11
339.11637348160639
 21
-62.094764855300582
 31
0.0
  0
LINE
  5
5EA7
  8
3
 10
338.3043734816066
 20
-55.782764855300648
 30
0.0
 11
338.3043734816066
 21
-62.906764855300388
 31
0.0
  0
LINE
  5
5EA8
  8
0
 10
339.1163734816065
 20
-56.594764855300582
 30
0.0
 11
353.49237348160671
 21
-56.594764855300546
 31
0.0
  0
LINE
  5
5EA9
  8
0
 10
328.80437348160649
 20
-63.594764855300561
 30
0.0
 11
363.80437348160649
 21
-63.594764855300561
 31
0.0
  0
LINE
  5
5EBA
  8
0
 10
197.01637348160631
 20
-52.094764855300461
 30
0.0
 11
196.51637348160639
 21
-51.594764855300468
 31
0.0
  0
LINE
  5
5EBB
  8
0
 10
217.01637348160639
 20
-52.094764855300667
 30
0.0
 11
217.51637348160631
 21
-51.594764855300667
 31
0.0
  0
LINE
  5
5EBC
  8
0
 10
197.01637348160631
 20
-52.094764855300461
 30
0.0
 11
217.01637348160639
 21
-52.094764855300461
 31
0.0
  0
LINE
  5
5EBD
  8
0
 10
198.51637348160639
 20
-57.094764855300461
 30
0.0
 11
198.01637348160631
 21
-57.594764855300468
 31
0.0
  0
LINE
  5
5EBE
  8
0
 10
215.51637348160631
 20
-57.094764855300461
 30
0.0
 11
216.01637348160639
 21
-57.594764855300468
 31
0.0
  0
LINE
  5
5EBF
  8
0
 10
198.51637348160639
 20
-57.09476485530061
 30
0.0
 11
215.51637348160639
 21
-57.09476485530061
 31
0.0
  0
LINE
  5
5EC6
  8
0
 10
336.3043734816066
 20
-52.094764855300582
 30
0.0
 11
335.8043734816066
 21
-51.594764855300582
 31
0.0
  0
LINE
  5
5EC7
  8
0
 10
336.3043734816066
 20
-52.094764855300582
 30
0.0
 11
356.3043734816066
 21
-52.094764855300582
 31
0.0
  0
LINE
  5
5EC8
  8
0
 10
356.3043734816066
 20
-52.094764855300667
 30
0.0
 11
356.8043734816066
 21
-51.594764855300667
 31
0.0
  0
ARC
  5
5ECF
  8
0
 10
167.40866752898151
 20
-63.728739473163039
 30
0.0
 40
6.1339746178626706
 50
90.000028169602658
 51
124.3842472978118
  0
ARC
  5
5ED0
  8
0
 10
157.01637348161381
 20
-80.522968181866034
 30
0.0
 40
22.928203326565392
 50
72.412046317092162
 51
107.5879536829419
  0
ARC
  5
5ED1
  8
0
 10
146.62406864465279
 20
-63.728739473163039
 30
0.0
 40
6.1339746178626706
 50
55.615752702188153
 51
89.999971830397342
  0
LINE
  5
5ED2
  8
0
 10
169.01637348160631
 20
-57.594764855300447
 30
0.0
 11
170.8727799308738
 21
-58.666561618510642
 31
0.0
  0
LINE
  5
5ED3
  8
0
 10
145.01637348160631
 20
-57.594764855300447
 30
0.0
 11
143.15996703232821
 21
-58.666561618516752
 31
0.0
  0
LINE
  5
5ED4
  8
0
 10
150.08817025697539
 20
-64.522968092084682
 30
0.0
 11
150.08817025697539
 21
-58.666561618515189
 31
0.0
  0
LINE
  5
5ED5
  8
0
 10
143.15996703232821
 20
-58.666561618516752
 30
0.0
 11
143.15996703232821
 21
-64.522968092084454
 31
0.0
  0
LINE
  5
5ED6
  8
0
 10
163.94457670623859
 20
-64.522968092088973
 30
0.0
 11
163.94457670623859
 21
-58.666561618511921
 31
0.0
  0
LINE
  5
5ED7
  8
0
 10
170.8727799308738
 20
-58.666561618510642
 30
0.0
 11
170.8727799308738
 21
-64.522968092090537
 31
0.0
  0
LINE
  5
5ED8
  8
0
 10
169.01637348160631
 20
-65.594764855300468
 30
0.0
 11
145.01637348160631
 21
-65.594764855300468
 31
0.0
  0
LINE
  5
5ED9
  8
0
 10
145.01637348160631
 20
-65.594764855300468
 30
0.0
 11
143.15996703232821
 21
-64.522968092084454
 31
0.0
  0
LINE
  5
5EDA
  8
0
 10
169.01637348160631
 20
-65.594764855300468
 30
0.0
 11
170.8727799308738
 21
-64.522968092090537
 31
0.0
  0
ARC
  5
5EDB
  8
0
 10
146.62406864465279
 20
-59.460790237437877
 30
0.0
 40
6.1339746178626706
 50
270.00002816960591
 51
304.3842472978119
  0
ARC
  5
5EDC
  8
0
 10
157.01637348161381
 20
-42.666561528735038
 30
0.0
 40
22.928203326565392
 50
252.4120463170579
 51
287.58795368290782
  0
ARC
  5
5EDD
  8
0
 10
167.40866752898151
 20
-59.460790237437877
 30
0.0
 40
6.1339746178626706
 50
235.61575270218819
 51
269.99997183039409
  0
LINE
  5
5EF2
  8
0
 10
147.01637348160631
 20
-54.594764855300447
 30
0.0
 11
147.51637348160631
 21
-55.094764855300447
 31
0.0
  0
LINE
  5
5EF3
  8
0
 10
166.51637348160631
 20
-55.094764855300447
 30
0.0
 11
167.01637348160631
 21
-54.594764855300447
 31
0.0
  0
LINE
  5
5EF4
  8
0
 10
167.01637348160631
 20
-52.594764855300447
 30
0.0
 11
166.51637348160631
 21
-52.094764855300447
 31
0.0
  0
LINE
  5
5EF5
  8
0
 10
147.51637348160631
 20
-52.094764855300447
 30
0.0
 11
147.01637348160631
 21
-52.594764855300447
 31
0.0
  0
LINE
  5
5EF6
  8
0
 10
165.01637348160631
 20
-68.094764855300468
 30
0.0
 11
165.01637348160631
 21
-65.594764855300468
 31
0.0
  0
LINE
  5
5EF7
  8
0
 10
149.01637348160631
 20
-65.594764855300468
 30
0.0
 11
149.01637348160631
 21
-68.094764855300468
 31
0.0
  0
LINE
  5
5EF8
  8
0
 10
149.01637348160631
 20
-68.094764855300468
 30
0.0
 11
150.01637348160631
 21
-69.094764855300468
 31
0.0
  0
LINE
  5
5EF9
  8
0
 10
164.01637348160631
 20
-69.094764855300468
 30
0.0
 11
165.01637348160631
 21
-68.094764855300468
 31
0.0
  0
ARC
  5
5EFA
  8
0
 10
164.66637348160631
 20
-56.794764855300564
 30
0.0
 40
0.8000000000000112
 50
180.0
 51
270.0
  0
ARC
  5
5EFB
  8
0
 10
149.3663734816063
 20
-56.794764855300564
 30
0.0
 40
0.8000000000000112
 50
270.0
 51
0.0
  0
ARC
  5
5EFC
  8
0
 10
149.3663734816063
 20
-55.894764855300458
 30
0.0
 40
0.7999999999999972
 50
0.0
 51
90.0
  0
ARC
  5
5EFD
  8
0
 10
164.66637348160631
 20
-55.894764855300458
 30
0.0
 40
0.7999999999999972
 50
90.0
 51
180.0
  0
LINE
  5
5EFE
  8
0
 10
163.8663734816063
 20
-56.794764855300564
 30
0.0
 11
163.8663734816063
 21
-55.894764855300458
 31
0.0
  0
LINE
  5
5EFF
  8
0
 10
150.16637348160631
 20
-55.894764855300458
 30
0.0
 11
150.16637348160631
 21
-56.794764855300564
 31
0.0
  0
LINE
  5
5F00
  8
0
 10
155.76637348160631
 20
-54.094764855300461
 30
0.0
 11
155.76637348160631
 21
-52.094764855300447
 31
0.0
  0
LINE
  5
5F01
  8
0
 10
158.26637348160631
 20
-54.094764855300461
 30
0.0
 11
155.76637348160631
 21
-54.094764855300461
 31
0.0
  0
LINE
  5
5F02
  8
0
 10
158.26637348160631
 20
-52.094764855300447
 30
0.0
 11
158.26637348160631
 21
-54.094764855300461
 31
0.0
  0
LINE
  5
5F03
  8
0
 10
165.01637348160631
 20
-68.094764855300468
 30
0.0
 11
149.01637348160631
 21
-68.094764855300468
 31
0.0
  0
LINE
  5
5F04
  8
0
 10
164.01637348160631
 20
-69.094764855300468
 30
0.0
 11
150.01637348160631
 21
-69.094764855300468
 31
0.0
  0
LINE
  5
5F05
  8
3
 10
149.82837348160629
 20
-68.906764855300565
 30
0.0
 11
149.82837348160629
 21
-65.594764855300468
 31
0.0
  0
LINE
  5
5F06
  8
3
 10
164.2043734816063
 20
-68.906764855300565
 30
0.0
 11
164.2043734816063
 21
-65.594764855300468
 31
0.0
  0
LINE
  5
5F07
  8
1
 10
157.01637348160631
 20
-48.594764855300447
 30
0.0
 11
157.01637348160631
 21
-72.094764855300454
 31
0.0
  0
LINE
  5
5F08
  8
0
 10
163.92475363289671
 20
-57.094764855300603
 30
0.0
 11
165.51637348160631
 21
-57.094764855300603
 31
0.0
  0
LINE
  5
5F09
  8
0
 10
286.3043734816066
 20
-54.594764855300582
 30
0.0
 11
286.8043734816066
 21
-55.094764855300582
 31
0.0
  0
LINE
  5
5F0A
  8
0
 10
305.8043734816066
 20
-55.094764855300582
 30
0.0
 11
306.3043734816066
 21
-54.594764855300582
 31
0.0
  0
LINE
  5
5F0B
  8
0
 10
306.3043734816066
 20
-52.594764855300582
 30
0.0
 11
305.8043734816066
 21
-52.094764855300582
 31
0.0
  0
LINE
  5
5F0C
  8
0
 10
286.8043734816066
 20
-52.094764855300582
 30
0.0
 11
286.3043734816066
 21
-52.594764855300582
 31
0.0
  0
LINE
  5
5F0D
  8
0
 10
304.3043734816066
 20
-68.094764855300554
 30
0.0
 11
304.3043734816066
 21
-57.594764855300582
 31
0.0
  0
LINE
  5
5F0E
  8
0
 10
288.3043734816066
 20
-57.594764855300582
 30
0.0
 11
288.3043734816066
 21
-68.094764855300554
 31
0.0
  0
LINE
  5
5F0F
  8
0
 10
288.3043734816066
 20
-68.094764855300554
 30
0.0
 11
289.3043734816066
 21
-69.094764855300554
 31
0.0
  0
LINE
  5
5F10
  8
0
 10
303.3043734816066
 20
-69.094764855300554
 30
0.0
 11
304.3043734816066
 21
-68.094764855300554
 31
0.0
  0
ARC
  5
5F11
  8
0
 10
303.95437348160658
 20
-56.794764855300592
 30
0.0
 40
0.8000000000000112
 50
180.0
 51
270.0
  0
ARC
  5
5F12
  8
0
 10
288.65437348160663
 20
-56.794764855300592
 30
0.0
 40
0.8000000000000112
 50
270.0
 51
0.0
  0
ARC
  5
5F13
  8
0
 10
288.65437348160663
 20
-55.894764855300508
 30
0.0
 40
0.7999999999999972
 50
0.0
 51
90.0
  0
ARC
  5
5F14
  8
0
 10
303.95437348160658
 20
-55.894764855300508
 30
0.0
 40
0.7999999999999972
 50
90.0
 51
180.0
  0
LINE
  5
5F15
  8
0
 10
303.15437348160663
 20
-56.794764855300592
 30
0.0
 11
303.15437348160663
 21
-55.894764855300508
 31
0.0
  0
LINE
  5
5F16
  8
0
 10
289.45437348160658
 20
-55.894764855300508
 30
0.0
 11
289.45437348160658
 21
-56.794764855300592
 31
0.0
  0
LINE
  5
5F17
  8
0
 10
295.0543734816066
 20
-54.094764855300582
 30
0.0
 11
295.0543734816066
 21
-52.094764855300582
 31
0.0
  0
LINE
  5
5F18
  8
0
 10
297.5543734816066
 20
-54.094764855300582
 30
0.0
 11
295.0543734816066
 21
-54.094764855300582
 31
0.0
  0
LINE
  5
5F19
  8
0
 10
297.5543734816066
 20
-52.094764855300582
 30
0.0
 11
297.5543734816066
 21
-54.094764855300582
 31
0.0
  0
LINE
  5
5F1A
  8
0
 10
304.3043734816066
 20
-57.594764855300582
 30
0.0
 11
288.3043734816066
 21
-57.594764855300582
 31
0.0
  0
LINE
  5
5F1B
  8
0
 10
304.3043734816066
 20
-68.094764855300554
 30
0.0
 11
288.3043734816066
 21
-68.094764855300554
 31
0.0
  0
LINE
  5
5F1C
  8
0
 10
303.3043734816066
 20
-69.094764855300554
 30
0.0
 11
289.3043734816066
 21
-69.094764855300554
 31
0.0
  0
LINE
  5
5F1D
  8
3
 10
289.11637348160662
 20
-68.906764855300565
 30
0.0
 11
289.11637348160662
 21
-57.447877403028741
 31
0.0
  0
LINE
  5
5F1E
  8
3
 10
303.49237348160659
 20
-68.906764855300565
 30
0.0
 11
303.49237348160659
 21
-57.447877403028741
 31
0.0
  0
LINE
  5
5F1F
  8
0
 10
304.3043734816066
 20
-63.594764855300561
 30
0.0
 11
313.80437348160649
 21
-63.594764855300561
 31
0.0
  0
LINE
  5
5F20
  8
0
 10
303.15437348160663
 20
-56.59476485530049
 30
0.0
 11
303.49237348160659
 21
-56.59476485530049
 31
0.0
  0
LINE
  5
5F21
  8
3
 10
164.2043734816063
 20
-57.594764855300447
 30
0.0
 11
164.2043734816063
 21
-57.447877403028642
 31
0.0
  0
LINE
  5
5F22
  8
3
 10
149.82837348160629
 20
-57.594764855300447
 30
0.0
 11
149.82837348160629
 21
-57.447877403028642
 31
0.0
  0
LINE
  5
5F48
  8
0
 10
353.49237348160659
 20
-56.59476485530049
 30
0.0
 11
354.99237348160659
 21
-55.094764855300497
 31
0.0
  0
LINE
  5
5F49
  8
0
 10
339.1163734816065
 20
-62.094764855300546
 30
0.0
 11
337.61637348160639
 21
-63.594764855300561
 31
0.0
  0
LINE
  5
5F4A
  8
0
 10
339.1163734816065
 20
-62.094764855300546
 30
0.0
 11
353.49237348160671
 21
-62.094764855300546
 31
0.0
  0
LINE
  5
5F4B
  8
0
 10
353.49237348160659
 20
-62.09476485530061
 30
0.0
 11
354.99237348160659
 21
-63.594764855300639
 31
0.0
  0
LINE
  5
5F4C
  8
0
 10
289.11637348160639
 20
-56.594764855300582
 30
0.0
 11
287.61637348160639
 21
-55.094764855300582
 31
0.0
  0
LINE
  5
5F4D
  8
0
 10
303.49237348160659
 20
-56.59476485530049
 30
0.0
 11
304.99237348160659
 21
-55.094764855300497
 31
0.0
  0
LINE
  5
5F4E
  8
0
 10
288.3043734816066
 20
-62.906764855300388
 30
0.0
 11
287.61637348160639
 21
-63.594764855300561
 31
0.0
  0
LINE
  5
5F4F
  8
0
 10
304.3043734816066
 20
-62.906764855300679
 30
0.0
 11
304.99237348160659
 21
-63.594764855300639
 31
0.0
  0
TEXT
  5
5F53
  8
0
 62
     3
 10
147.94970681493959
 20
-79.094764855300468
 30
0.0
 40
3.2000000000000002
  1
組付け状態
 72
     1
 11
157.01637348160631
 21
-79.094764855300468
 31
0.0
  0
POLYLINE
  5
5F54
  8
5
 66
     1
 10
0.0
 20
0.0
 30
0.0
 70
     1
  0
VERTEX
  5
6833
  8
5
 10
113.80437348160631
 20
-10.0
 30
0.0
  0
VERTEX
  5
6834
  8
5
 10
383.80437348160638
 20
-10.0
 30
0.0
  0
VERTEX
  5
6835
  8
5
 10
383.80437348160638
 20
-139.60523514469941
 30
0.0
  0
VERTEX
  5
6836
  8
5
 10
113.80437348160631
 20
-139.60523514469941
 30
0.0
  0
SEQEND
  5
6837
  8
5
  0
TEXT
  5
5F55
  8
0
 62
     3
 10
199.76304014827301
 20
-79.094764855300468
 30
0.0
 40
3.2000000000000002
  1
取付け穴
 72
     1
 11
207.01637348160631
 21
-79.094764855300468
 31
0.0
  0
TEXT
  5
5F58
  8
0
 62
     3
 10
287.23770681494
 20
-79.094764855300468
 30
0.0
 40
3.2000000000000002
  1
組付け状態
 72
     1
 11
296.3043734816066
 21
-79.094764855300468
 31
0.0
  0
TEXT
  5
5F59
  8
0
 62
     3
 10
339.05104014827327
 20
-79.094764855300468
 30
0.0
 40
3.2000000000000002
  1
取付け穴
 72
     1
 11
346.3043734816066
 21
-79.094764855300468
 31
0.0
  0
TEXT
  5
5F5C
  8
0
 62
     3
 10
118.80437348160631
 20
-20.0
 30
0.0
 40
3.2000000000000002
  1
ケースの取付け方法
  0
TEXT
  5
5FC0
  8
0
 62
     3
 10
0.0
 20
0.0
 30
0.0
 40
10.0
  1
QCBU1012-M16
  7
STANDARD1
  0
TEXT
  5
6052
  8
0
 62
     3
 10
113.80437348160631
 20
-7.0
 30
0.0
 40
3.2000000000000002
  1
■Installation Instructions (see diagram below)
  0
TEXT
  5
6057
  8
0
 62
     3
 10
118.80437348160631
 20
-113.60523514469929
 30
0.0
 40
3.2000000000000002
  1
Installation without Receptacles
  0
TEXT
  5
6058
  8
0
 62
     3
 10
135.8003734816063
 20
-86.094764855300468
 30
0.0
 40
3.2000000000000002
  1
Installed condition
 41
0.85
 72
     1
 11
157.01637348160631
 21
-86.094764855300468
 31
0.0
  0
TEXT
  5
6059
  8
0
 62
     3
 10
188.2937068149397
 20
-86.094764855300468
 30
0.0
 40
3.2000000000000002
  1
Installation hole
 41
0.85
 72
     1
 11
207.01637348160631
 21
-86.094764855300468
 31
0.0
  0
TEXT
  5
605C
  8
0
 62
     3
 10
275.0883734816066
 20
-86.094764855300468
 30
0.0
 40
3.2000000000000002
  1
Installed condition
 41
0.85
 72
     1
 11
296.3043734816066
 21
-86.094764855300468
 31
0.0
  0
TEXT
  5
605D
  8
0
 62
     3
 10
327.58170681493988
 20
-86.094764855300468
 30
0.0
 40
3.2000000000000002
  1
Installation hole
 41
0.85
 72
     1
 11
346.3043734816066
 21
-86.094764855300468
 31
0.0
  0
TEXT
  5
6060
  8
0
 62
     3
 10
118.80437348160631
 20
-27.0
 30
0.0
 40
3.2000000000000002
  1
Installation Instructions for Cam Receptacles
  0
TEXT
  5
6433
  8
0
 62
     3
 10
156.68304014827299
 20
-36.168098188633913
 30
0.0
 40
3.2000000000000002
  1
6mm～10mmのベースの場合
 72
     1
 11
182.01637348160631
 21
-36.594764855300582
 31
0.0
 73
     1
  0
TEXT
  5
6434
  8
0
 62
     3
 10
119.45637348160631
 20
-43.168098188633898
 30
0.0
 40
3.2000000000000002
  1
For installation on plate of over 6 to 10 mm thickness.
 41
0.85
 72
     1
 11
182.01637348160631
 21
-43.594764855300568
 31
0.0
 73
     1
  0
TEXT
  5
6435
  8
0
 62
     3
 10
293.19770681493969
 20
-36.168098188633891
 30
0.0
 40
3.2000000000000002
  1
10mmを超えるベースへの取付け
 72
     1
 11
321.30437348160638
 21
-36.168098188633891
 31
0.0
  0
TEXT
  5
6436
  8
0
 62
     3
 10
264.45637348160642
 20
-43.168098188633877
 30
0.0
 40
3.2000000000000002
  1
For installation on plate of over 10 mm thickness.
 41
0.85
 72
     1
 11
321.30437348160638
 21
-43.168098188633877
 31
0.0
  0
ENDSEC
  0
EOF
