  0
SECTION
  2
HEADER
  9
$ACADVER
  1
AC1009
  9
$INSBASE
 10
0.0
 20
0.0
 30
0.0
  9
$EXTMIN
 10
0.0
 20
-1.4802182810368341
 30
0.0
  9
$EXTMAX
 10
34.157571623465223
 20
64.000000052154064
 30
0.0
  9
$LIMMIN
 10
0.0
 20
0.0
  9
$LIMMAX
 10
187.5
 20
135.0
  9
$ORTHOMODE
 70
     1
  9
$REGENMODE
 70
     1
  9
$FILLMODE
 70
     1
  9
$QTEXTMODE
 70
     0
  9
$MIRRTEXT
 70
     0
  9
$DRAGMODE
 70
     2
  9
$LTSCALE
 40
3.0
  9
$OSMODE
 70
    37
  9
$ATTMODE
 70
     1
  9
$TEXTSIZE
 40
0.2
  9
$TRACEWID
 40
0.05
  9
$TEXTSTYLE
  7
STANDARD
  9
$CLAYER
  8
0
  9
$CELTYPE
  6
BYLAYER
  9
$CECOLOR
 62
   256
  9
$DIMSCALE
 40
0.5
  9
$DIMASZ
 40
3.0
  9
$DIMEXO
 40
2.0
  9
$DIMDLI
 40
0.38
  9
$DIMRND
 40
0.0
  9
$DIMDLE
 40
0.0
  9
$DIMEXE
 40
2.0
  9
$DIMTP
 40
0.0
  9
$DIMTM
 40
0.0
  9
$DIMTXT
 40
3.2000000000000002
  9
$DIMCEN
 40
0.0
  9
$DIMTSZ
 40
0.0
  9
$DIMTOL
 70
     0
  9
$DIMLIM
 70
     0
  9
$DIMTIH
 70
     0
  9
$DIMTOH
 70
     0
  9
$DIMSE1
 70
     0
  9
$DIMSE2
 70
     0
  9
$DIMTAD
 70
     1
  9
$DIMZIN
 70
     8
  9
$DIMBLK
  1

  9
$DIMASO
 70
     0
  9
$DIMSHO
 70
     0
  9
$DIMPOST
  1

  9
$DIMAPOST
  1

  9
$DIMALT
 70
     0
  9
$DIMALTD
 70
     2
  9
$DIMALTF
 40
25.399999999999999
  9
$DIMLFAC
 40
1.0
  9
$DIMTOFL
 70
     1
  9
$DIMTVP
 40
1.6000000000000001
  9
$DIMTIX
 70
     1
  9
$DIMSOXD
 70
     0
  9
$DIMSAH
 70
     0
  9
$DIMBLK1
  1

  9
$DIMBLK2
  1

  9
$DIMSTYLE
  2
STANDARD
  9
$DIMCLRD
 70
     4
  9
$DIMCLRE
 70
     4
  9
$DIMCLRT
 70
     4
  9
$DIMTFAC
 40
1.0
  9
$DIMGAP
 40
1.0
  9
$LUNITS
 70
     2
  9
$LUPREC
 70
     1
  9
$SKETCHINC
 40
0.1
  9
$FILLETRAD
 40
0.0
  9
$AUNITS
 70
     0
  9
$AUPREC
 70
     1
  9
$MENU
  1
E:\r13\win\SUPPORT\ACAD
  9
$ELEVATION
 40
0.0
  9
$PELEVATION
 40
0.0
  9
$THICKNESS
 40
0.0
  9
$LIMCHECK
 70
     0
  9
$BLIPMODE
 70
     0
  9
$CHAMFERA
 40
0.0
  9
$CHAMFERB
 40
0.0
  9
$SKPOLY
 70
     0
  9
$TDCREATE
 40
2449839.7732986109
  9
$TDUPDATE
 40
2459046.4124146882
  9
$TDINDWG
 40
0.1478079167
  9
$TDUSRTIMER
 40
0.1478079167
  9
$USRTIMER
 70
     1
  9
$ANGBASE
 50
0.0
  9
$ANGDIR
 70
     0
  9
$PDMODE
 70
     0
  9
$PDSIZE
 40
0.0
  9
$PLINEWID
 40
0.0
  9
$COORDS
 70
     1
  9
$SPLFRAME
 70
     0
  9
$SPLINETYPE
 70
     6
  9
$SPLINESEGS
 70
     8
  9
$ATTDIA
 70
     0
  9
$ATTREQ
 70
     1
  9
$HANDLING
 70
     1
  9
$HANDSEED
  5
1F6D
  9
$SURFTAB1
 70
     6
  9
$SURFTAB2
 70
     6
  9
$SURFTYPE
 70
     6
  9
$SURFU
 70
     6
  9
$SURFV
 70
     6
  9
$UCSNAME
  2

  9
$UCSORG
 10
0.0
 20
0.0
 30
0.0
  9
$UCSXDIR
 10
1.0
 20
0.0
 30
0.0
  9
$UCSYDIR
 10
0.0
 20
1.0
 30
0.0
  9
$PUCSNAME
  2

  9
$PUCSORG
 10
0.0
 20
0.0
 30
0.0
  9
$PUCSXDIR
 10
1.0
 20
0.0
 30
0.0
  9
$PUCSYDIR
 10
0.0
 20
1.0
 30
0.0
  9
$USERI1
 70
     0
  9
$USERI2
 70
     1
  9
$USERI3
 70
     0
  9
$USERI4
 70
     0
  9
$USERI5
 70
     0
  9
$USERR1
 40
0.0
  9
$USERR2
 40
0.0
  9
$USERR3
 40
0.0
  9
$USERR4
 40
0.0
  9
$USERR5
 40
0.0
  9
$WORLDVIEW
 70
     1
  9
$SHADEDGE
 70
     3
  9
$SHADEDIF
 70
    70
  9
$TILEMODE
 70
     1
  9
$MAXACTVP
 70
    16
  9
$PLIMCHECK
 70
     0
  9
$PEXTMIN
 10
1.0000000000000000E+020
 20
1.0000000000000000E+020
 30
1.0000000000000000E+020
  9
$PEXTMAX
 10
-1.0000000000000000E+020
 20
-1.0000000000000000E+020
 30
-1.0000000000000000E+020
  9
$PLIMMIN
 10
0.0
 20
0.0
  9
$PLIMMAX
 10
12.0
 20
9.0
  9
$UNITMODE
 70
     0
  9
$VISRETAIN
 70
     0
  9
$PLINEGEN
 70
     0
  9
$PSLTSCALE
 70
     0
  0
ENDSEC
  0
SECTION
  2
TABLES
  0
TABLE
  2
VPORT
 70
     1
  0
VPORT
  2
*ACTIVE
 70
     0
 10
0.0
 20
0.0
 11
1.0
 21
1.0
 12
120.782208588957
 22
50.0
 13
0.0
 23
0.0
 14
5.0
 24
5.0
 15
5.0
 25
5.0
 16
0.0
 26
0.0
 36
1.0
 17
0.0
 27
0.0
 37
0.0
 40
100.0
 41
2.415644171779141
 42
50.0
 43
0.0
 44
0.0
 50
0.0
 51
0.0
 71
     0
 72
   500
 73
     1
 74
     0
 75
     0
 76
     0
 77
     0
 78
     2
  0
ENDTAB
  0
TABLE
  2
LTYPE
 70
     4
  0
LTYPE
  2
CONTINUOUS
 70
     0
  3
Solid Line
 72
    65
 73
     0
 40
0.0
  0
LTYPE
  2
CENTER
 70
     0
  3
____ _ ____ _ ____ _ ____ _ ____ _ ____ _ ____
 72
    65
 73
     4
 40
2.0
 49
1.25
 49
-0.25
 49
0.25
 49
-0.25
  0
LTYPE
  2
HIDDEN
 70
     0
  3
_ _ _ _ _ _ _ _ _ _ _ _ _ _ _ _ _ _ _ _ _ _ _
 72
    65
 73
     2
 40
0.375
 49
0.25
 49
-0.125
  0
LTYPE
  2
PHANTOM2
 70
     0
  3
___ _ _ ___ _ _ ___ _ _ ___ _ _
 72
    65
 73
     6
 40
1.25
 49
0.625
 49
-0.125
 49
0.125
 49
-0.125
 49
0.125
 49
-0.125
  0
ENDTAB
  0
TABLE
  2
LAYER
 70
     5
  0
LAYER
  2
0
 70
     0
 62
     7
  6
CONTINUOUS
  0
LAYER
  2
1
 70
     0
 62
     1
  6
CENTER
  0
LAYER
  2
2
 70
     0
 62
     2
  6
HIDDEN
  0
LAYER
  2
3
 70
     0
 62
     3
  6
CONTINUOUS
  0
LAYER
  2
DEFPOINTS
 70
     0
 62
     7
  6
CONTINUOUS
  0
ENDTAB
  0
TABLE
  2
STYLE
 70
     2
  0
STYLE
  2
STANDARD
 70
     0
 40
0.0
 41
1.0
 50
0.0
 71
     0
 42
0.2
  3
TXT
  4
BIGFONT
  0
STYLE
  2
STANDARD1
 70
     0
 40
0.0
 41
1.0
 50
0.0
 71
     0
 42
3.0
  3
txt
  4

  0
ENDTAB
  0
TABLE
  2
VIEW
 70
     1
  0
VIEW
  2
ALL
 70
     0
 40
270.0
 10
220.99159663865549
 20
135.0
 41
0.0
 11
0.0
 21
0.0
 31
1.0
 12
0.0
 22
0.0
 32
0.0
 42
0.0
 43
0.0
 44
0.0
 50
0.0
 71
     0
  0
ENDTAB
  0
TABLE
  2
UCS
 70
     0
  0
ENDTAB
  0
TABLE
  2
APPID
 70
    12
  0
APPID
  2
ACAD
 70
     0
  0
APPID
  2
ACAD_EXEMPT_FROM_CAD_STANDARDS
 70
     0
  0
APPID
  2
ACAD_PSEXT
 70
     0
  0
APPID
  2
ACAD_MLEADERVER
 70
     0
  0
APPID
  2
ACAD_NAV_VCDISPLAY
 70
     0
  0
APPID
  2
ACAD_DSTYLE_DIMJAG
 70
     0
  0
APPID
  2
ACAD_DSTYLE_DIMTALN
 70
     0
  0
APPID
  2
ACAD_DSTYLE_DIMBREAK
 70
     0
  0
APPID
  2
ACAECLAYERSTANDARD
 70
     0
  0
APPID
  2
ACCMTRANSPARENCY
 70
     0
  0
APPID
  2
ACAD_DSTYLE_DIM_LINETYPE
 70
     0
  0
APPID
  2
ACAD_DSTYLE_DIMRADIAL_EXTENSION
 70
     0
  0
ENDTAB
  0
TABLE
  2
DIMSTYLE
 70
     1
  0
DIMSTYLE
  2
STANDARD
 70
     0
  3

  4

  5

  6

  7

 40
1.0
 41
0.18
 42
0.0625
 43
0.38
 44
0.18
 45
0.0
 46
0.0
 47
0.0
 48
0.0
140
0.18
141
0.09
142
0.0
143
25.399999999999999
144
1.0
145
0.0
146
1.0
147
0.09
 71
     0
 72
     0
 73
     1
 74
     1
 75
     0
 76
     0
 77
     0
 78
     0
170
     0
171
     2
172
     0
173
     0
174
     0
175
     0
176
     0
177
     0
178
     0
  0
ENDTAB
  0
ENDSEC
  0
SECTION
  2
BLOCKS
  0
BLOCK
  8
0
  2
$MODEL_SPACE
 70
     0
 10
0.0
 20
0.0
 30
0.0
  3
$MODEL_SPACE
  1

  0
ENDBLK
  5
1D4
  8
0
  0
BLOCK
 67
     1
  8
0
  2
$PAPER_SPACE
 70
     0
 10
0.0
 20
0.0
 30
0.0
  3
$PAPER_SPACE
  1

  0
ENDBLK
  5
1D2
 67
     1
  8
0
  0
ENDSEC
  0
SECTION
  2
ENTITIES
  0
TEXT
  5
6B1
  8
0
 62
     3
 10
0.0
 20
0.0
 30
0.0
 40
5.0
  1
QCIC05TB
  7
STANDARD1
  0
CIRCLE
  5
1CF8
  8
0
 10
24.0
 20
58.000000052154057
 30
0.0
 40
3.8000000000000038
  0
CIRCLE
  5
1CF9
  8
0
 10
24.0
 20
58.000000052154057
 30
0.0
 40
4.0
  0
CIRCLE
  5
1CFA
  8
0
 10
24.0
 20
58.000000052154057
 30
0.0
 40
1.75
  0
CIRCLE
  5
1CFB
  8
0
 10
24.0
 20
58.000000052154057
 30
0.0
 40
1.25
  0
CIRCLE
  5
1CFD
  8
0
 10
24.0
 20
58.000000052154057
 30
0.0
 40
2.4007005808449469
  0
CIRCLE
  5
1CFF
  8
3
 10
24.0
 20
58.000000052154057
 30
0.0
 40
1.500000013038516
  0
LINE
  5
1D00
  8
0
 10
27.975000232458122
 20
38.475000008009381
 30
0.0
 11
27.975000232458122
 21
40.000000094994903
 31
0.0
  0
LINE
  5
1D01
  8
0
 10
27.500000108033419
 20
38.0
 30
0.0
 11
27.975000232458122
 21
38.475000008009381
 31
0.0
  0
LINE
  5
1D02
  8
0
 10
27.500000108033419
 20
38.0
 30
0.0
 11
20.499999891966581
 21
38.0
 31
0.0
  0
LINE
  5
1D03
  8
2
 10
25.24999997206033
 20
38.500000023748733
 30
0.0
 11
25.750000054016709
 21
38.0
 31
0.0
  0
LINE
  5
1D04
  8
2
 10
25.24999997206033
 20
40.199569717049592
 30
0.0
 11
25.24999997206033
 21
38.500000023748733
 31
0.0
  0
LINE
  5
1D05
  8
2
 10
25.750000054016709
 20
40.499999944120638
 30
0.0
 11
25.24999997206033
 21
40.199569717049592
 31
0.0
  0
LINE
  5
1D06
  8
2
 10
25.750000054016709
 20
41.200961975380771
 30
0.0
 11
25.750000054016709
 21
40.499999944120638
 31
0.0
  0
LINE
  5
1D07
  8
2
 10
25.750000054016709
 20
41.200961975380771
 30
0.0
 11
26.400700468570001
 21
43.629409570246928
 31
0.0
  0
ARC
  5
1D08
  8
2
 10
26.883663493989491
 20
43.5
 30
0.0
 40
0.5
 50
90.0
 51
165.0000000000004
  0
LINE
  5
1D09
  8
0
 10
20.199999935924989
 20
44.000000052154057
 30
0.0
 11
27.800000064075
 21
44.000000052154057
 31
0.0
  0
LINE
  5
1D0A
  8
0
 10
28.000000189989809
 20
43.799999926239252
 30
0.0
 11
27.800000064075
 21
44.000000052154057
 31
0.0
  0
LINE
  5
1D0B
  8
0
 10
28.000000189989809
 20
43.799999926239252
 30
0.0
 11
28.000000189989809
 21
40.000000094994903
 31
0.0
  0
LINE
  5
1D0D
  8
0
 10
19.999999810010191
 20
40.000000094994903
 30
0.0
 11
19.999999810010191
 21
43.799999926239252
 31
0.0
  0
LINE
  5
1D0E
  8
0
 10
20.19999993592501
 20
44.000000052154057
 30
0.0
 11
19.999999810010191
 21
43.799999926239252
 31
0.0
  0
ARC
  5
1D10
  8
2
 10
21.11633650601053
 20
43.5
 30
0.0
 40
0.5000000000000013
 50
15.00000000000038
 51
90.0
  0
LINE
  5
1D11
  8
2
 10
21.599299531429999
 20
43.629409570246928
 30
0.0
 11
22.249999945983291
 21
41.200961975380771
 31
0.0
  0
LINE
  5
1D12
  8
2
 10
22.249999945983291
 20
40.499999944120638
 30
0.0
 11
22.249999945983291
 21
41.200961975380771
 31
0.0
  0
LINE
  5
1D13
  8
2
 10
22.750000027939681
 20
40.199569717049592
 30
0.0
 11
22.249999945983291
 21
40.499999944120638
 31
0.0
  0
LINE
  5
1D14
  8
2
 10
22.750000027939681
 20
38.500000023748733
 30
0.0
 11
22.750000027939681
 21
40.199569717049592
 31
0.0
  0
LINE
  5
1D15
  8
2
 10
22.249999945983291
 20
38.0
 30
0.0
 11
22.750000027939681
 21
38.500000023748733
 31
0.0
  0
LINE
  5
1D17
  8
0
 10
20.024999767541878
 20
38.475000008009381
 30
0.0
 11
20.499999891966581
 21
38.0
 31
0.0
  0
LINE
  5
1D18
  8
0
 10
20.024999767541878
 20
40.000000094994903
 30
0.0
 11
20.024999767541878
 21
38.475000008009381
 31
0.0
  0
LINE
  5
1D19
  8
0
 10
19.999999810010191
 20
40.000000094994903
 30
0.0
 11
28.000000189989809
 21
40.000000094994903
 31
0.0
  0
LINE
  5
1D1A
  8
2
 10
22.249999945983291
 20
40.499999944120638
 30
0.0
 11
25.750000054016709
 21
40.499999944120638
 31
0.0
  0
LINE
  5
1D1B
  8
2
 10
22.750000027939681
 20
40.199569717049592
 30
0.0
 11
25.24999997206033
 21
40.199569717049592
 31
0.0
  0
LINE
  5
1D1C
  8
2
 10
22.249999945983291
 20
41.200961975380771
 30
0.0
 11
25.750000054016709
 21
41.200961975380771
 31
0.0
  0
LINE
  5
1D1D
  8
2
 10
22.750000027939681
 20
38.500000023748733
 30
0.0
 11
25.24999997206033
 21
38.500000023748733
 31
0.0
  0
LINE
  5
1D39
  8
2
 10
25.50000001303852
 20
38.250000011874363
 30
0.0
 11
25.50000001303852
 21
40.349784830585122
 31
0.0
  0
LINE
  5
1D3A
  8
2
 10
22.49999998696148
 20
40.349784830585122
 30
0.0
 11
22.49999998696148
 21
38.250000011874363
 31
0.0
  0
CIRCLE
  5
1DBC
  8
0
 10
24.0
 20
24.0
 30
0.0
 40
3.9750000000000001
  0
CIRCLE
  5
1DBD
  8
0
 10
24.0
 20
24.0
 30
0.0
 40
3.5000000000000022
  0
CIRCLE
  5
1DBE
  8
0
 10
24.0
 20
24.0
 30
0.0
 40
1.750000000000004
  0
CIRCLE
  5
1DBF
  8
0
 10
24.0
 20
24.0
 30
0.0
 40
1.25
  0
CIRCLE
  5
1DC0
  8
0
 10
24.0
 20
24.0
 30
0.0
 40
4.0
  0
CIRCLE
  5
1DC2
  8
3
 10
24.0
 20
23.999999999999989
 30
0.0
 40
1.4999999999999989
  0
LINE
  5
1EB8
  8
0
 10
19.999999810010191
 20
43.799999926239252
 30
0.0
 11
28.000000189989809
 21
43.799999926239252
 31
0.0
  0
LINE
  5
1EB9
  8
0
 10
20.024999767541878
 20
38.475000008009381
 30
0.0
 11
27.975000232458122
 21
38.475000008009381
 31
0.0
  0
LINE
  5
1EBC
  8
2
 10
21.599299419155059
 20
43.629409522551249
 30
0.0
 11
26.400700580844958
 21
43.629409522551249
 31
0.0
  0
LINE
  5
1EBD
  8
1
 10
24.000000000000021
 20
46.000000052154057
 30
0.0
 11
24.0
 21
36.0
 31
0.0
  0
LINE
  5
1EC9
  8
1
 10
24.0
 20
18.0
 30
0.0
 11
24.0
 21
30.0
 31
0.0
  0
LINE
  5
1ECA
  8
1
 10
30.0
 20
24.0
 30
0.0
 11
18.0
 21
24.0
 31
0.0
  0
LINE
  5
1EDE
  8
1
 10
24.0
 20
64.000000052154064
 30
0.0
 11
24.0
 21
52.000000052154057
 31
0.0
  0
LINE
  5
1EDF
  8
1
 10
30.0
 20
58.000000052154057
 30
0.0
 11
18.0
 21
58.000000052154057
 31
0.0
  0
ENDSEC
  0
EOF
