  0
SECTION
  2
HEADER
  9
$ACADVER
  1
AC1009
  9
$INSBASE
 10
0.0
 20
0.0
 30
0.0
  9
$EXTMIN
 10
0.0
 20
-2.960436562073669
 30
0.0
  9
$EXTMAX
 10
170.9999999999998863
 20
165.0000007599595051
 30
0.0
  9
$LIMMIN
 10
0.0
 20
0.0
  9
$LIMMAX
 10
375.0
 20
270.0
  9
$ORTHOMODE
 70
     1
  9
$REGENMODE
 70
     1
  9
$FILLMODE
 70
     1
  9
$QTEXTMODE
 70
     0
  9
$MIRRTEXT
 70
     0
  9
$DRAGMODE
 70
     2
  9
$LTSCALE
 40
5.0
  9
$OSMODE
 70
    37
  9
$ATTMODE
 70
     1
  9
$TEXTSIZE
 40
4.000000000000048
  9
$TRACEWID
 40
0.05
  9
$TEXTSTYLE
  7
STANDARD
  9
$CLAYER
  8
0
  9
$CELTYPE
  6
BYLAYER
  9
$CECOLOR
 62
   256
  9
$DIMSCALE
 40
1.0
  9
$DIMASZ
 40
3.0
  9
$DIMEXO
 40
2.0
  9
$DIMDLI
 40
0.38
  9
$DIMRND
 40
0.0
  9
$DIMDLE
 40
0.0
  9
$DIMEXE
 40
2.0
  9
$DIMTP
 40
0.0
  9
$DIMTM
 40
0.0
  9
$DIMTXT
 40
3.2000000000000002
  9
$DIMCEN
 40
0.0
  9
$DIMTSZ
 40
0.0
  9
$DIMTOL
 70
     0
  9
$DIMLIM
 70
     0
  9
$DIMTIH
 70
     0
  9
$DIMTOH
 70
     0
  9
$DIMSE1
 70
     0
  9
$DIMSE2
 70
     0
  9
$DIMTAD
 70
     1
  9
$DIMZIN
 70
     8
  9
$DIMBLK
  1

  9
$DIMASO
 70
     0
  9
$DIMSHO
 70
     0
  9
$DIMPOST
  1

  9
$DIMAPOST
  1

  9
$DIMALT
 70
     0
  9
$DIMALTD
 70
     2
  9
$DIMALTF
 40
25.3999999999999986
  9
$DIMLFAC
 40
1.0
  9
$DIMTOFL
 70
     0
  9
$DIMTVP
 40
1.6000000000000001
  9
$DIMTIX
 70
     1
  9
$DIMSOXD
 70
     0
  9
$DIMSAH
 70
     0
  9
$DIMBLK1
  1

  9
$DIMBLK2
  1

  9
$DIMSTYLE
  2
STANDARD
  9
$DIMCLRD
 70
     4
  9
$DIMCLRE
 70
     4
  9
$DIMCLRT
 70
     4
  9
$DIMTFAC
 40
1.0
  9
$DIMGAP
 40
0.09
  9
$LUNITS
 70
     2
  9
$LUPREC
 70
     1
  9
$SKETCHINC
 40
0.1
  9
$FILLETRAD
 40
22.0
  9
$AUNITS
 70
     0
  9
$AUPREC
 70
     0
  9
$MENU
  1
E:\r13\win\SUPPORT\ACAD
  9
$ELEVATION
 40
0.0
  9
$PELEVATION
 40
0.0
  9
$THICKNESS
 40
0.0
  9
$LIMCHECK
 70
     0
  9
$BLIPMODE
 70
     0
  9
$CHAMFERA
 40
1.1999999999999991
  9
$CHAMFERB
 40
1.1999999999999991
  9
$SKPOLY
 70
     0
  9
$TDCREATE
 40
2449954.6020138887688518
  9
$TDUPDATE
 40
2460713.4587962958030403
  9
$TDINDWG
 40
0.5664753935
  9
$TDUSRTIMER
 40
0.5664753935
  9
$USRTIMER
 70
     1
  9
$ANGBASE
 50
0.0
  9
$ANGDIR
 70
     0
  9
$PDMODE
 70
     0
  9
$PDSIZE
 40
0.0
  9
$PLINEWID
 40
0.0
  9
$COORDS
 70
     1
  9
$SPLFRAME
 70
     0
  9
$SPLINETYPE
 70
     6
  9
$SPLINESEGS
 70
     8
  9
$ATTDIA
 70
     1
  9
$ATTREQ
 70
     1
  9
$HANDLING
 70
     1
  9
$HANDSEED
  5
562D
  9
$SURFTAB1
 70
     6
  9
$SURFTAB2
 70
     6
  9
$SURFTYPE
 70
     6
  9
$SURFU
 70
     6
  9
$SURFV
 70
     6
  9
$UCSNAME
  2

  9
$UCSORG
 10
0.0
 20
0.0
 30
0.0
  9
$UCSXDIR
 10
1.0
 20
0.0
 30
0.0
  9
$UCSYDIR
 10
0.0
 20
1.0
 30
0.0
  9
$PUCSNAME
  2

  9
$PUCSORG
 10
0.0
 20
0.0
 30
0.0
  9
$PUCSXDIR
 10
1.0
 20
0.0
 30
0.0
  9
$PUCSYDIR
 10
0.0
 20
1.0
 30
0.0
  9
$USERI1
 70
     0
  9
$USERI2
 70
     1
  9
$USERI3
 70
     0
  9
$USERI4
 70
     0
  9
$USERI5
 70
     0
  9
$USERR1
 40
0.0
  9
$USERR2
 40
0.0
  9
$USERR3
 40
0.0
  9
$USERR4
 40
0.0
  9
$USERR5
 40
0.0
  9
$WORLDVIEW
 70
     1
  9
$SHADEDGE
 70
     3
  9
$SHADEDIF
 70
    70
  9
$TILEMODE
 70
     1
  9
$MAXACTVP
 70
    16
  9
$PLIMCHECK
 70
     0
  9
$PEXTMIN
 10
1.0000000000000000E+20
 20
1.0000000000000000E+20
 30
1.0000000000000000E+20
  9
$PEXTMAX
 10
-1.0000000000000000E+20
 20
-1.0000000000000000E+20
 30
-1.0000000000000000E+20
  9
$PLIMMIN
 10
0.0
 20
0.0
  9
$PLIMMAX
 10
12.0
 20
9.0
  9
$UNITMODE
 70
     0
  9
$VISRETAIN
 70
     0
  9
$PLINEGEN
 70
     0
  9
$PSLTSCALE
 70
     0
  0
ENDSEC
  0
SECTION
  2
TABLES
  0
TABLE
  2
VPORT
 70
     1
  0
VPORT
  2
*ACTIVE
 70
     0
 10
0.0
 20
0.0
 11
1.0
 21
1.0
 12
126.015170402356901
 22
81.0164990001456857
 13
0.0
 23
0.0
 14
10.0
 24
10.0
 15
10.0
 25
10.0
 16
0.0
 26
0.0
 36
1.0
 17
0.0
 27
0.0
 37
0.0
 40
169.3015237056052058
 41
2.3485221674876842
 42
50.0
 43
0.0
 44
0.0
 50
0.0
 51
0.0
 71
     0
 72
   500
 73
     1
 74
     0
 75
     0
 76
     0
 77
     0
 78
     2
  0
ENDTAB
  0
TABLE
  2
LTYPE
 70
     5
  0
LTYPE
  2
CONTINUOUS
 70
     0
  3
Solid Line
 72
    65
 73
     0
 40
0.0
  0
LTYPE
  2
CENTER
 70
     0
  3
____ _ ____ _ ____ _ ____ _ ____ _ ____ _ ____
 72
    65
 73
     4
 40
2.0
 49
1.25
 49
-0.25
 49
0.25
 49
-0.25
  0
LTYPE
  2
HIDDEN
 70
     0
  3
_ _ _ _ _ _ _ _ _ _ _ _ _ _ _ _ _ _ _ _ _ _ _
 72
    65
 73
     2
 40
0.375
 49
0.25
 49
-0.125
  0
LTYPE
  2
PHANTOM
 70
     0
  3
_____ _ _ _____ _ _ _____ _ _ _____ _ _ ____
 72
    65
 73
     6
 40
2.5
 49
1.25
 49
-0.25
 49
0.25
 49
-0.25
 49
0.25
 49
-0.25
  0
LTYPE
  2
PHANTOM2
 70
     0
  3
___ _ _ ___ _ _ ___ _ _ ___ _ _
 72
    65
 73
     6
 40
1.25
 49
0.625
 49
-0.125
 49
0.125
 49
-0.125
 49
0.125
 49
-0.125
  0
ENDTAB
  0
TABLE
  2
LAYER
 70
     7
  0
LAYER
  2
0
 70
     0
 62
     7
  6
CONTINUOUS
  0
LAYER
  2
1
 70
     0
 62
     1
  6
CENTER
  0
LAYER
  2
3
 70
     0
 62
     3
  6
CONTINUOUS
  0
LAYER
  2
2
 70
     0
 62
     2
  6
HIDDEN
  0
LAYER
  2
5
 70
     0
 62
     3
  6
PHANTOM
  0
LAYER
  2
DEFPOINTS
 70
     0
 62
     7
  6
CONTINUOUS
  0
LAYER
  2
4
 70
     0
 62
     4
  6
CONTINUOUS
  0
ENDTAB
  0
TABLE
  2
STYLE
 70
     2
  0
STYLE
  2
STANDARD
 70
     0
 40
0.0
 41
1.0
 50
0.0
 71
     0
 42
4.000000000000048
  3
SIMPLEX
  4
BIGFONT
  0
STYLE
  2
STANDARD1
 70
     0
 40
0.0
 41
1.0
 50
0.0
 71
     0
 42
3.0
  3
txt
  4

  0
ENDTAB
  0
TABLE
  2
VIEW
 70
     1
  0
VIEW
  2
ALL
 70
     0
 40
270.0
 10
220.785953177257511
 20
135.0
 41
441.571906354515022
 11
0.0
 21
0.0
 31
1.0
 12
0.0
 22
0.0
 32
0.0
 42
50.0
 43
0.0
 44
0.0
 50
0.0
 71
     0
  0
ENDTAB
  0
TABLE
  2
UCS
 70
     0
  0
ENDTAB
  0
TABLE
  2
APPID
 70
     8
  0
APPID
  2
ACAD
 70
     0
  0
APPID
  2
ACAD_EXEMPT_FROM_CAD_STANDARDS
 70
     0
  0
APPID
  2
ACAD_MLEADERVER
 70
     0
  0
APPID
  2
ACAD_NAV_VCDISPLAY
 70
     0
  0
APPID
  2
ACAD_DSTYLE_DIMJAG
 70
     0
  0
APPID
  2
ACAD_DSTYLE_DIMTALN
 70
     0
  0
APPID
  2
ACAECLAYERSTANDARD
 70
     0
  0
APPID
  2
ACCMTRANSPARENCY
 70
     0
  0
ENDTAB
  0
TABLE
  2
DIMSTYLE
 70
     2
  0
DIMSTYLE
  2
STANDARD
 70
     0
  3

  4

  5

  6

  7

 40
1.0
 41
0.18
 42
0.0625
 43
0.38
 44
0.18
 45
0.0
 46
0.0
 47
0.0
 48
0.0
140
0.18
141
0.09
142
0.0
143
25.3999999999999986
144
1.0
145
0.0
146
1.0
147
0.09
 71
     0
 72
     0
 73
     1
 74
     1
 75
     0
 76
     0
 77
     0
 78
     0
170
     0
171
     2
172
     0
173
     0
174
     0
175
     0
176
     0
177
     0
178
     0
  0
DIMSTYLE
  2
ISO-25
 70
     0
  3

  4

  5

  6

  7

 40
1.0
 41
2.5
 42
0.625
 43
3.75
 44
1.25
 45
0.0
 46
0.0
 47
0.0
 48
0.0
140
2.5
141
2.5
142
0.0
143
0.03937007874016
144
1.0
145
0.0
146
1.0
147
0.625
 71
     0
 72
     0
 73
     0
 74
     0
 75
     0
 76
     0
 77
     1
 78
     8
170
     0
171
     3
172
     1
173
     0
174
     0
175
     0
176
     0
177
     0
178
     0
  0
ENDTAB
  0
ENDSEC
  0
SECTION
  2
BLOCKS
  0
BLOCK
  8
0
  2
$MODEL_SPACE
 70
     0
 10
0.0
 20
0.0
 30
0.0
  3
$MODEL_SPACE
  1

  0
ENDBLK
  5
1126
  8
0
  0
BLOCK
 67
     1
  8
0
  2
$PAPER_SPACE
 70
     0
 10
0.0
 20
0.0
 30
0.0
  3
$PAPER_SPACE
  1

  0
ENDBLK
  5
1124
 67
     1
  8
0
  0
ENDSEC
  0
SECTION
  2
ENTITIES
  0
TEXT
  5
5088
  8
0
 62
     3
 10
0.0
 20
0.0
 30
0.0
 40
10.0
  1
QCPSC0828-12
  7
STANDARD1
  0
CIRCLE
  5
550D
  8
0
 10
85.9999999999999432
 20
73.0000000000000142
 30
0.0
 40
3.5
  0
CIRCLE
  5
550E
  8
0
 10
71.9999999999999716
 20
72.0000000000000142
 30
0.0
 40
5.9999999999999707
  0
CIRCLE
  5
550F
  8
0
 10
57.9999999999999432
 20
73.0000000000000142
 30
0.0
 40
3.5
  0
ARC
  5
5510
  8
0
 10
71.9999999999999716
 20
73.0000000000000142
 30
0.0
 40
20.0000000000000604
 50
146.6329870307671115
 51
33.3670129692329169
  0
LINE
  5
5511
  8
0
 10
88.7032930884899855
 20
84.0000000000001137
 30
0.0
 11
55.2967069115099079
 21
84.0000000000001137
 31
0.0
  0
CIRCLE
  5
5512
  8
0
 10
57.9999999999999432
 20
73.0000000000000142
 30
0.0
 40
2.75
  0
LINE
  5
5513
  8
0
 10
57.9999999999999432
 20
71.5566243270260003
 30
0.0
 11
59.2499999999999432
 21
72.2783121635130357
 31
0.0
  0
LINE
  5
5514
  8
0
 10
59.2499999999999432
 20
72.2783121635130357
 30
0.0
 11
59.2499999999999432
 21
73.7216878364871064
 31
0.0
  0
LINE
  5
5515
  8
0
 10
59.2499999999999432
 20
73.7216878364871064
 30
0.0
 11
57.9999999999999432
 21
74.4433756729741418
 31
0.0
  0
LINE
  5
5516
  8
0
 10
57.9999999999999432
 20
74.4433756729741418
 30
0.0
 11
56.749999999999801
 21
73.7216878364871064
 31
0.0
  0
LINE
  5
5517
  8
0
 10
56.749999999999801
 20
73.7216878364871064
 30
0.0
 11
56.749999999999801
 21
72.2783121635130357
 31
0.0
  0
LINE
  5
5518
  8
0
 10
56.749999999999801
 20
72.2783121635130357
 30
0.0
 11
57.9999999999999432
 21
71.5566243270260003
 31
0.0
  0
LINE
  5
5519
  8
0
 10
85.9999999999999432
 20
71.5566243270260003
 30
0.0
 11
87.2499999999997868
 21
72.2783121635130357
 31
0.0
  0
LINE
  5
551A
  8
0
 10
87.2499999999997868
 20
72.2783121635130357
 30
0.0
 11
87.2499999999997868
 21
73.7216878364871064
 31
0.0
  0
LINE
  5
551B
  8
0
 10
87.2499999999997868
 20
73.7216878364871064
 30
0.0
 11
85.9999999999999432
 21
74.4433756729741418
 31
0.0
  0
LINE
  5
551C
  8
0
 10
85.9999999999999432
 20
74.4433756729741418
 30
0.0
 11
84.7499999999999432
 21
73.7216878364871064
 31
0.0
  0
LINE
  5
551D
  8
0
 10
84.7499999999999432
 20
73.7216878364871064
 30
0.0
 11
84.7499999999999432
 21
72.2783121635130357
 31
0.0
  0
LINE
  5
551E
  8
0
 10
84.7499999999999432
 20
72.2783121635130357
 30
0.0
 11
85.9999999999999432
 21
71.5566243270260003
 31
0.0
  0
CIRCLE
  5
551F
  8
0
 10
85.9999999999999432
 20
73.0000000000000142
 30
0.0
 40
2.75
  0
LINE
  5
5520
  8
0
 10
144.0000000000001137
 20
53.0000000000000284
 30
0.0
 11
163.9999999999998863
 21
53.0000000000001421
 31
0.0
  0
LINE
  5
5521
  8
0
 10
164.0
 20
71.5000000000000853
 30
0.0
 11
168.0
 21
71.5000000000001421
 31
0.0
  0
LINE
  5
5522
  8
0
 10
168.0
 20
74.5000000000001421
 30
0.0
 11
164.0
 21
74.5000000000000853
 31
0.0
  0
LINE
  5
5523
  8
0
 10
143.9999999999998863
 20
52.9999999999999716
 30
0.0
 11
143.9999999999998863
 21
84.0000000000001421
 31
0.0
  0
LINE
  5
5524
  8
0
 10
143.9999999999998863
 20
84.0000000000001421
 30
0.0
 11
164.0
 21
84.0000000000001421
 31
0.0
  0
LINE
  5
5525
  8
0
 10
163.9999999999998863
 20
53.0000000000000782
 30
0.0
 11
164.0
 21
84.0000000000001421
 31
0.0
  0
LINE
  5
5526
  8
0
 10
168.0
 20
71.5000000000001421
 30
0.0
 11
168.0
 21
74.5000000000001421
 31
0.0
  0
LINE
  5
5527
  8
0
 10
51.999999999999801
 20
158.0000007599591072
 30
0.0
 11
51.9999999999999432
 21
138.0000007599593062
 31
0.0
  0
LINE
  5
5528
  8
0
 10
91.9999999999999289
 20
138.0000007599595051
 30
0.0
 11
91.9999999999998295
 21
158.0000007599593914
 31
0.0
  0
LINE
  5
5529
  8
0
 10
87.4999999999998863
 20
158.0000007599593062
 30
0.0
 11
87.4999999999998437
 21
162.0000007599593914
 31
0.0
  0
LINE
  5
552A
  8
0
 10
84.4999999999998295
 20
162.0000007599593062
 30
0.0
 11
84.4999999999998863
 21
158.0000007599593062
 31
0.0
  0
LINE
  5
552B
  8
0
 10
59.4999999999998295
 20
158.0000007599591072
 30
0.0
 11
59.4999999999998295
 21
162.0000007599591072
 31
0.0
  0
LINE
  5
552C
  8
0
 10
56.499999999999801
 20
162.0000007599591072
 30
0.0
 11
56.4999999999998295
 21
158.0000007599589935
 31
0.0
  0
LINE
  5
552D
  8
0
 10
91.9999999999999289
 20
138.0000007599593062
 30
0.0
 11
51.9999999999999218
 21
138.0000007599593062
 31
0.0
  0
LINE
  5
552E
  8
0
 10
55.2967069115099079
 20
138.0000007599593062
 30
0.0
 11
55.2967069115097729
 21
158.0000007599591072
 31
0.0
  0
LINE
  5
552F
  8
0
 10
91.9999999999998295
 20
158.0000007599593914
 30
0.0
 11
51.999999999999801
 21
158.0000007599589935
 31
0.0
  0
LINE
  5
5530
  8
0
 10
88.7032930884899855
 20
138.0000007599593062
 30
0.0
 11
88.7032930884898292
 21
158.0000007599593062
 31
0.0
  0
CIRCLE
  5
5531
  8
0
 10
71.9999999999998437
 20
148.0000007599591925
 30
0.0
 40
7.3500000000000218
  0
CIRCLE
  5
5532
  8
3
 10
82.9999999999998153
 20
148.0000007599591925
 30
0.0
 40
1.0
  0
CIRCLE
  5
5533
  8
3
 10
60.9999999999998295
 20
148.0000007599591072
 30
0.0
 40
1.0
  0
LINE
  5
5534
  8
0
 10
65.9999999999998295
 20
152.2452922693846915
 30
0.0
 11
65.9999999999999147
 21
143.7547092505336934
 31
0.0
  0
LINE
  5
5535
  8
0
 10
77.9999999999999432
 20
143.7547092505338071
 30
0.0
 11
77.9999999999998153
 21
152.2452922693848052
 31
0.0
  0
LINE
  5
5536
  8
0
 10
87.4999999999998437
 20
162.0000007599593914
 30
0.0
 11
84.4999999999998295
 21
162.0000007599593062
 31
0.0
  0
LINE
  5
5537
  8
0
 10
59.4999999999998295
 20
162.0000007599591072
 30
0.0
 11
56.499999999999801
 21
162.0000007599591072
 31
0.0
  0
CIRCLE
  5
5538
  8
0
 10
82.9999999999998153
 20
148.0000007599593062
 30
0.0
 40
0.7835
  0
CIRCLE
  5
5539
  8
0
 10
60.9999999999998792
 20
148.0000007599591925
 30
0.0
 40
0.7835
  0
LINE
  5
553A
  8
3
 10
59.2294999999999234
 20
158.0000007599591925
 30
0.0
 11
59.2294999999998524
 21
162.0000007599593062
 31
0.0
  0
LINE
  5
553B
  8
3
 10
56.7704999999999131
 20
158.0000007599591925
 30
0.0
 11
56.7704999999998634
 21
162.0000007599593062
 31
0.0
  0
LINE
  5
553C
  8
1
 10
57.9999999999998934
 20
165.0000007599593062
 30
0.0
 11
57.9999999999998934
 21
135.0000007599593062
 31
0.0
  0
LINE
  5
553D
  8
1
 10
60.9999999999998792
 20
152.0000007599591925
 30
0.0
 11
60.9999999999998792
 21
144.0000007599591925
 31
0.0
  0
LINE
  5
553E
  8
1
 10
82.9999999999998153
 20
152.0000007599593062
 30
0.0
 11
82.9999999999998153
 21
144.0000007599593062
 31
0.0
  0
LINE
  5
553F
  8
1
 10
72.0000000000000142
 20
133.0000007599593062
 30
0.0
 11
71.9999999999998295
 21
163.0000007599593062
 31
0.0
  0
LINE
  5
5540
  8
1
 10
56.9999999999998792
 20
148.0000007599591925
 30
0.0
 11
86.9999999999998295
 21
148.0000007599593062
 31
0.0
  0
LINE
  5
5541
  8
3
 10
84.7704999999999131
 20
158.0000007599595051
 30
0.0
 11
84.7704999999998563
 21
162.0000007599595051
 31
0.0
  0
LINE
  5
5542
  8
3
 10
87.2294999999999163
 20
158.0000007599595051
 30
0.0
 11
87.2294999999998595
 21
162.0000007599595904
 31
0.0
  0
LINE
  5
5543
  8
1
 10
85.9999999999997868
 20
165.0000007599595051
 30
0.0
 11
86.0000000000004547
 21
135.0000007599595904
 31
0.0
  0
LINE
  5
5544
  8
1
 10
80.9999999999999432
 20
72.0000000000000142
 30
0.0
 11
63.0
 21
72.0000000000000142
 31
0.0
  0
LINE
  5
5545
  8
1
 10
71.9999999999999716
 20
89.0000000000000711
 30
0.0
 11
71.9999999999999432
 21
47.9999999999999574
 31
0.0
  0
LINE
  5
5546
  8
1
 10
57.9999999999999432
 20
79.5000000000000142
 30
0.0
 11
57.9999999999999432
 21
66.5000000000000142
 31
0.0
  0
LINE
  5
5547
  8
1
 10
85.9999999999999432
 20
79.5000000000000142
 30
0.0
 11
85.9999999999999432
 21
66.5000000000000142
 31
0.0
  0
LINE
  5
5548
  8
1
 10
51.4999999999999503
 20
73.0000000000000142
 30
0.0
 11
64.4999999999999432
 21
73.0000000000000142
 31
0.0
  0
LINE
  5
5549
  8
1
 10
92.5
 20
73.0000000000000142
 30
0.0
 11
79.5
 21
73.0000000000000142
 31
0.0
  0
LINE
  5
554A
  8
1
 10
154.0
 20
89.0000000000001421
 30
0.0
 11
153.9999999999998863
 21
48.0000000000000284
 31
0.0
  0
LINE
  5
554B
  8
3
 10
163.999999999999801
 20
74.2295000000000584
 30
0.0
 11
167.9999999999998863
 21
74.2295000000001153
 31
0.0
  0
LINE
  5
554C
  8
3
 10
163.9999999999998863
 20
71.7705000000001121
 30
0.0
 11
167.9999999999998863
 21
71.7705000000001121
 31
0.0
  0
LINE
  5
554D
  8
1
 10
170.9999999999998863
 20
73.000000000000199
 30
0.0
 11
140.9999999999998863
 21
72.9999999999995737
 31
0.0
  0
LINE
  5
554E
  8
2
 10
81.9999999999997158
 20
80.0000000000001137
 30
0.0
 11
83.9999999999997158
 21
80.0000000000001137
 31
0.0
  0
LINE
  5
554F
  8
2
 10
81.9999999999997158
 20
84.0000000000001137
 30
0.0
 11
81.9999999999997158
 21
80.0000000000001137
 31
0.0
  0
LINE
  5
5550
  8
2
 10
83.9999999999997158
 20
80.0000000000001137
 30
0.0
 11
83.9999999999997158
 21
84.0000000000001137
 31
0.0
  0
LINE
  5
5551
  8
2
 10
83.7834999999997763
 20
80.0000000000001137
 30
0.0
 11
83.7834999999997763
 21
84.0000000000001137
 31
0.0
  0
LINE
  5
5552
  8
2
 10
82.216499999999769
 20
80.0000000000001137
 30
0.0
 11
82.216499999999769
 21
84.0000000000001137
 31
0.0
  0
LINE
  5
5553
  8
1
 10
82.9999999999997158
 20
77.0000000000001279
 30
0.0
 11
82.9999999999997158
 21
87.0000000000001279
 31
0.0
  0
LINE
  5
5554
  8
2
 10
62.0000000000001705
 20
84.0000000000001137
 30
0.0
 11
62.0000000000001421
 21
80.0000000000001137
 31
0.0
  0
LINE
  5
5555
  8
2
 10
60.0000000000001705
 20
80.0000000000001137
 30
0.0
 11
60.0000000000001705
 21
84.0000000000001137
 31
0.0
  0
LINE
  5
5556
  8
2
 10
60.21650000000011
 20
80.0000000000001137
 30
0.0
 11
60.21650000000011
 21
84.0000000000001137
 31
0.0
  0
LINE
  5
5557
  8
2
 10
61.7835000000001173
 20
80.0000000000001137
 30
0.0
 11
61.7835000000001173
 21
84.0000000000001137
 31
0.0
  0
LINE
  5
5558
  8
1
 10
61.0000000000001705
 20
77.0000000000001279
 30
0.0
 11
61.0000000000001705
 21
87.0000000000001279
 31
0.0
  0
LINE
  5
5559
  8
2
 10
62.0000000000001705
 20
80.0000000000001137
 30
0.0
 11
60.0000000000001705
 21
80.0000000000001137
 31
0.0
  0
LINE
  5
555A
  8
2
 10
64.649999999999892
 20
84.0000000000001137
 30
0.0
 11
64.649999999999892
 21
72.0000000000000142
 31
0.0
  0
LINE
  5
555B
  8
2
 10
64.649999999999892
 20
72.0000000000000142
 30
0.0
 11
66.0
 21
72.0000000000000142
 31
0.0
  0
LINE
  5
555C
  8
2
 10
79.3499999999999659
 20
84.0000000000001137
 30
0.0
 11
79.3499999999999659
 21
72.0000000000000142
 31
0.0
  0
LINE
  5
555D
  8
2
 10
79.3499999999999659
 20
72.0000000000000142
 30
0.0
 11
77.9999999999999432
 21
72.0000000000000142
 31
0.0
  0
LINE
  5
555E
  8
2
 10
61.4999999999998792
 20
142.0000007599591072
 30
0.0
 11
54.4999999999998792
 21
142.0000007599589935
 31
0.0
  0
LINE
  5
555F
  8
2
 10
60.7499999999998792
 20
139.0000007599591072
 30
0.0
 11
55.2499999999998792
 21
139.0000007599589935
 31
0.0
  0
LINE
  5
5560
  8
2
 10
61.4999999999998792
 20
138.0000007599591072
 30
0.0
 11
61.4999999999998792
 21
142.0000007599591072
 31
0.0
  0
LINE
  5
5561
  8
2
 10
54.4999999999998792
 20
142.0000007599589935
 30
0.0
 11
54.4999999999998792
 21
138.0000007599589935
 31
0.0
  0
LINE
  5
5562
  8
2
 10
55.2499999999998792
 20
142.0000007599589935
 30
0.0
 11
55.2499999999998792
 21
139.0000007599589935
 31
0.0
  0
LINE
  5
5563
  8
2
 10
60.7499999999998792
 20
139.0000007599591072
 30
0.0
 11
60.7499999999998792
 21
142.0000007599591072
 31
0.0
  0
LINE
  5
5564
  8
2
 10
59.7499999999998792
 20
142.0000007599589935
 30
0.0
 11
59.7499999999998295
 21
158.0000007599591925
 31
0.0
  0
LINE
  5
5565
  8
2
 10
56.2499999999998295
 20
158.0000007599591072
 30
0.0
 11
56.2499999999998934
 21
142.0000007599589935
 31
0.0
  0
LINE
  5
5566
  8
2
 10
59.4999999999998792
 20
142.0000007599589935
 30
0.0
 11
59.4999999999998295
 21
158.0000007599591925
 31
0.0
  0
LINE
  5
5567
  8
2
 10
56.4999999999998295
 20
158.0000007599591925
 30
0.0
 11
56.4999999999998792
 21
142.0000007599589935
 31
0.0
  0
LINE
  5
5568
  8
2
 10
82.4999999999998437
 20
142.0000007599591925
 30
0.0
 11
89.4999999999998295
 21
142.0000007599593062
 31
0.0
  0
LINE
  5
5569
  8
2
 10
83.2499999999999289
 20
139.0000007599593062
 30
0.0
 11
88.7499999999999432
 21
139.0000007599593062
 31
0.0
  0
LINE
  5
556A
  8
2
 10
82.4999999999999432
 20
138.0000007599591925
 30
0.0
 11
82.4999999999998437
 21
142.0000007599591925
 31
0.0
  0
LINE
  5
556B
  8
2
 10
89.4999999999998295
 20
142.0000007599593062
 30
0.0
 11
89.4999999999999289
 21
138.0000007599593062
 31
0.0
  0
LINE
  5
556C
  8
2
 10
83.2499999999999289
 20
139.0000007599593062
 30
0.0
 11
83.2499999999998295
 21
142.0000007599593062
 31
0.0
  0
LINE
  5
556D
  8
2
 10
84.2499999999998153
 20
142.0000007599591925
 30
0.0
 11
84.2499999999997158
 21
158.0000007599593914
 31
0.0
  0
LINE
  5
556E
  8
2
 10
87.7499999999997158
 20
158.0000007599593062
 30
0.0
 11
87.7499999999998153
 21
142.0000007599591925
 31
0.0
  0
LINE
  5
556F
  8
2
 10
84.4999999999998295
 20
142.0000007599591925
 30
0.0
 11
84.4999999999997158
 21
158.0000007599593914
 31
0.0
  0
LINE
  5
5570
  8
2
 10
87.4999999999997158
 20
158.0000007599593914
 30
0.0
 11
87.4999999999998437
 21
142.0000007599591925
 31
0.0
  0
LINE
  5
5571
  8
2
 10
65.9999999999998295
 20
152.2452922693846915
 30
0.0
 11
65.9999999999997726
 21
158.0000007599591925
 31
0.0
  0
LINE
  5
5572
  8
2
 10
65.9999999999999432
 20
143.7547092505336082
 30
0.0
 11
65.9999999999999432
 21
138.0000007599593062
 31
0.0
  0
LINE
  5
5573
  8
2
 10
77.9999999999997158
 20
152.2452922693848905
 30
0.0
 11
77.9999999999996589
 21
158.0000007599593914
 31
0.0
  0
LINE
  5
5574
  8
2
 10
77.9999999999998863
 20
143.7547092505338071
 30
0.0
 11
78.0000000000000568
 21
138.0000007599593914
 31
0.0
  0
LINE
  5
5577
  8
1
 10
169.0
 20
72.0000000000000142
 30
0.0
 11
138.9999999999998863
 21
72.0000000000000142
 31
0.0
  0
LINE
  5
55AA
  8
2
 10
59.2295000000005984
 20
143.5000007599589935
 30
0.0
 11
59.4999999999998792
 21
143.0314810165129131
 31
0.0
  0
LINE
  5
55AB
  8
2
 10
56.7704999999991671
 20
143.5000007599589935
 30
0.0
 11
56.4999999999998792
 21
143.0314810165129131
 31
0.0
  0
LINE
  5
55AC
  8
2
 10
56.4999999999998792
 20
143.5000007599589935
 30
0.0
 11
59.4999999999998792
 21
143.5000007599589935
 31
0.0
  0
LINE
  5
55B6
  8
2
 10
87.2295000000010248
 20
143.5000007599591925
 30
0.0
 11
87.5000000000002984
 21
143.0314810165131121
 31
0.0
  0
LINE
  5
55B7
  8
2
 10
84.7704999999995863
 20
143.5000007599591925
 30
0.0
 11
84.5000000000002842
 21
143.0314810165131121
 31
0.0
  0
LINE
  5
55B8
  8
2
 10
84.5000000000002842
 20
143.5000007599591925
 30
0.0
 11
87.5000000000002984
 21
143.5000007599591925
 31
0.0
  0
LINE
  5
55B9
  8
2
 10
56.7704999999999131
 20
158.0000007599591072
 30
0.0
 11
56.77049999999997
 21
143.5000007599603862
 31
0.0
  0
LINE
  5
55BA
  8
2
 10
59.2294999999999234
 20
158.0000007599591072
 30
0.0
 11
59.229499999999959
 21
143.5000007599601872
 31
0.0
  0
LINE
  5
55BB
  8
2
 10
84.7704999999999131
 20
158.0000007599595904
 30
0.0
 11
84.7704999999999842
 21
143.500000759959903
 31
0.0
  0
LINE
  5
55BC
  8
2
 10
87.2294999999999163
 20
158.0000007599593062
 30
0.0
 11
87.2294999999999732
 21
143.5000007599610115
 31
0.0
  0
LINE
  5
55CD
  8
2
 10
88.7499999999999432
 20
139.0000007599593062
 30
0.0
 11
88.7499999999998437
 21
142.0000007599593062
 31
0.0
  0
ENDSEC
  0
EOF
